  0
SECTION
  2
HEADER
  9
$ACADVER
  1
AC1009
  9
$DWGCODEPAGE
  3
dos932
  9
$INSBASE
 10
0.0
 20
0.0
 30
0.0
  9
$EXTMIN
 10
-5.130498367495008
 20
-34.650001525878928
 30
0.0
  9
$EXTMAX
 10
86.46741792127699
 20
34.650001525878928
 30
0.0
  9
$LIMMIN
 10
-5.130498367495008
 20
-34.650001525878928
  9
$LIMMAX
 10
86.46741792127699
 20
34.650001525878928
  9
$ORTHOMODE
 70
               0
  9
$REGENMODE
 70
               1
  9
$FILLMODE
 70
               1
  9
$QTEXTMODE
 70
               0
  9
$MIRRTEXT
 70
               1
  9
$DRAGMODE
 70
               2
  9
$LTSCALE
 40
1.0
  9
$OSMODE
 70
               0
  9
$ATTMODE
 70
               1
  9
$TEXTSIZE
 40
3.2000000476837158
  9
$TRACEWID
 40
0.05
  9
$TEXTSTYLE
  7
MX_NOTE_STANDARD
  9
$CLAYER
  8
LY_3
  9
$CELTYPE
  6
CONTINUOUS
  9
$CECOLOR
 62
             256
  9
$DIMSCALE
 40
1.0
  9
$DIMASZ
 40
2.5
  9
$DIMEXO
 40
2.0
  9
$DIMDLI
 40
3.75
  9
$DIMRND
 40
0.0
  9
$DIMDLE
 40
0.0
  9
$DIMEXE
 40
1.0
  9
$DIMTP
 40
0.0
  9
$DIMTM
 40
0.0
  9
$DIMTXT
 40
4.1655998229980469
  9
$DIMCEN
 40
2.5
  9
$DIMTSZ
 40
0.0
  9
$DIMTOL
 70
               0
  9
$DIMLIM
 70
               0
  9
$DIMTIH
 70
               0
  9
$DIMTOH
 70
               0
  9
$DIMSE1
 70
               0
  9
$DIMSE2
 70
               0
  9
$DIMTAD
 70
               1
  9
$DIMZIN
 70
               8
  9
$DIMBLK
  1

  9
$DIMASO
 70
               1
  9
$DIMSHO
 70
               1
  9
$DIMPOST
  1

  9
$DIMAPOST
  1

  9
$DIMALT
 70
               0
  9
$DIMALTD
 70
               4
  9
$DIMALTF
 40
0.03937007874016
  9
$DIMLFAC
 40
1.0
  9
$DIMTOFL
 70
               1
  9
$DIMTVP
 40
0.0
  9
$DIMTIX
 70
               0
  9
$DIMSOXD
 70
               0
  9
$DIMSAH
 70
               1
  9
$DIMBLK1
  1
_OPEN30
  9
$DIMBLK2
  1
_OPEN30
  9
$DIMSTYLE
  2
MXDIMSTYLE
  9
$DIMCLRD
 70
               0
  9
$DIMCLRE
 70
               0
  9
$DIMCLRT
 70
               0
  9
$DIMTFAC
 40
1.0
  9
$DIMGAP
 40
1.0
  9
$LUNITS
 70
               2
  9
$LUPREC
 70
               4
  9
$AXISMODE
 70
               0
  9
$AXISUNIT
 10
0.0
 20
0.0
  9
$SKETCHINC
 40
0.1
  9
$FILLETRAD
 40
0.0
  9
$AUNITS
 70
               0
  9
$AUPREC
 70
               0
  9
$MENU
  1
acad
  9
$ELEVATION
 40
0.0
  9
$PELEVATION
 40
0.0
  9
$THICKNESS
 40
0.0
  9
$LIMCHECK
 70
               0
  9
$BLIPMODE
 70
               1
  9
$CHAMFERA
 40
0.0
  9
$CHAMFERB
 40
0.0
  9
$SKPOLY
 70
               0
  9
$TDCREATE
 40
2455163.518206019
  9
$TDUPDATE
 40
2455163.518206019
  9
$TDINDWG
 40
0.0000000000
  9
$TDUSRTIMER
 40
0.0000000000
  9
$USRTIMER
 70
               1
  9
$ANGBASE
 50
0.0
  9
$ANGDIR
 70
               0
  9
$PDMODE
 70
               0
  9
$PDSIZE
 40
0.0
  9
$PLINEWID
 40
0.0
  9
$COORDS
 70
               1
  9
$SPLFRAME
 70
               0
  9
$SPLINETYPE
 70
               6
  9
$SPLINESEGS
 70
               8
  9
$ATTDIA
 70
               0
  9
$ATTREQ
 70
               1
  9
$HANDLING
 70
               1
  9
$HANDSEED
  5
AA
  9
$SURFTAB1
 70
               6
  9
$SURFTAB2
 70
               6
  9
$SURFTYPE
 70
               6
  9
$SURFU
 70
               6
  9
$SURFV
 70
               6
  9
$UCSNAME
  2

  9
$UCSORG
 10
0.0
 20
0.0
 30
0.0
  9
$UCSXDIR
 10
1.0
 20
0.0
 30
0.0
  9
$UCSYDIR
 10
0.0
 20
1.0
 30
0.0
  9
$PUCSNAME
  2

  9
$PUCSORG
 10
0.0
 20
0.0
 30
0.0
  9
$PUCSXDIR
 10
1.0
 20
0.0
 30
0.0
  9
$PUCSYDIR
 10
0.0
 20
1.0
 30
0.0
  9
$USERI1
 70
               0
  9
$USERI2
 70
               0
  9
$USERI3
 70
               0
  9
$USERI4
 70
               0
  9
$USERI5
 70
               0
  9
$USERR1
 40
0.0
  9
$USERR2
 40
0.0
  9
$USERR3
 40
0.0
  9
$USERR4
 40
0.0
  9
$USERR5
 40
0.0
  9
$WORLDVIEW
 70
               1
  9
$SHADEDGE
 70
               3
  9
$SHADEDIF
 70
              70
  9
$TILEMODE
 70
               1
  9
$MAXACTVP
 70
              16
  9
$PINSBASE
 10
0.0
 20
0.0
 30
0.0
  9
$PLIMCHECK
 70
               0
  9
$PEXTMIN
 10
1.0000000000000000E+20
 20
1.0000000000000000E+20
 30
1.0000000000000000E+20
  9
$PEXTMAX
 10
-1.0000000000000000E+20
 20
-1.0000000000000000E+20
 30
-1.0000000000000000E+20
  9
$PLIMMIN
 10
0.0
 20
0.0
  9
$PLIMMAX
 10
12.0
 20
9.0
  9
$UNITMODE
 70
               0
  9
$VISRETAIN
 70
               0
  9
$PLINEGEN
 70
               1
  9
$PSLTSCALE
 70
               0
  9
$TREEDEPTH
 70
            3020
  0
ENDSEC
  0
SECTION
  2
TABLES
  0
TABLE
  2
VPORT
 70
               1
  0
VPORT
  2
*ACTIVE
 70
               0
 10
0.0
 20
0.0
 11
1.0
 21
1.0
 12
40.668459776890991
 22
0.0
 13
0.0
 23
0.0
 14
1.0
 24
1.0
 15
0.0
 25
0.0
 16
0.0
 26
0.0
 36
1.0
 17
0.0
 27
0.0
 37
0.0
 40
69.993003082275436
 41
1.7320508075688772
 42
50.0
 43
0.0
 44
0.0
 50
0.0
 51
0.0
 71
               0
 72
             100
 73
               1
 74
               1
 75
               0
 76
               0
 77
               0
 78
               0
  0
ENDTAB
  0
TABLE
  2
LTYPE
 70
               3
  0
LTYPE
  2
CONTINUOUS
 70
              64
  3
Solid line
 72
              65
 73
               0
 40
0.0
  0
LTYPE
  2
CENTER
 70
              64
  3
Center ____ _ ____ _ ____ _ ____ _ ____ _ ____
 72
              65
 73
               4
 40
50.800000000000004
 49
31.75
 49
-6.3499999999999996
 49
6.3499999999999996
 49
-6.3499999999999996
  0
LTYPE
  2
PHANTOM
 70
              64
  3
Phantom ______  __  __  ______  __  __  ______
 72
              65
 73
               6
 40
63.500000000000007
 49
31.75
 49
-6.3499999999999996
 49
6.3499999999999996
 49
-6.3499999999999996
 49
6.3499999999999996
 49
-6.3499999999999996
  0
ENDTAB
  0
TABLE
  2
LAYER
 70
               3
  0
LAYER
  2
0
 70
               0
 62
               7
  6
CONTINUOUS
  0
LAYER
  2
DEFPOINTS
 70
               0
 62
               7
  6
CONTINUOUS
  0
LAYER
  2
LY_3
 70
               0
 62
               7
  6
CONTINUOUS
  0
ENDTAB
  0
TABLE
  2
STYLE
 70
               1
  0
STYLE
  2
MX_NOTE_STANDARD
 70
               0
 40
0.0
 41
1.0
 50
0.0
 71
               0
 42
3.2000000476837158
  3
txt.shx
  4
extfont.shx
  0
ENDTAB
  0
TABLE
  2
VIEW
 70
               0
  0
ENDTAB
  0
TABLE
  2
UCS
 70
               0
  0
ENDTAB
  0
TABLE
  2
APPID
 70
               1
  0
APPID
  2
ACAD
 70
               0
  0
ENDTAB
  0
TABLE
  2
DIMSTYLE
 70
               1
  0
DIMSTYLE
  2
MXDIMSTYLE
 70
               0
  3

  4

  5

  6
_OPEN30
  7
_OPEN30
 40
1.0
 41
2.5
 42
2.0
 43
3.75
 44
1.0
 45
0.0
 46
0.0
 47
0.0
 48
0.0
 71
               0
 72
               0
 73
               0
 74
               0
 75
               0
 76
               0
 77
               1
 78
               8
140
4.1655998229980469
141
2.5
142
0.0
143
0.03937007874016
144
1.0
145
0.0
146
1.0
147
1.0
170
               0
171
               4
172
               1
173
               1
174
               0
175
               0
176
               0
177
               0
178
               0
  0
ENDTAB
  0
ENDSEC
  0
SECTION
  2
BLOCKS
  0
BLOCK
  8
0
  6
BYBLOCK
 62
               0
  5
20
  2
_OPEN30
 70
               2
 10
0.0
 20
0.0
 30
0.0
  3
_OPEN30
  0
LINE
  8
0
  6
BYBLOCK
 62
               0
  5
21
 10
-1.0
 20
0.267949
 30
0.0
 11
0.0
 21
0.0
 31
0.0
  0
LINE
  8
0
  6
BYBLOCK
 62
               0
  5
22
 10
0.0
 20
0.0
 30
0.0
 11
-1.0
 21
-0.267949
 31
0.0
  0
LINE
  8
0
  6
BYBLOCK
 62
               0
  5
23
 10
0.0
 20
0.0
 30
0.0
 11
-1.0
 21
0.0
 31
0.0
  0
ENDBLK
  8
0
  6
BYBLOCK
 62
               0
  5
24
  0
ENDSEC
  0
SECTION
  2
ENTITIES
  0
ARC
  8
LY_3
  6
CONTINUOUS
 62
               3
  5
25
 10
78.592330932617188
 20
23.900001525878906
 30
0.0
 40
0.25
 50
89.999982013910653
 51
199.99985074788586
  0
ARC
  8
LY_3
  6
CONTINUOUS
 62
               3
  5
26
 10
78.592330932617188
 20
-23.900001525878906
 30
0.0
 40
0.25
 50
160.00007730775678
 51
269.99994604173196
  0
ARC
  8
LY_3
  6
CONTINUOUS
 62
               3
  5
27
 10
1.4076690673828125
 20
-23.900001525878906
 30
0.0
 40
0.25
 50
270.00001798608935
 51
19.999886720064538
  0
ARC
  8
LY_3
  6
CONTINUOUS
 62
               3
  5
28
 10
1.4076690673828125
 20
23.900001525878906
 30
0.0
 40
0.25
 50
340.00011327993548
 51
89.999982013910653
  0
LINE
  8
LY_3
  6
CONTINUOUS
 62
               3
  5
29
 10
63.500000000000021
 20
-16.40000000000002
 30
0.0
 11
62.499999926794921
 21
-17.400000000000023
 31
0.0
  0
LINE
  8
LY_3
  6
CONTINUOUS
 62
               3
  5
2A
 10
16.499999999999993
 20
-16.400000000000006
 30
0.0
 11
17.500000073205094
 21
-17.400000000000006
 31
0.0
  0
LINE
  8
LY_3
  6
CONTINUOUS
 62
               3
  5
2B
 10
63.500000000000043
 20
16.400000000000034
 30
0.0
 11
62.499999926794942
 21
17.400000000000034
 31
0.0
  0
LINE
  8
LY_3
  6
CONTINUOUS
 62
               3
  5
2C
 10
63.5
 20
-16.399999999999999
 30
0.0
 11
63.5
 21
16.399999999999999
 31
0.0
  0
LINE
  8
LY_3
  6
CONTINUOUS
 62
               3
  5
2D
 10
16.499999999999996
 20
16.400000000000006
 30
0.0
 11
17.500000073205097
 21
17.400000000000006
 31
0.0
  0
LINE
  8
LY_3
  6
CONTINUOUS
 62
               3
  5
2E
 10
16.5
 20
-16.399999999999999
 30
0.0
 11
16.5
 21
16.399999999999999
 31
0.0
  0
LINE
  8
LY_3
  6
CONTINUOUS
 62
               3
  5
2F
 10
66.5
 20
-18.100000000000001
 30
0.0
 11
66.5
 21
-19.0
 31
0.0
  0
LINE
  8
LY_3
  6
CONTINUOUS
 62
             100
  5
30
 10
65.099999999999994
 20
-18.100000000000001
 30
0.0
 11
66.5
 21
-18.100000000000001
 31
0.0
  0
LINE
  8
LY_3
  6
CONTINUOUS
 62
               3
  5
31
 10
65.099999999999994
 20
-18.099999999999998
 30
0.0
 11
64.099999999999994
 21
-17.099999999999994
 31
0.0
  0
LINE
  8
LY_3
  6
CONTINUOUS
 62
               3
  5
32
 10
64.099999999999994
 20
-17.099999999999991
 30
0.0
 11
63.100000000000001
 21
-18.099999999999998
 31
0.0
  0
LINE
  8
LY_3
  6
CONTINUOUS
 62
             100
  5
33
 10
62.5
 20
-18.100000000000001
 30
0.0
 11
63.100000000000001
 21
-18.100000000000001
 31
0.0
  0
LINE
  8
LY_3
  6
CONTINUOUS
 62
               3
  5
34
 10
66.5
 20
18.100000000000001
 30
0.0
 11
66.5
 21
19.0
 31
0.0
  0
LINE
  8
LY_3
  6
CONTINUOUS
 62
             100
  5
35
 10
65.099999999999994
 20
18.100000000000001
 30
0.0
 11
66.5
 21
18.100000000000001
 31
0.0
  0
LINE
  8
LY_3
  6
CONTINUOUS
 62
               3
  5
36
 10
65.099999999999994
 20
18.099999999999987
 30
0.0
 11
64.099999999999994
 21
17.09999999999998
 31
0.0
  0
LINE
  8
LY_3
  6
CONTINUOUS
 62
               3
  5
37
 10
64.099999999999994
 20
17.099999999999994
 30
0.0
 11
63.099999999999987
 21
18.100000000000001
 31
0.0
  0
LINE
  8
LY_3
  6
CONTINUOUS
 62
             100
  5
38
 10
62.5
 20
18.100000000000001
 30
0.0
 11
63.100000000000001
 21
18.100000000000001
 31
0.0
  0
LINE
  8
LY_3
  6
CONTINUOUS
 62
               3
  5
39
 10
13.5
 20
-18.100000000000001
 30
0.0
 11
13.5
 21
-19.0
 31
0.0
  0
LINE
  8
LY_3
  6
CONTINUOUS
 62
             100
  5
3A
 10
14.899999999999999
 20
-18.100000000000001
 30
0.0
 11
13.5
 21
-18.100000000000001
 31
0.0
  0
LINE
  8
LY_3
  6
CONTINUOUS
 62
               3
  5
3B
 10
14.899999999999997
 20
-18.099999999999998
 30
0.0
 11
15.899999999999999
 21
-17.099999999999994
 31
0.0
  0
LINE
  8
LY_3
  6
CONTINUOUS
 62
               3
  5
3C
 10
15.899999999999993
 20
-17.099999999999994
 30
0.0
 11
16.899999999999995
 21
-18.100000000000001
 31
0.0
  0
LINE
  8
LY_3
  6
CONTINUOUS
 62
             100
  5
3D
 10
17.5
 20
-18.100000000000001
 30
0.0
 11
16.899999999999999
 21
-18.100000000000001
 31
0.0
  0
LINE
  8
LY_3
  6
CONTINUOUS
 62
             100
  5
3E
 10
14.899999999999999
 20
18.100000000000001
 30
0.0
 11
13.5
 21
18.100000000000001
 31
0.0
  0
LINE
  8
LY_3
  6
CONTINUOUS
 62
               3
  5
3F
 10
14.899999999999995
 20
18.100000000000001
 30
0.0
 11
15.899999999999995
 21
17.099999999999994
 31
0.0
  0
LINE
  8
LY_3
  6
CONTINUOUS
 62
               3
  5
40
 10
15.899999999999993
 20
17.099999999999994
 30
0.0
 11
16.899999999999995
 21
18.100000000000001
 31
0.0
  0
LINE
  8
LY_3
  6
CONTINUOUS
 62
               3
  5
41
 10
13.5
 20
18.100000000000001
 30
0.0
 11
13.5
 21
19.0
 31
0.0
  0
LINE
  8
LY_3
  6
CONTINUOUS
 62
               3
  5
42
 10
0.5000000000000036
 20
34.650001525878906
 30
0.0
 11
0.0000000000000036
 21
34.150001489276363
 31
0.0
  0
LINE
  8
LY_3
  6
CONTINUOUS
 62
               3
  5
43
 10
12.199996948242188
 20
34.650001525878906
 30
0.0
 11
12.699996948242188
 21
34.15000148927637
 31
0.0
  0
LINE
  8
LY_3
  6
CONTINUOUS
 62
               3
  5
44
 10
67.800003051757813
 20
34.650001525878928
 30
0.0
 11
67.300003051757827
 21
34.150001489276377
 31
0.0
  0
LINE
  8
LY_3
  6
CONTINUOUS
 62
               3
  5
45
 10
79.5
 20
34.650001525878892
 30
0.0
 11
80.0
 21
34.150001489276356
 31
0.0
  0
LINE
  8
LY_3
  6
CONTINUOUS
 62
               3
  5
46
 10
79.500000000000043
 20
-34.650001525878928
 30
0.0
 11
80.000000000000028
 21
-34.15000148927637
 31
0.0
  0
LINE
  8
LY_3
  6
CONTINUOUS
 62
               3
  5
47
 10
67.800003051757813
 20
-34.650001525878906
 30
0.0
 11
67.300003051757813
 21
-34.150001489276363
 31
0.0
  0
LINE
  8
LY_3
  6
CONTINUOUS
 62
               3
  5
48
 10
12.199996948242188
 20
-34.650001525878906
 30
0.0
 11
12.699996948242189
 21
-34.150001489276349
 31
0.0
  0
LINE
  8
LY_3
  6
CONTINUOUS
 62
               3
  5
49
 10
0.4999999999999929
 20
-34.650001525878906
 30
0.0
 11
-0.0000000000000071
 21
-34.15000148927637
 31
0.0
  0
LINE
  8
LY_3
  6
CENTER
 62
             110
  5
4B
 10
-5.130498367495008
 20
0.0
 30
0.0
 11
86.46741792127699
 21
0.0
 31
0.0
  0
LINE
  8
LY_3
  6
CONTINUOUS
 62
             100
  5
4C
 10
80.0
 20
-25.950000762939453
 30
0.0
 11
67.300003051757813
 21
-25.950000762939453
 31
0.0
  0
LINE
  8
LY_3
  6
CONTINUOUS
 62
             100
  5
4D
 10
80.0
 20
-32.75
 30
0.0
 11
67.300003051757813
 21
-32.75
 31
0.0
  0
LINE
  8
LY_3
  6
CONTINUOUS
 62
             100
  5
4E
 10
0.0
 20
-25.950000762939453
 30
0.0
 11
12.699996948242188
 21
-25.950000762939453
 31
0.0
  0
LINE
  8
LY_3
  6
CONTINUOUS
 62
             100
  5
4F
 10
0.0
 20
-32.75
 30
0.0
 11
12.699996948242188
 21
-32.75
 31
0.0
  0
LINE
  8
LY_3
  6
CONTINUOUS
 62
             100
  5
50
 10
69.699996948242188
 20
-17.5
 30
0.0
 11
74.699996948242187
 21
-17.5
 31
0.0
  0
LINE
  8
LY_3
  6
CONTINUOUS
 62
             100
  5
51
 10
69.699996948242188
 20
-17.5
 30
0.0
 11
69.699996948242188
 21
17.5
 31
0.0
  0
LINE
  8
LY_3
  6
CONTINUOUS
 62
             100
  5
52
 10
63.5
 20
-15.0
 30
0.0
 11
69.699996948242188
 21
-15.0
 31
0.0
  0
LINE
  8
LY_3
  6
CONTINUOUS
 62
             100
  5
53
 10
66.5
 20
-19.0
 30
0.0
 11
74.699996948242187
 21
-19.0
 31
0.0
  0
LINE
  8
LY_3
  6
CONTINUOUS
 62
             100
  5
54
 10
63.5
 20
15.0
 30
0.0
 11
69.699996948242188
 21
15.0
 31
0.0
  0
LINE
  8
LY_3
  6
CONTINUOUS
 62
             100
  5
55
 10
69.699996948242188
 20
17.5
 30
0.0
 11
74.699996948242187
 21
17.5
 31
0.0
  0
LINE
  8
LY_3
  6
CONTINUOUS
 62
             100
  5
56
 10
66.5
 20
19.0
 30
0.0
 11
74.699996948242187
 21
19.0
 31
0.0
  0
LINE
  8
LY_3
  6
CONTINUOUS
 62
             100
  5
57
 10
79.400004750484982
 20
20.950035322049267
 30
0.0
 11
78.800001647897034
 21
20.897542943542753
 31
0.0
  0
LINE
  8
LY_3
  6
CONTINUOUS
 62
             100
  5
58
 10
79.399952672363042
 20
20.949976133810253
 30
0.0
 11
78.357363142077801
 21
23.814467904352156
 31
0.0
  0
LINE
  8
LY_3
  6
CONTINUOUS
 62
             100
  5
59
 10
79.4000010955383
 20
-20.950016047398165
 30
0.0
 11
78.800005593313955
 21
-20.897524333823483
 31
0.0
  0
LINE
  8
LY_3
  6
CONTINUOUS
 62
             100
  5
5A
 10
79.399953427672756
 20
-20.949970150620054
 30
0.0
 11
78.357362592684453
 21
-23.814465505804918
 31
0.0
  0
LINE
  8
LY_3
  6
CONTINUOUS
 62
             100
  5
5B
 10
67.300003051757813
 20
-19.149999618530273
 30
0.0
 11
67.300003051757813
 21
-34.150001489276363
 31
0.0
  0
LINE
  8
LY_3
  6
CONTINUOUS
 62
             100
  5
5C
 10
67.300003051757813
 20
34.150001489276349
 30
0.0
 11
67.300003051757813
 21
19.150001525878906
 31
0.0
  0
LINE
  8
LY_3
  6
CONTINUOUS
 62
             100
  5
5D
 10
74.699996948242187
 20
19.150001525878906
 30
0.0
 11
74.699996948242187
 21
-19.149999618530273
 31
0.0
  0
LINE
  8
LY_3
  6
CONTINUOUS
 62
             100
  5
5E
 10
76.699996948242188
 20
19.150001525878906
 30
0.0
 11
76.699996948242188
 21
-19.149999618530273
 31
0.0
  0
LINE
  8
LY_3
  6
CONTINUOUS
 62
             100
  5
5F
 10
78.800003051757813
 20
20.897506713867188
 30
0.0
 11
78.800003051757813
 21
-20.897506713867188
 31
0.0
  0
LINE
  8
LY_3
  6
CONTINUOUS
 62
             100
  5
60
 10
80.0
 20
34.15000148927637
 30
0.0
 11
80.0
 21
-34.150001489276342
 31
0.0
  0
LINE
  8
LY_3
  6
CENTER
 62
             110
  5
61
 10
83.0
 20
-29.349998474121094
 30
0.0
 11
64.300003051757812
 21
-29.349998474121094
 31
0.0
  0
LINE
  8
LY_3
  6
CENTER
 62
             110
  5
62
 10
83.0
 20
29.349998474121094
 30
0.0
 11
64.300003051757812
 21
29.349998474121094
 31
0.0
  0
LINE
  8
LY_3
  6
CONTINUOUS
 62
               3
  5
63
 10
74.699996948242187
 20
-19.150001525878906
 30
0.0
 11
67.300003051757813
 21
-19.150001525878906
 31
0.0
  0
LINE
  8
LY_3
  6
CONTINUOUS
 62
             100
  5
64
 10
74.699996948242187
 20
19.150001525878906
 30
0.0
 11
67.300003051757813
 21
19.150001525878906
 31
0.0
  0
LINE
  8
LY_3
  6
CONTINUOUS
 62
             100
  5
65
 10
76.699996948242188
 20
-18.049999237060547
 30
0.0
 11
74.699996948242187
 21
-18.049999237060547
 31
0.0
  0
LINE
  8
LY_3
  6
CONTINUOUS
 62
             100
  5
66
 10
76.699996948242188
 20
18.049999237060547
 30
0.0
 11
74.699996948242187
 21
18.049999237060547
 31
0.0
  0
LINE
  8
LY_3
  6
CONTINUOUS
 62
             100
  5
67
 10
78.800003051757813
 20
19.150001525878906
 30
0.0
 11
76.699996948242188
 21
19.150001525878906
 31
0.0
  0
LINE
  8
LY_3
  6
CONTINUOUS
 62
             100
  5
68
 10
78.800003051757813
 20
-19.150001525878906
 30
0.0
 11
76.699996948242188
 21
-19.150001525878906
 31
0.0
  0
LINE
  8
LY_3
  6
CONTINUOUS
 62
             100
  5
69
 10
80.0
 20
32.75
 30
0.0
 11
67.300003051757813
 21
32.75
 31
0.0
  0
LINE
  8
LY_3
  6
CONTINUOUS
 62
             100
  5
6A
 10
80.0
 20
25.950000762939453
 30
0.0
 11
67.300003051757813
 21
25.950000762939453
 31
0.0
  0
LINE
  8
LY_3
  6
CONTINUOUS
 62
             100
  5
6B
 10
80.0
 20
-24.150001525878906
 30
0.0
 11
78.592330932617188
 21
-24.150001525878906
 31
0.0
  0
LINE
  8
LY_3
  6
CONTINUOUS
 62
             100
  5
6C
 10
80.0
 20
24.150001525878906
 30
0.0
 11
78.592330932617188
 21
24.150001525878906
 31
0.0
  0
LINE
  8
LY_3
  6
CONTINUOUS
 62
             100
  5
6D
 10
79.5
 20
34.650001525878906
 30
0.0
 11
67.800003051757813
 21
34.650001525878906
 31
0.0
  0
LINE
  8
LY_3
  6
CONTINUOUS
 62
             100
  5
6E
 10
79.5
 20
-34.650001525878906
 30
0.0
 11
67.800003051757813
 21
-34.650001525878906
 31
0.0
  0
LINE
  8
LY_3
  6
PHANTOM
 62
             110
  5
70
 10
20.5
 20
-18.0
 30
0.0
 11
59.5
 21
-18.0
 31
0.0
  0
LINE
  8
LY_3
  6
PHANTOM
 62
             110
  5
71
 10
19.0
 20
-11.0
 30
0.0
 11
61.0
 21
-11.0
 31
0.0
  0
LINE
  8
LY_3
  6
PHANTOM
 62
             110
  5
72
 10
19.0
 20
11.0
 30
0.0
 11
61.0
 21
11.0
 31
0.0
  0
LINE
  8
LY_3
  6
PHANTOM
 62
             110
  5
73
 10
20.5
 20
18.0
 30
0.0
 11
59.5
 21
18.0
 31
0.0
  0
LINE
  8
LY_3
  6
CONTINUOUS
 62
             100
  5
74
 10
61.0
 20
-15.5
 30
0.0
 11
61.0
 21
-11.0
 31
0.0
  0
LINE
  8
LY_3
  6
CONTINUOUS
 62
             100
  5
75
 10
59.5
 20
-17.0
 30
0.0
 11
59.5
 21
-18.0
 31
0.0
  0
LINE
  8
LY_3
  6
CONTINUOUS
 62
             100
  5
76
 10
60.999948224773419
 20
-15.499956299719944
 30
0.0
 11
59.499946606717735
 21
-16.999957917775632
 31
0.0
  0
LINE
  8
LY_3
  6
CONTINUOUS
 62
             100
  5
77
 10
62.499949842829089
 20
-17.000065813707764
 30
0.0
 11
60.999942829976796
 21
-15.50005880085547
 31
0.0
  0
LINE
  8
LY_3
  6
CONTINUOUS
 62
             100
  5
78
 10
19.0
 20
-15.5
 30
0.0
 11
19.0
 21
-11.0
 31
0.0
  0
LINE
  8
LY_3
  6
CONTINUOUS
 62
             100
  5
79
 10
20.5
 20
-17.0
 30
0.0
 11
20.5
 21
-18.0
 31
0.0
  0
LINE
  8
LY_3
  6
CONTINUOUS
 62
             100
  5
7A
 10
18.999913717751088
 20
-15.500080380041862
 30
0.0
 11
20.499915335806776
 21
-17.000081998097549
 31
0.0
  0
LINE
  8
LY_3
  6
CONTINUOUS
 62
             100
  5
7B
 10
17.499906704898827
 20
-16.999936338589244
 30
0.0
 11
18.999908322954511
 21
-15.499934720533556
 31
0.0
  0
LINE
  8
LY_3
  6
CONTINUOUS
 62
             100
  5
7C
 10
61.0
 20
15.5
 30
0.0
 11
61.0
 21
11.0
 31
0.0
  0
LINE
  8
LY_3
  6
CONTINUOUS
 62
             100
  5
7D
 10
59.5
 20
17.0
 30
0.0
 11
59.5
 21
18.0
 31
0.0
  0
LINE
  8
LY_3
  6
CONTINUOUS
 62
             100
  5
7E
 10
60.999973850057316
 20
15.499973290262872
 30
0.0
 11
59.499972232001625
 21
16.999974908318556
 31
0.0
  0
LINE
  8
LY_3
  6
CONTINUOUS
 62
             100
  5
7F
 10
62.499912079252837
 20
17.000094942543036
 30
0.0
 11
60.99990911249801
 21
15.500091975788195
 31
0.0
  0
LINE
  8
LY_3
  6
CONTINUOUS
 62
             100
  5
80
 10
19.0
 20
15.5
 30
0.0
 11
19.0
 21
11.0
 31
0.0
  0
LINE
  8
LY_3
  6
CONTINUOUS
 62
             100
  5
81
 10
20.5
 20
17.0
 30
0.0
 11
20.5
 21
18.0
 31
0.0
  0
LINE
  8
LY_3
  6
CONTINUOUS
 62
             100
  5
82
 10
18.999897533361299
 20
15.500087929690679
 30
0.0
 11
20.499899151416983
 21
17.00008954774637
 31
0.0
  0
LINE
  8
LY_3
  6
CONTINUOUS
 62
             100
  5
83
 10
17.499928284085222
 20
16.999938493441462
 30
0.0
 11
18.999929902140909
 21
15.499936875385771
 31
0.0
  0
LINE
  8
LY_3
  6
CONTINUOUS
 62
             100
  5
84
 10
10.300003051757812
 20
-17.5
 30
0.0
 11
5.3000030517578125
 21
-17.5
 31
0.0
  0
LINE
  8
LY_3
  6
CONTINUOUS
 62
             100
  5
85
 10
10.300003051757812
 20
-17.5
 30
0.0
 11
10.300003051757812
 21
17.5
 31
0.0
  0
LINE
  8
LY_3
  6
CONTINUOUS
 62
             100
  5
86
 10
16.5
 20
-15.0
 30
0.0
 11
10.300003051757812
 21
-15.0
 31
0.0
  0
LINE
  8
LY_3
  6
CONTINUOUS
 62
             100
  5
87
 10
17.5
 20
-18.100000000000001
 30
0.0
 11
17.5
 21
18.100000000000001
 31
0.0
  0
LINE
  8
LY_3
  6
CONTINUOUS
 62
             100
  5
88
 10
13.5
 20
-19.0
 30
0.0
 11
5.3000030517578125
 21
-19.0
 31
0.0
  0
LINE
  8
LY_3
  6
CONTINUOUS
 62
             100
  5
89
 10
16.5
 20
15.0
 30
0.0
 11
10.300003051757812
 21
15.0
 31
0.0
  0
LINE
  8
LY_3
  6
CONTINUOUS
 62
             100
  5
8A
 10
10.300003051757812
 20
17.5
 30
0.0
 11
5.3000030517578125
 21
17.5
 31
0.0
  0
LINE
  8
LY_3
  6
CONTINUOUS
 62
             100
  5
8B
 10
13.5
 20
19.0
 30
0.0
 11
5.3000030517578125
 21
19.0
 31
0.0
  0
LINE
  8
LY_3
  6
CONTINUOUS
 62
             100
  5
8C
 10
17.5
 20
18.100000000000001
 30
0.0
 11
16.899999999999999
 21
18.100000000000001
 31
0.0
  0
LINE
  8
LY_3
  6
CONTINUOUS
 62
             100
  5
8D
 10
0.5999916296411278
 20
20.950024404766843
 30
0.0
 11
1.1999947322290581
 21
20.897532026260329
 31
0.0
  0
LINE
  8
LY_3
  6
CONTINUOUS
 62
             100
  5
8E
 10
0.6000906206940044
 20
20.949964841872792
 30
0.0
 11
1.6426814338576179
 21
23.814460205001197
 31
0.0
  0
LINE
  8
LY_3
  6
CONTINUOUS
 62
             100
  5
8F
 10
0.5999954923789872
 20
-20.95000750522934
 30
0.0
 11
1.1999833942397515
 21
-20.897516456586494
 31
0.0
  0
LINE
  8
LY_3
  6
CONTINUOUS
 62
             100
  5
90
 10
0.6000816475568627
 20
-20.949963912761728
 30
0.0
 11
1.6426724607204761
 21
-23.814459275890137
 31
0.0
  0
LINE
  8
LY_3
  6
CONTINUOUS
 62
             100
  5
91
 10
12.699996948242188
 20
-19.149999618530273
 30
0.0
 11
12.699996948242188
 21
-34.150001489276349
 31
0.0
  0
LINE
  8
LY_3
  6
CONTINUOUS
 62
             100
  5
92
 10
12.699996948242188
 20
34.150001489276363
 30
0.0
 11
12.699996948242188
 21
19.150001525878906
 31
0.0
  0
LINE
  8
LY_3
  6
CONTINUOUS
 62
             100
  5
93
 10
5.3000030517578125
 20
19.150001525878906
 30
0.0
 11
5.3000030517578125
 21
-19.149999618530273
 31
0.0
  0
LINE
  8
LY_3
  6
CONTINUOUS
 62
             100
  5
94
 10
3.3000030517578125
 20
19.150001525878906
 30
0.0
 11
3.3000030517578125
 21
-19.149999618530273
 31
0.0
  0
LINE
  8
LY_3
  6
CONTINUOUS
 62
             100
  5
95
 10
1.1999969482421875
 20
20.897506713867188
 30
0.0
 11
1.1999969482421875
 21
-20.897506713867188
 31
0.0
  0
LINE
  8
LY_3
  6
CONTINUOUS
 62
             100
  5
96
 10
0.0
 20
34.150001489276356
 30
0.0
 11
0.0
 21
-34.150001489276363
 31
0.0
  0
LINE
  8
LY_3
  6
CENTER
 62
             110
  5
97
 10
-3.0
 20
-29.349998474121094
 30
0.0
 11
15.699996948242188
 21
-29.349998474121094
 31
0.0
  0
LINE
  8
LY_3
  6
CENTER
 62
             110
  5
98
 10
-3.0
 20
29.349998474121094
 30
0.0
 11
15.699996948242188
 21
29.349998474121094
 31
0.0
  0
LINE
  8
LY_3
  6
CONTINUOUS
 62
               3
  5
99
 10
5.3000030517578125
 20
-19.150001525878906
 30
0.0
 11
12.699996948242188
 21
-19.150001525878906
 31
0.0
  0
LINE
  8
LY_3
  6
CONTINUOUS
 62
             100
  5
9A
 10
5.3000030517578125
 20
19.150001525878906
 30
0.0
 11
12.699996948242188
 21
19.150001525878906
 31
0.0
  0
LINE
  8
LY_3
  6
CONTINUOUS
 62
             100
  5
9B
 10
3.3000030517578125
 20
-18.049999237060547
 30
0.0
 11
5.3000030517578125
 21
-18.049999237060547
 31
0.0
  0
LINE
  8
LY_3
  6
CONTINUOUS
 62
             100
  5
9C
 10
3.3000030517578125
 20
18.049999237060547
 30
0.0
 11
5.3000030517578125
 21
18.049999237060547
 31
0.0
  0
LINE
  8
LY_3
  6
CONTINUOUS
 62
             100
  5
9D
 10
1.1999969482421875
 20
19.150001525878906
 30
0.0
 11
3.3000030517578125
 21
19.150001525878906
 31
0.0
  0
LINE
  8
LY_3
  6
CONTINUOUS
 62
             100
  5
9E
 10
1.1999969482421875
 20
-19.150001525878906
 30
0.0
 11
3.3000030517578125
 21
-19.150001525878906
 31
0.0
  0
LINE
  8
LY_3
  6
CONTINUOUS
 62
             100
  5
9F
 10
0.0
 20
32.75
 30
0.0
 11
12.699996948242188
 21
32.75
 31
0.0
  0
LINE
  8
LY_3
  6
CONTINUOUS
 62
             100
  5
A0
 10
0.0
 20
25.950000762939453
 30
0.0
 11
12.699996948242188
 21
25.950000762939453
 31
0.0
  0
LINE
  8
LY_3
  6
CONTINUOUS
 62
             100
  5
A1
 10
0.0
 20
-24.150001525878906
 30
0.0
 11
1.4076690673828125
 21
-24.150001525878906
 31
0.0
  0
LINE
  8
LY_3
  6
CONTINUOUS
 62
             100
  5
A2
 10
0.0
 20
24.150001525878906
 30
0.0
 11
1.4076690673828125
 21
24.150001525878906
 31
0.0
  0
LINE
  8
LY_3
  6
CONTINUOUS
 62
             100
  5
A3
 10
0.5
 20
34.650001525878906
 30
0.0
 11
12.199996948242188
 21
34.650001525878906
 31
0.0
  0
LINE
  8
LY_3
  6
CONTINUOUS
 62
             100
  5
A4
 10
0.5
 20
-34.650001525878906
 30
0.0
 11
12.199996948242188
 21
-34.650001525878906
 31
0.0
  0
LINE
  8
LY_3
  6
CONTINUOUS
 62
             100
  5
A5
 10
62.5
 20
18.100000000000001
 30
0.0
 11
62.5
 21
-18.100000000000001
 31
0.0
  0
POINT
  8
LY_3
  6
CONTINUOUS
 62
             170
  5
A6
 10
17.5
 20
18.100000000000001
 30
0.0
  0
POINT
  8
LY_3
  6
CONTINUOUS
 62
             170
  5
A7
 10
17.5
 20
0.0
 30
0.0
  0
ENDSEC
  0
EOF
