  0
SECTION
  2
HEADER
  9
$ACADVER
  1
AC1009
  9
$DWGCODEPAGE
  3
dos932
  9
$INSBASE
 10
0.0
 20
0.0
 30
0.0
  9
$EXTMIN
 10
-3.2607701069599813
 20
-16.900010953506865
 30
0.0
  9
$EXTMAX
 10
77.499996948242199
 20
16.90000743411467
 30
0.0
  9
$LIMMIN
 10
-3.2607701069599813
 20
-16.900010953506865
  9
$LIMMAX
 10
77.499996948242199
 20
16.90000743411467
  9
$ORTHOMODE
 70
               0
  9
$REGENMODE
 70
               1
  9
$FILLMODE
 70
               1
  9
$QTEXTMODE
 70
               0
  9
$MIRRTEXT
 70
               1
  9
$DRAGMODE
 70
               2
  9
$LTSCALE
 40
1.0
  9
$OSMODE
 70
               0
  9
$ATTMODE
 70
               1
  9
$TEXTSIZE
 40
3.2000000476837158
  9
$TRACEWID
 40
0.05
  9
$TEXTSTYLE
  7
MX_NOTE_STANDARD
  9
$CLAYER
  8
LY_3
  9
$CELTYPE
  6
CONTINUOUS
  9
$CECOLOR
 62
             256
  9
$DIMSCALE
 40
1.0
  9
$DIMASZ
 40
2.5
  9
$DIMEXO
 40
2.0
  9
$DIMDLI
 40
3.75
  9
$DIMRND
 40
0.0
  9
$DIMDLE
 40
0.0
  9
$DIMEXE
 40
1.0
  9
$DIMTP
 40
0.0
  9
$DIMTM
 40
0.0
  9
$DIMTXT
 40
4.1655998229980469
  9
$DIMCEN
 40
2.5
  9
$DIMTSZ
 40
0.0
  9
$DIMTOL
 70
               0
  9
$DIMLIM
 70
               0
  9
$DIMTIH
 70
               0
  9
$DIMTOH
 70
               0
  9
$DIMSE1
 70
               0
  9
$DIMSE2
 70
               0
  9
$DIMTAD
 70
               1
  9
$DIMZIN
 70
               8
  9
$DIMBLK
  1

  9
$DIMASO
 70
               1
  9
$DIMSHO
 70
               1
  9
$DIMPOST
  1

  9
$DIMAPOST
  1

  9
$DIMALT
 70
               0
  9
$DIMALTD
 70
               4
  9
$DIMALTF
 40
0.03937007874016
  9
$DIMLFAC
 40
1.0
  9
$DIMTOFL
 70
               1
  9
$DIMTVP
 40
0.0
  9
$DIMTIX
 70
               0
  9
$DIMSOXD
 70
               0
  9
$DIMSAH
 70
               1
  9
$DIMBLK1
  1
_OPEN30
  9
$DIMBLK2
  1
_OPEN30
  9
$DIMSTYLE
  2
MXDIMSTYLE
  9
$DIMCLRD
 70
               0
  9
$DIMCLRE
 70
               0
  9
$DIMCLRT
 70
               0
  9
$DIMTFAC
 40
1.0
  9
$DIMGAP
 40
1.0
  9
$LUNITS
 70
               2
  9
$LUPREC
 70
               4
  9
$AXISMODE
 70
               0
  9
$AXISUNIT
 10
0.0
 20
0.0
  9
$SKETCHINC
 40
0.1
  9
$FILLETRAD
 40
0.0
  9
$AUNITS
 70
               0
  9
$AUPREC
 70
               0
  9
$MENU
  1
acad
  9
$ELEVATION
 40
0.0
  9
$PELEVATION
 40
0.0
  9
$THICKNESS
 40
0.0
  9
$LIMCHECK
 70
               0
  9
$BLIPMODE
 70
               1
  9
$CHAMFERA
 40
0.0
  9
$CHAMFERB
 40
0.0
  9
$SKPOLY
 70
               0
  9
$TDCREATE
 40
2455163.518055555
  9
$TDUPDATE
 40
2455163.518055555
  9
$TDINDWG
 40
0.0000000000
  9
$TDUSRTIMER
 40
0.0000000000
  9
$USRTIMER
 70
               1
  9
$ANGBASE
 50
0.0
  9
$ANGDIR
 70
               0
  9
$PDMODE
 70
               0
  9
$PDSIZE
 40
0.0
  9
$PLINEWID
 40
0.0
  9
$COORDS
 70
               1
  9
$SPLFRAME
 70
               0
  9
$SPLINETYPE
 70
               6
  9
$SPLINESEGS
 70
               8
  9
$ATTDIA
 70
               0
  9
$ATTREQ
 70
               1
  9
$HANDLING
 70
               1
  9
$HANDSEED
  5
A5
  9
$SURFTAB1
 70
               6
  9
$SURFTAB2
 70
               6
  9
$SURFTYPE
 70
               6
  9
$SURFU
 70
               6
  9
$SURFV
 70
               6
  9
$UCSNAME
  2

  9
$UCSORG
 10
0.0
 20
0.0
 30
0.0
  9
$UCSXDIR
 10
1.0
 20
0.0
 30
0.0
  9
$UCSYDIR
 10
0.0
 20
1.0
 30
0.0
  9
$PUCSNAME
  2

  9
$PUCSORG
 10
0.0
 20
0.0
 30
0.0
  9
$PUCSXDIR
 10
1.0
 20
0.0
 30
0.0
  9
$PUCSYDIR
 10
0.0
 20
1.0
 30
0.0
  9
$USERI1
 70
               0
  9
$USERI2
 70
               0
  9
$USERI3
 70
               0
  9
$USERI4
 70
               0
  9
$USERI5
 70
               0
  9
$USERR1
 40
0.0
  9
$USERR2
 40
0.0
  9
$USERR3
 40
0.0
  9
$USERR4
 40
0.0
  9
$USERR5
 40
0.0
  9
$WORLDVIEW
 70
               1
  9
$SHADEDGE
 70
               3
  9
$SHADEDIF
 70
              70
  9
$TILEMODE
 70
               1
  9
$MAXACTVP
 70
              16
  9
$PINSBASE
 10
0.0
 20
0.0
 30
0.0
  9
$PLIMCHECK
 70
               0
  9
$PEXTMIN
 10
1.0000000000000000E+20
 20
1.0000000000000000E+20
 30
1.0000000000000000E+20
  9
$PEXTMAX
 10
-1.0000000000000000E+20
 20
-1.0000000000000000E+20
 30
-1.0000000000000000E+20
  9
$PLIMMIN
 10
0.0
 20
0.0
  9
$PLIMMAX
 10
12.0
 20
9.0
  9
$UNITMODE
 70
               0
  9
$VISRETAIN
 70
               0
  9
$PLINEGEN
 70
               1
  9
$PSLTSCALE
 70
               0
  9
$TREEDEPTH
 70
            3020
  0
ENDSEC
  0
SECTION
  2
TABLES
  0
TABLE
  2
VPORT
 70
               1
  0
VPORT
  2
*ACTIVE
 70
               0
 10
0.0
 20
0.0
 11
1.0
 21
1.0
 12
37.119613420641109
 22
-0.0000017596960973
 13
0.0
 23
0.0
 14
1.0
 24
1.0
 15
0.0
 25
0.0
 16
0.0
 26
0.0
 36
1.0
 17
0.0
 27
0.0
 37
0.0
 40
34.138018571497753
 41
1.7320508075688772
 42
50.0
 43
0.0
 44
0.0
 50
0.0
 51
0.0
 71
               0
 72
             100
 73
               1
 74
               1
 75
               0
 76
               0
 77
               0
 78
               0
  0
ENDTAB
  0
TABLE
  2
LTYPE
 70
               3
  0
LTYPE
  2
CONTINUOUS
 70
              64
  3
Solid line
 72
              65
 73
               0
 40
0.0
  0
LTYPE
  2
CENTER
 70
              64
  3
Center ____ _ ____ _ ____ _ ____ _ ____ _ ____
 72
              65
 73
               4
 40
50.800000000000004
 49
31.75
 49
-6.3499999999999996
 49
6.3499999999999996
 49
-6.3499999999999996
  0
LTYPE
  2
PHANTOM
 70
              64
  3
Phantom ______  __  __  ______  __  __  ______
 72
              65
 73
               6
 40
63.500000000000007
 49
31.75
 49
-6.3499999999999996
 49
6.3499999999999996
 49
-6.3499999999999996
 49
6.3499999999999996
 49
-6.3499999999999996
  0
ENDTAB
  0
TABLE
  2
LAYER
 70
               3
  0
LAYER
  2
0
 70
               0
 62
               7
  6
CONTINUOUS
  0
LAYER
  2
DEFPOINTS
 70
               0
 62
               7
  6
CONTINUOUS
  0
LAYER
  2
LY_3
 70
               0
 62
               7
  6
CONTINUOUS
  0
ENDTAB
  0
TABLE
  2
STYLE
 70
               1
  0
STYLE
  2
MX_NOTE_STANDARD
 70
               0
 40
0.0
 41
1.0
 50
0.0
 71
               0
 42
3.2000000476837158
  3
txt.shx
  4
extfont.shx
  0
ENDTAB
  0
TABLE
  2
VIEW
 70
               0
  0
ENDTAB
  0
TABLE
  2
UCS
 70
               0
  0
ENDTAB
  0
TABLE
  2
APPID
 70
               1
  0
APPID
  2
ACAD
 70
               0
  0
ENDTAB
  0
TABLE
  2
DIMSTYLE
 70
               1
  0
DIMSTYLE
  2
MXDIMSTYLE
 70
               0
  3

  4

  5

  6
_OPEN30
  7
_OPEN30
 40
1.0
 41
2.5
 42
2.0
 43
3.75
 44
1.0
 45
0.0
 46
0.0
 47
0.0
 48
0.0
 71
               0
 72
               0
 73
               0
 74
               0
 75
               0
 76
               0
 77
               1
 78
               8
140
4.1655998229980469
141
2.5
142
0.0
143
0.03937007874016
144
1.0
145
0.0
146
1.0
147
1.0
170
               0
171
               4
172
               1
173
               1
174
               0
175
               0
176
               0
177
               0
178
               0
  0
ENDTAB
  0
ENDSEC
  0
SECTION
  2
BLOCKS
  0
BLOCK
  8
0
  6
BYBLOCK
 62
               0
  5
20
  2
_OPEN30
 70
               2
 10
0.0
 20
0.0
 30
0.0
  3
_OPEN30
  0
LINE
  8
0
  6
BYBLOCK
 62
               0
  5
21
 10
-1.0
 20
0.267949
 30
0.0
 11
0.0
 21
0.0
 31
0.0
  0
LINE
  8
0
  6
BYBLOCK
 62
               0
  5
22
 10
0.0
 20
0.0
 30
0.0
 11
-1.0
 21
-0.267949
 31
0.0
  0
LINE
  8
0
  6
BYBLOCK
 62
               0
  5
23
 10
0.0
 20
0.0
 30
0.0
 11
-1.0
 21
0.0
 31
0.0
  0
ENDBLK
  8
0
  6
BYBLOCK
 62
               0
  5
24
  0
ENDSEC
  0
SECTION
  2
ENTITIES
  0
ARC
  8
LY_3
  6
CONTINUOUS
 62
               3
  5
25
 10
74.192879486083996
 20
-10.449999809265137
 30
0.0
 40
0.25
 50
159.99989471388244
 51
269.99998201391105
  0
ARC
  8
LY_3
  6
CONTINUOUS
 62
               3
  5
26
 10
74.192879486083996
 20
10.450000762939453
 30
0.0
 40
0.25
 50
90.000017986089745
 51
200.00010528611838
  0
ARC
  8
LY_3
  6
CONTINUOUS
 62
               3
  5
27
 10
0.8071174621582031
 20
10.450000762939453
 30
0.0
 40
0.25
 50
339.9998947138821
 51
89.999982013910653
  0
ARC
  8
LY_3
  6
CONTINUOUS
 62
               3
  5
28
 10
0.8071174621582031
 20
-10.449999809265137
 30
0.0
 40
0.25
 50
270.00001798608935
 51
20.000105286117979
  0
LINE
  8
LY_3
  6
CONTINUOUS
 62
               3
  5
29
 10
66.999998474121099
 20
-9.6000000000000014
 30
0.0
 11
66.999998474121099
 21
-5.0
 31
0.0
  0
LINE
  8
LY_3
  6
CONTINUOUS
 62
               3
  5
2A
 10
66.999998474121099
 20
-9.5999999999999961
 30
0.0
 11
65.599998474121094
 21
-10.999999999999998
 31
0.0
  0
LINE
  8
LY_3
  6
CONTINUOUS
 62
               3
  5
2B
 10
65.599998474121108
 20
-11.0
 30
0.0
 11
64.999998474121099
 21
-11.0
 31
0.0
  0
LINE
  8
LY_3
  6
CONTINUOUS
 62
               3
  5
2C
 10
70.399998474121105
 20
-5.0
 30
0.0
 11
66.999998474121099
 21
-5.0
 31
0.0
  0
LINE
  8
LY_3
  6
CONTINUOUS
 62
               3
  5
2D
 10
70.399998474121105
 20
-4.0
 30
0.0
 11
65.999998474121099
 21
-4.0
 31
0.0
  0
LINE
  8
LY_3
  6
CONTINUOUS
 62
               3
  5
2E
 10
65.999998474121099
 20
-9.1999999999999922
 30
0.0
 11
64.999998400916013
 21
-10.199999999999992
 31
0.0
  0
LINE
  8
LY_3
  6
CONTINUOUS
 62
               3
  5
2F
 10
7.9999984741210994
 20
-9.6000000000000014
 30
0.0
 11
7.9999984741210994
 21
-5.0
 31
0.0
  0
LINE
  8
LY_3
  6
CONTINUOUS
 62
               3
  5
30
 10
7.9999984741210994
 20
-9.6000000000000014
 30
0.0
 11
9.399998474121098
 21
-11.000000000000002
 31
0.0
  0
LINE
  8
LY_3
  6
CONTINUOUS
 62
               3
  5
31
 10
9.3999984741210945
 20
-11.0
 30
0.0
 11
9.9999984741210994
 21
-11.0
 31
0.0
  0
LINE
  8
LY_3
  6
CONTINUOUS
 62
               3
  5
32
 10
4.5999984741210938
 20
-5.0
 30
0.0
 11
7.9999984741210994
 21
-5.0
 31
0.0
  0
LINE
  8
LY_3
  6
CONTINUOUS
 62
               3
  5
33
 10
4.5999984741210938
 20
-4.0
 30
0.0
 11
8.9999984741210994
 21
-4.0
 31
0.0
  0
LINE
  8
LY_3
  6
CONTINUOUS
 62
               3
  5
34
 10
8.999998474121103
 20
-9.1999999999999957
 30
0.0
 11
9.9999985473261859
 21
-10.199999999999996
 31
0.0
  0
LINE
  8
LY_3
  6
CONTINUOUS
 62
               3
  5
35
 10
65.999998474121099
 20
9.1999999999999993
 30
0.0
 11
65.999998474121099
 21
-9.1999999999999993
 31
0.0
  0
LINE
  8
LY_3
  6
CONTINUOUS
 62
               3
  5
36
 10
66.999998474121099
 20
9.6000000000000014
 30
0.0
 11
66.999998474121099
 21
5.0
 31
0.0
  0
LINE
  8
LY_3
  6
CONTINUOUS
 62
               3
  5
37
 10
66.999998474121099
 20
9.6000000000000014
 30
0.0
 11
65.599998474121108
 21
10.999999999999996
 31
0.0
  0
LINE
  8
LY_3
  6
CONTINUOUS
 62
               3
  5
38
 10
65.599998474121108
 20
11.0
 30
0.0
 11
64.999998474121099
 21
11.0
 31
0.0
  0
LINE
  8
LY_3
  6
CONTINUOUS
 62
               3
  5
39
 10
70.399998474121105
 20
5.0
 30
0.0
 11
66.999998474121099
 21
5.0
 31
0.0
  0
LINE
  8
LY_3
  6
CONTINUOUS
 62
               3
  5
3A
 10
70.399998474121105
 20
4.0
 30
0.0
 11
65.999998474121099
 21
4.0
 31
0.0
  0
LINE
  8
LY_3
  6
CONTINUOUS
 62
               3
  5
3B
 10
65.999998474121099
 20
9.1999999999999851
 30
0.0
 11
64.999998400916013
 21
10.199999999999985
 31
0.0
  0
LINE
  8
LY_3
  6
CONTINUOUS
 62
               3
  5
3C
 10
64.999998474121099
 20
11.0
 30
0.0
 11
64.999998474121099
 21
-11.0
 31
0.0
  0
LINE
  8
LY_3
  6
CONTINUOUS
 62
               3
  5
3D
 10
8.9999984741210994
 20
9.1999999999999957
 30
0.0
 11
9.9999985473261859
 21
10.199999999999996
 31
0.0
  0
LINE
  8
LY_3
  6
CONTINUOUS
 62
               3
  5
3E
 10
8.9999984741210994
 20
9.1999999999999993
 30
0.0
 11
8.9999984741210994
 21
-9.1999999999999993
 31
0.0
  0
LINE
  8
LY_3
  6
CONTINUOUS
 62
               3
  5
3F
 10
7.9999984741210994
 20
9.6000000000000014
 30
0.0
 11
7.9999984741210994
 21
5.0
 31
0.0
  0
LINE
  8
LY_3
  6
CONTINUOUS
 62
               3
  5
40
 10
7.999998474121103
 20
9.6000000000000014
 30
0.0
 11
9.399998474121098
 21
11.0
 31
0.0
  0
LINE
  8
LY_3
  6
CONTINUOUS
 62
               3
  5
41
 10
9.3999984741210945
 20
11.0
 30
0.0
 11
9.9999984741210994
 21
11.0
 31
0.0
  0
LINE
  8
LY_3
  6
CENTER
 62
             110
  5
43
 10
-3.2607701069599813
 20
0.0
 30
0.0
 11
76.824809312475111
 21
0.0
 31
0.0
  0
LINE
  8
LY_3
  6
CONTINUOUS
 62
               3
  5
44
 10
74.999996948242199
 20
11.878999999999998
 30
0.0
 11
67.799996185302746
 21
11.878999999999998
 31
0.0
  0
LINE
  8
LY_3
  6
CONTINUOUS
 62
             110
  5
45
 10
74.999996948242199
 20
11.5
 30
0.0
 11
67.799996185302746
 21
11.5
 31
0.0
  0
LINE
  8
LY_3
  6
CONTINUOUS
 62
               3
  5
46
 10
74.999996948242199
 20
15.121000000000009
 30
0.0
 11
67.799996185302746
 21
15.121000000000009
 31
0.0
  0
LINE
  8
LY_3
  6
CONTINUOUS
 62
             110
  5
47
 10
74.999996948242199
 20
15.5
 30
0.0
 11
67.799996185302746
 21
15.5
 31
0.0
  0
LINE
  8
LY_3
  6
CONTINUOUS
 62
               3
  5
48
 10
74.999996948242199
 20
-15.121000000000002
 30
0.0
 11
67.799996185302746
 21
-15.121000000000002
 31
0.0
  0
LINE
  8
LY_3
  6
CONTINUOUS
 62
             110
  5
49
 10
74.999996948242199
 20
-15.5
 30
0.0
 11
67.799996185302746
 21
-15.5
 31
0.0
  0
LINE
  8
LY_3
  6
CONTINUOUS
 62
               3
  5
4A
 10
74.999996948242199
 20
-11.878999999999998
 30
0.0
 11
67.799996185302746
 21
-11.878999999999998
 31
0.0
  0
LINE
  8
LY_3
  6
CONTINUOUS
 62
             110
  5
4B
 10
74.999996948242199
 20
-11.5
 30
0.0
 11
67.799996185302746
 21
-11.5
 31
0.0
  0
LINE
  8
LY_3
  6
CONTINUOUS
 62
               3
  5
4C
 10
0.0
 20
-11.878999999999998
 30
0.0
 11
7.2000007629394531
 21
-11.878999999999998
 31
0.0
  0
LINE
  8
LY_3
  6
CONTINUOUS
 62
             110
  5
4D
 10
0.0
 20
-11.5
 30
0.0
 11
7.2000007629394531
 21
-11.5
 31
0.0
  0
LINE
  8
LY_3
  6
CONTINUOUS
 62
               3
  5
4E
 10
0.0
 20
-15.121000000000002
 30
0.0
 11
7.2000007629394531
 21
-15.121000000000002
 31
0.0
  0
LINE
  8
LY_3
  6
CONTINUOUS
 62
             110
  5
4F
 10
0.0
 20
-15.5
 30
0.0
 11
7.2000007629394531
 21
-15.5
 31
0.0
  0
LINE
  8
LY_3
  6
CONTINUOUS
 62
               3
  5
50
 10
0.0
 20
11.878999999999998
 30
0.0
 11
7.2000007629394531
 21
11.878999999999998
 31
0.0
  0
LINE
  8
LY_3
  6
CONTINUOUS
 62
               3
  5
51
 10
0.0
 20
15.121000000000009
 30
0.0
 11
7.2000007629394531
 21
15.121000000000009
 31
0.0
  0
LINE
  8
LY_3
  6
CONTINUOUS
 62
             110
  5
52
 10
0.0
 20
11.5
 30
0.0
 11
7.2000007629394531
 21
11.5
 31
0.0
  0
LINE
  8
LY_3
  6
CONTINUOUS
 62
             110
  5
53
 10
0.0
 20
15.5
 30
0.0
 11
7.2000007629394531
 21
15.5
 31
0.0
  0
LINE
  8
LY_3
  6
CONTINUOUS
 62
               3
  5
54
 10
70.399998474121105
 20
5.1000003814697266
 30
0.0
 11
70.399998474121105
 21
-5.0999984741210938
 31
0.0
  0
LINE
  8
LY_3
  6
CONTINUOUS
 62
               3
  5
55
 10
71.399998474121105
 20
5.1000003814697266
 30
0.0
 11
71.399998474121105
 21
-5.1000003814697266
 31
0.0
  0
LINE
  8
LY_3
  6
CONTINUOUS
 62
               3
  5
56
 10
67.799996185302746
 20
5.0
 30
0.0
 11
67.799996185302746
 21
16.099997544009653
 31
0.0
  0
LINE
  8
LY_3
  6
CONTINUOUS
 62
               3
  5
57
 10
67.799996185302746
 20
-16.100015216314162
 30
0.0
 11
67.799996185302746
 21
-5.0
 31
0.0
  0
LINE
  8
LY_3
  6
CONTINUOUS
 62
               3
  5
58
 10
73.800000000000011
 20
-9.0975065231323242
 30
0.0
 11
73.800000000000011
 21
9.0975074768066406
 31
0.0
  0
LINE
  8
LY_3
  6
CONTINUOUS
 62
               3
  5
59
 10
74.999996948242199
 20
-16.100000381469727
 30
0.0
 11
74.999996948242199
 21
16.099998474121094
 31
0.0
  0
LINE
  8
LY_3
  6
CONTINUOUS
 62
               3
  5
5A
 10
70.399998474121105
 20
5.1000003814697266
 30
0.0
 11
67.799996185302746
 21
5.1000003814697266
 31
0.0
  0
LINE
  8
LY_3
  6
CONTINUOUS
 62
               3
  5
5B
 10
70.399998474121105
 20
-5.1000003814697266
 30
0.0
 11
67.799996185302746
 21
-5.1000003814697266
 31
0.0
  0
LINE
  8
LY_3
  6
CENTER
 62
             110
  5
5C
 10
77.499996948242199
 20
13.5
 30
0.0
 11
65.299996185302746
 21
13.5
 31
0.0
  0
LINE
  8
LY_3
  6
CENTER
 62
             110
  5
5D
 10
77.499996948242199
 20
-13.5
 30
0.0
 11
65.299996185302746
 21
-13.5
 31
0.0
  0
LINE
  8
LY_3
  6
CONTINUOUS
 62
               3
  5
5E
 10
74.399998394742113
 20
9.1500089119658838
 30
0.0
 11
73.799999197570173
 21
9.0975156630816407
 31
0.0
  0
LINE
  8
LY_3
  6
CONTINUOUS
 62
               3
  5
5F
 10
74.399995260396281
 20
9.1500011879502594
 30
0.0
 11
73.957956124169812
 21
10.364494401751603
 31
0.0
  0
LINE
  8
LY_3
  6
CONTINUOUS
 62
               3
  5
60
 10
74.399998237497272
 20
-9.1500049577232847
 30
0.0
 11
73.799999024740686
 21
-9.0975118869722955
 31
0.0
  0
LINE
  8
LY_3
  6
CONTINUOUS
 62
               3
  5
61
 10
74.399998655540031
 20
-9.1500014265622411
 30
0.0
 11
73.957960561300695
 21
-10.364492989857734
 31
0.0
  0
LINE
  8
LY_3
  6
CONTINUOUS
 62
               3
  5
62
 10
71.399998474121105
 20
4.5
 30
0.0
 11
70.399998474121105
 21
4.5
 31
0.0
  0
LINE
  8
LY_3
  6
CONTINUOUS
 62
               3
  5
63
 10
71.399998474121105
 20
-4.5
 30
0.0
 11
70.399998474121105
 21
-4.5
 31
0.0
  0
LINE
  8
LY_3
  6
CONTINUOUS
 62
               3
  5
64
 10
73.800000000000011
 20
5.1000003814697266
 30
0.0
 11
71.399998474121105
 21
5.1000003814697266
 31
0.0
  0
LINE
  8
LY_3
  6
CONTINUOUS
 62
               3
  5
65
 10
73.800000000000011
 20
-5.1000003814697266
 30
0.0
 11
71.399998474121105
 21
-5.1000003814697266
 31
0.0
  0
LINE
  8
LY_3
  6
CONTINUOUS
 62
               3
  5
66
 10
67.799994625157353
 20
16.099995983865597
 30
0.0
 11
68.599994746335696
 21
16.899995430694538
 31
0.0
  0
LINE
  8
LY_3
  6
CONTINUOUS
 62
               3
  5
67
 10
75.000004170419373
 20
16.100007784980789
 30
0.0
 11
74.200004251545792
 21
16.900007434114613
 31
0.0
  0
LINE
  8
LY_3
  6
CONTINUOUS
 62
               3
  5
68
 10
75.000006227188294
 20
-16.100008472103102
 30
0.0
 11
74.200006578054484
 21
-16.90000839097668
 31
0.0
  0
LINE
  8
LY_3
  6
CONTINUOUS
 62
               3
  5
69
 10
68.599991922495519
 20
-16.900010953506865
 30
0.0
 11
67.799992138491817
 21
-16.100011169503155
 31
0.0
  0
LINE
  8
LY_3
  6
CONTINUOUS
 62
               3
  5
6A
 10
74.399998474121105
 20
-9.1499996185302734
 30
0.0
 11
74.399998474121105
 21
9.1500015258789062
 31
0.0
  0
LINE
  8
LY_3
  6
CONTINUOUS
 62
               3
  5
6B
 10
74.999996948242199
 20
10.700000762939453
 30
0.0
 11
74.192879486083996
 21
10.700000762939453
 31
0.0
  0
LINE
  8
LY_3
  6
CONTINUOUS
 62
               3
  5
6C
 10
74.999996948242199
 20
-10.699999809265137
 30
0.0
 11
74.192879486083996
 21
-10.699999809265137
 31
0.0
  0
LINE
  8
LY_3
  6
CONTINUOUS
 62
               3
  5
6D
 10
74.200001525878918
 20
-16.899999618530273
 30
0.0
 11
68.599980587518857
 21
-16.899999618530273
 31
0.0
  0
LINE
  8
LY_3
  6
CONTINUOUS
 62
               3
  5
6E
 10
74.199993896484386
 20
16.900001525878906
 30
0.0
 11
68.60000084152523
 21
16.900001525878906
 31
0.0
  0
LINE
  8
LY_3
  6
CONTINUOUS
 62
               3
  5
6F
 10
4.5999984741210938
 20
5.0
 30
0.0
 11
7.9999984741210994
 21
5.0
 31
0.0
  0
LINE
  8
LY_3
  6
CONTINUOUS
 62
               3
  5
70
 10
4.5999984741210938
 20
4.0
 30
0.0
 11
8.9999984741210994
 21
4.0
 31
0.0
  0
LINE
  8
LY_3
  6
CONTINUOUS
 62
               3
  5
71
 10
4.5999984741210938
 20
5.1000003814697266
 30
0.0
 11
4.5999984741210938
 21
-5.0999984741210938
 31
0.0
  0
LINE
  8
LY_3
  6
CONTINUOUS
 62
               3
  5
72
 10
3.5999984741210937
 20
5.1000003814697266
 30
0.0
 11
3.5999984741210937
 21
-5.1000003814697266
 31
0.0
  0
LINE
  8
LY_3
  6
CONTINUOUS
 62
             100
  5
73
 10
61.999998474121099
 20
-9.5
 30
0.0
 11
61.999998474121099
 21
-11.0
 31
0.0
  0
LINE
  8
LY_3
  6
CONTINUOUS
 62
             100
  5
74
 10
63.50001101165703
 20
-8.0000093103681404
 30
0.0
 11
62.000010742300496
 21
-9.500009579724674
 31
0.0
  0
LINE
  8
LY_3
  6
CONTINUOUS
 62
             100
  5
75
 10
63.499998474121099
 20
-8.0
 30
0.0
 11
63.499998474121099
 21
-4.0
 31
0.0
  0
LINE
  8
LY_3
  6
CONTINUOUS
 62
             100
  5
76
 10
65.00000521186746
 20
-9.5000035105784963
 30
0.0
 11
63.500003593811769
 21
-8.0000018925228122
 31
0.0
  0
LINE
  8
LY_3
  6
CONTINUOUS
 62
             100
  5
77
 10
61.999998474121099
 20
9.5
 30
0.0
 11
61.999998474121099
 21
11.0
 31
0.0
  0
LINE
  8
LY_3
  6
CONTINUOUS
 62
             100
  5
78
 10
63.500011686006715
 20
8.0000072745429485
 30
0.0
 11
62.000010067951024
 21
9.5000088925986326
 31
0.0
  0
LINE
  8
LY_3
  6
CONTINUOUS
 62
             100
  5
79
 10
63.499998474121099
 20
8.0
 30
0.0
 11
63.499998474121099
 21
4.0
 31
0.0
  0
LINE
  8
LY_3
  6
CONTINUOUS
 62
             100
  5
7A
 10
65.000003188818596
 20
9.4999974286558597
 30
0.0
 11
63.500004268161213
 21
7.9999985079984768
 31
0.0
  0
LINE
  8
LY_3
  6
CONTINUOUS
 62
             100
  5
7B
 10
12.999998474121099
 20
-9.5
 30
0.0
 11
12.999998474121099
 21
-11.0
 31
0.0
  0
LINE
  8
LY_3
  6
CONTINUOUS
 62
             100
  5
7C
 10
11.49999672617832
 20
-8.0000039155715967
 30
0.0
 11
12.999996995534854
 21
-9.5000041849281303
 31
0.0
  0
LINE
  8
LY_3
  6
CONTINUOUS
 62
             100
  5
7D
 10
11.499998474121099
 20
-8.0
 30
0.0
 11
11.499998474121099
 21
-4.0
 31
0.0
  0
LINE
  8
LY_3
  6
CONTINUOUS
 62
             100
  5
7E
 10
9.9999998285696243
 20
-9.5000035105784058
 30
0.0
 11
11.499998749227004
 21
-8.0000045899210246
 31
0.0
  0
LINE
  8
LY_3
  6
CONTINUOUS
 62
             100
  5
7F
 10
11.499998474121099
 20
8.0
 30
0.0
 11
11.499998474121099
 21
4.0
 31
0.0
  0
LINE
  8
LY_3
  6
CONTINUOUS
 62
             100
  5
80
 10
12.999998474121099
 20
9.5
 30
0.0
 11
12.999998474121099
 21
11.0
 31
0.0
  0
LINE
  8
LY_3
  6
CONTINUOUS
 62
             100
  5
81
 10
11.500001446625262
 20
7.9999964849497971
 30
0.0
 11
13.000001715981796
 21
9.4999967543063306
 31
0.0
  0
LINE
  8
LY_3
  6
CONTINUOUS
 62
             100
  5
82
 10
9.9999971311713978
 20
9.5000008004036545
 30
0.0
 11
11.499998749227075
 21
7.9999991823479775
 31
0.0
  0
LINE
  8
LY_3
  6
PHANTOM
 62
             110
  5
84
 10
12.999998474121099
 20
11.0
 30
0.0
 11
61.999998474121099
 21
11.0
 31
0.0
  0
LINE
  8
LY_3
  6
PHANTOM
 62
             110
  5
85
 10
12.999998474121099
 20
-11.0
 30
0.0
 11
61.999998474121099
 21
-11.0
 31
0.0
  0
LINE
  8
LY_3
  6
PHANTOM
 62
             110
  5
86
 10
11.499998474121099
 20
4.0
 30
0.0
 11
63.499998474121099
 21
4.0
 31
0.0
  0
LINE
  8
LY_3
  6
PHANTOM
 62
             110
  5
87
 10
11.499998474121099
 20
-4.0
 30
0.0
 11
63.499998474121099
 21
-4.0
 31
0.0
  0
LINE
  8
LY_3
  6
CONTINUOUS
 62
               3
  5
88
 10
7.2000007629394531
 20
5.0
 30
0.0
 11
7.2000007629394531
 21
16.099997544009611
 31
0.0
  0
LINE
  8
LY_3
  6
CONTINUOUS
 62
               3
  5
89
 10
7.2000007629394531
 20
-16.100015216314119
 30
0.0
 11
7.2000007629394531
 21
-5.0
 31
0.0
  0
LINE
  8
LY_3
  6
CONTINUOUS
 62
               3
  5
8A
 10
1.1999969482421875
 20
-9.0975065231323242
 30
0.0
 11
1.1999969482421875
 21
9.0975074768066406
 31
0.0
  0
LINE
  8
LY_3
  6
CONTINUOUS
 62
               3
  5
8B
 10
0.0
 20
-16.100000381469727
 30
0.0
 11
0.0
 21
16.099998474121094
 31
0.0
  0
LINE
  8
LY_3
  6
CONTINUOUS
 62
               3
  5
8C
 10
4.5999984741210938
 20
5.1000003814697266
 30
0.0
 11
7.2000007629394531
 21
5.1000003814697266
 31
0.0
  0
LINE
  8
LY_3
  6
CONTINUOUS
 62
               3
  5
8D
 10
4.5999984741210938
 20
-5.1000003814697266
 30
0.0
 11
7.2000007629394531
 21
-5.1000003814697266
 31
0.0
  0
LINE
  8
LY_3
  6
CENTER
 62
             110
  5
8E
 10
-2.5
 20
13.5
 30
0.0
 11
9.7000007629394531
 21
13.5
 31
0.0
  0
LINE
  8
LY_3
  6
CENTER
 62
             110
  5
8F
 10
-2.5
 20
-13.5
 30
0.0
 11
9.7000007629394531
 21
-13.5
 31
0.0
  0
LINE
  8
LY_3
  6
CONTINUOUS
 62
               3
  5
90
 10
0.5999985535001073
 20
9.150008911965827
 30
0.0
 11
1.1999977506720327
 21
9.0975156630815874
 31
0.0
  0
LINE
  8
LY_3
  6
CONTINUOUS
 62
               3
  5
91
 10
0.6000016878460457
 20
9.1500011879502274
 30
0.0
 11
1.0420408240725294
 21
10.364494401751575
 31
0.0
  0
LINE
  8
LY_3
  6
CONTINUOUS
 62
               3
  5
92
 10
0.5999987107449591
 20
-9.1500049577232545
 30
0.0
 11
1.1999979235015346
 21
-9.0975118869722653
 31
0.0
  0
LINE
  8
LY_3
  6
CONTINUOUS
 62
               3
  5
93
 10
0.5999982927022529
 20
-9.1500014265622589
 30
0.0
 11
1.0420363869415681
 21
-10.364492989857753
 31
0.0
  0
LINE
  8
LY_3
  6
CONTINUOUS
 62
               3
  5
94
 10
3.5999984741210937
 20
4.5
 30
0.0
 11
4.5999984741210938
 21
4.5
 31
0.0
  0
LINE
  8
LY_3
  6
CONTINUOUS
 62
               3
  5
95
 10
3.5999984741210937
 20
-4.5
 30
0.0
 11
4.5999984741210938
 21
-4.5
 31
0.0
  0
LINE
  8
LY_3
  6
CONTINUOUS
 62
               3
  5
96
 10
1.1999969482421875
 20
5.1000003814697266
 30
0.0
 11
3.5999984741210937
 21
5.1000003814697266
 31
0.0
  0
LINE
  8
LY_3
  6
CONTINUOUS
 62
               3
  5
97
 10
1.1999969482421875
 20
-5.1000003814697266
 30
0.0
 11
3.5999984741210937
 21
-5.1000003814697266
 31
0.0
  0
LINE
  8
LY_3
  6
CONTINUOUS
 62
               3
  5
98
 10
7.20000232308481
 20
16.099995983865583
 30
0.0
 11
6.4000022019064673
 21
16.899995430694517
 31
0.0
  0
LINE
  8
LY_3
  6
CONTINUOUS
 62
               3
  5
99
 10
-0.0000072221772456
 20
16.100007784980853
 30
0.0
 11
0.7999926966963358
 21
16.90000743411467
 31
0.0
  0
LINE
  8
LY_3
  6
CONTINUOUS
 62
               3
  5
9A
 10
-0.000009278946159
 20
-16.100008472103184
 30
0.0
 11
0.7999903701876576
 21
-16.900008390976762
 31
0.0
  0
LINE
  8
LY_3
  6
CONTINUOUS
 62
               3
  5
9B
 10
6.4000050257466441
 20
-16.900010953506825
 30
0.0
 11
7.2000048097503537
 21
-16.100011169503112
 31
0.0
  0
LINE
  8
LY_3
  6
CONTINUOUS
 62
               3
  5
9C
 10
0.5999984741210938
 20
-9.1499996185302734
 30
0.0
 11
0.5999984741210938
 21
9.1500015258789062
 31
0.0
  0
LINE
  8
LY_3
  6
CONTINUOUS
 62
               3
  5
9D
 10
0.0
 20
10.700000762939453
 30
0.0
 11
0.8071174621582031
 21
10.700000762939453
 31
0.0
  0
LINE
  8
LY_3
  6
CONTINUOUS
 62
               3
  5
9E
 10
0.0
 20
-10.699999809265137
 30
0.0
 11
0.8071174621582031
 21
-10.699999809265137
 31
0.0
  0
LINE
  8
LY_3
  6
CONTINUOUS
 62
               3
  5
9F
 10
0.7999954223632813
 20
-16.899999618530273
 30
0.0
 11
6.4000163607232992
 21
-16.899999618530273
 31
0.0
  0
LINE
  8
LY_3
  6
CONTINUOUS
 62
               3
  5
A0
 10
0.8000030517578125
 20
16.900001525878906
 30
0.0
 11
6.3999961067169409
 21
16.900001525878906
 31
0.0
  0
LINE
  8
LY_3
  6
CONTINUOUS
 62
               3
  5
A1
 10
9.9999984741210994
 20
11.0
 30
0.0
 11
9.9999984741210994
 21
-11.0
 31
0.0
  0
POINT
  8
LY_3
  6
CONTINUOUS
 62
             170
  5
A2
 10
9.9999984741210994
 20
0.0
 30
0.0
  0
ENDSEC
  0
EOF
