  0
SECTION
  2
HEADER
  9
$ACADVER
  1
AC1009
  9
$DWGCODEPAGE
  3
dos932
  9
$INSBASE
 10
0.0
 20
0.0
 30
0.0
  9
$EXTMIN
 10
-4.800018310546875
 20
-101.20019373438926
 30
0.0
  9
$EXTMAX
 10
104.80001831054687
 20
101.2004016730431
 30
0.0
  9
$LIMMIN
 10
-4.800018310546875
 20
-101.20019373438926
  9
$LIMMAX
 10
104.80001831054687
 20
101.2004016730431
  9
$ORTHOMODE
 70
               0
  9
$REGENMODE
 70
               1
  9
$FILLMODE
 70
               1
  9
$QTEXTMODE
 70
               0
  9
$MIRRTEXT
 70
               1
  9
$DRAGMODE
 70
               2
  9
$LTSCALE
 40
1.0
  9
$OSMODE
 70
               0
  9
$ATTMODE
 70
               1
  9
$TEXTSIZE
 40
3.2000000476837158
  9
$TRACEWID
 40
0.05
  9
$TEXTSTYLE
  7
MX_NOTE_STANDARD
  9
$CLAYER
  8
LY_3
  9
$CELTYPE
  6
CONTINUOUS
  9
$CECOLOR
 62
             256
  9
$DIMSCALE
 40
1.0
  9
$DIMASZ
 40
2.5
  9
$DIMEXO
 40
2.0
  9
$DIMDLI
 40
3.75
  9
$DIMRND
 40
0.0
  9
$DIMDLE
 40
0.0
  9
$DIMEXE
 40
1.0
  9
$DIMTP
 40
0.0
  9
$DIMTM
 40
0.0
  9
$DIMTXT
 40
4.1655998229980469
  9
$DIMCEN
 40
2.5
  9
$DIMTSZ
 40
0.0
  9
$DIMTOL
 70
               0
  9
$DIMLIM
 70
               0
  9
$DIMTIH
 70
               0
  9
$DIMTOH
 70
               0
  9
$DIMSE1
 70
               0
  9
$DIMSE2
 70
               0
  9
$DIMTAD
 70
               1
  9
$DIMZIN
 70
               8
  9
$DIMBLK
  1

  9
$DIMASO
 70
               1
  9
$DIMSHO
 70
               1
  9
$DIMPOST
  1

  9
$DIMAPOST
  1

  9
$DIMALT
 70
               0
  9
$DIMALTD
 70
               4
  9
$DIMALTF
 40
0.03937007874016
  9
$DIMLFAC
 40
1.0
  9
$DIMTOFL
 70
               1
  9
$DIMTVP
 40
0.0
  9
$DIMTIX
 70
               0
  9
$DIMSOXD
 70
               0
  9
$DIMSAH
 70
               1
  9
$DIMBLK1
  1
_OPEN30
  9
$DIMBLK2
  1
_OPEN30
  9
$DIMSTYLE
  2
MXDIMSTYLE
  9
$DIMCLRD
 70
               0
  9
$DIMCLRE
 70
               0
  9
$DIMCLRT
 70
               0
  9
$DIMTFAC
 40
1.0
  9
$DIMGAP
 40
1.0
  9
$LUNITS
 70
               2
  9
$LUPREC
 70
               4
  9
$AXISMODE
 70
               0
  9
$AXISUNIT
 10
0.0
 20
0.0
  9
$SKETCHINC
 40
0.1
  9
$FILLETRAD
 40
0.0
  9
$AUNITS
 70
               0
  9
$AUPREC
 70
               0
  9
$MENU
  1
acad
  9
$ELEVATION
 40
0.0
  9
$PELEVATION
 40
0.0
  9
$THICKNESS
 40
0.0
  9
$LIMCHECK
 70
               0
  9
$BLIPMODE
 70
               1
  9
$CHAMFERA
 40
0.0
  9
$CHAMFERB
 40
0.0
  9
$SKPOLY
 70
               0
  9
$TDCREATE
 40
2455163.519351852
  9
$TDUPDATE
 40
2455163.519351852
  9
$TDINDWG
 40
0.0000000000
  9
$TDUSRTIMER
 40
0.0000000000
  9
$USRTIMER
 70
               1
  9
$ANGBASE
 50
0.0
  9
$ANGDIR
 70
               0
  9
$PDMODE
 70
               0
  9
$PDSIZE
 40
0.0
  9
$PLINEWID
 40
0.0
  9
$COORDS
 70
               1
  9
$SPLFRAME
 70
               0
  9
$SPLINETYPE
 70
               6
  9
$SPLINESEGS
 70
               8
  9
$ATTDIA
 70
               0
  9
$ATTREQ
 70
               1
  9
$HANDLING
 70
               1
  9
$HANDSEED
  5
A4
  9
$SURFTAB1
 70
               6
  9
$SURFTAB2
 70
               6
  9
$SURFTYPE
 70
               6
  9
$SURFU
 70
               6
  9
$SURFV
 70
               6
  9
$UCSNAME
  2

  9
$UCSORG
 10
0.0
 20
0.0
 30
0.0
  9
$UCSXDIR
 10
1.0
 20
0.0
 30
0.0
  9
$UCSYDIR
 10
0.0
 20
1.0
 30
0.0
  9
$PUCSNAME
  2

  9
$PUCSORG
 10
0.0
 20
0.0
 30
0.0
  9
$PUCSXDIR
 10
1.0
 20
0.0
 30
0.0
  9
$PUCSYDIR
 10
0.0
 20
1.0
 30
0.0
  9
$USERI1
 70
               0
  9
$USERI2
 70
               0
  9
$USERI3
 70
               0
  9
$USERI4
 70
               0
  9
$USERI5
 70
               0
  9
$USERR1
 40
0.0
  9
$USERR2
 40
0.0
  9
$USERR3
 40
0.0
  9
$USERR4
 40
0.0
  9
$USERR5
 40
0.0
  9
$WORLDVIEW
 70
               1
  9
$SHADEDGE
 70
               3
  9
$SHADEDIF
 70
              70
  9
$TILEMODE
 70
               1
  9
$MAXACTVP
 70
              16
  9
$PINSBASE
 10
0.0
 20
0.0
 30
0.0
  9
$PLIMCHECK
 70
               0
  9
$PEXTMIN
 10
1.0000000000000000E+20
 20
1.0000000000000000E+20
 30
1.0000000000000000E+20
  9
$PEXTMAX
 10
-1.0000000000000000E+20
 20
-1.0000000000000000E+20
 30
-1.0000000000000000E+20
  9
$PLIMMIN
 10
0.0
 20
0.0
  9
$PLIMMAX
 10
12.0
 20
9.0
  9
$UNITMODE
 70
               0
  9
$VISRETAIN
 70
               0
  9
$PLINEGEN
 70
               1
  9
$PSLTSCALE
 70
               0
  9
$TREEDEPTH
 70
            3020
  0
ENDSEC
  0
SECTION
  2
TABLES
  0
TABLE
  2
VPORT
 70
               1
  0
VPORT
  2
*ACTIVE
 70
               0
 10
0.0
 20
0.0
 11
1.0
 21
1.0
 12
50.0
 22
0.0001039693269291
 13
0.0
 23
0.0
 14
1.0
 24
1.0
 15
0.0
 25
0.0
 16
0.0
 26
0.0
 36
1.0
 17
0.0
 27
0.0
 37
0.0
 40
204.42460136150669
 41
1.7320508075688772
 42
50.0
 43
0.0
 44
0.0
 50
0.0
 51
0.0
 71
               0
 72
             100
 73
               1
 74
               1
 75
               0
 76
               0
 77
               0
 78
               0
  0
ENDTAB
  0
TABLE
  2
LTYPE
 70
               3
  0
LTYPE
  2
CONTINUOUS
 70
              64
  3
Solid line
 72
              65
 73
               0
 40
0.0
  0
LTYPE
  2
CENTER
 70
              64
  3
Center ____ _ ____ _ ____ _ ____ _ ____ _ ____
 72
              65
 73
               4
 40
50.800000000000004
 49
31.75
 49
-6.3499999999999996
 49
6.3499999999999996
 49
-6.3499999999999996
  0
LTYPE
  2
PHANTOM
 70
              64
  3
Phantom ______  __  __  ______  __  __  ______
 72
              65
 73
               6
 40
63.500000000000007
 49
31.75
 49
-6.3499999999999996
 49
6.3499999999999996
 49
-6.3499999999999996
 49
6.3499999999999996
 49
-6.3499999999999996
  0
ENDTAB
  0
TABLE
  2
LAYER
 70
               3
  0
LAYER
  2
0
 70
               0
 62
               7
  6
CONTINUOUS
  0
LAYER
  2
DEFPOINTS
 70
               0
 62
               7
  6
CONTINUOUS
  0
LAYER
  2
LY_3
 70
               0
 62
               7
  6
CONTINUOUS
  0
ENDTAB
  0
TABLE
  2
STYLE
 70
               1
  0
STYLE
  2
MX_NOTE_STANDARD
 70
               0
 40
0.0
 41
1.0
 50
0.0
 71
               0
 42
3.2000000476837158
  3
txt.shx
  4
extfont.shx
  0
ENDTAB
  0
TABLE
  2
VIEW
 70
               0
  0
ENDTAB
  0
TABLE
  2
UCS
 70
               0
  0
ENDTAB
  0
TABLE
  2
APPID
 70
               1
  0
APPID
  2
ACAD
 70
               0
  0
ENDTAB
  0
TABLE
  2
DIMSTYLE
 70
               1
  0
DIMSTYLE
  2
MXDIMSTYLE
 70
               0
  3

  4

  5

  6
_OPEN30
  7
_OPEN30
 40
1.0
 41
2.5
 42
2.0
 43
3.75
 44
1.0
 45
0.0
 46
0.0
 47
0.0
 48
0.0
 71
               0
 72
               0
 73
               0
 74
               0
 75
               0
 76
               0
 77
               1
 78
               8
140
4.1655998229980469
141
2.5
142
0.0
143
0.03937007874016
144
1.0
145
0.0
146
1.0
147
1.0
170
               0
171
               4
172
               1
173
               1
174
               0
175
               0
176
               0
177
               0
178
               0
  0
ENDTAB
  0
ENDSEC
  0
SECTION
  2
BLOCKS
  0
BLOCK
  8
0
  6
BYBLOCK
 62
               0
  5
20
  2
_OPEN30
 70
               2
 10
0.0
 20
0.0
 30
0.0
  3
_OPEN30
  0
LINE
  8
0
  6
BYBLOCK
 62
               0
  5
21
 10
-1.0
 20
0.267949
 30
0.0
 11
0.0
 21
0.0
 31
0.0
  0
LINE
  8
0
  6
BYBLOCK
 62
               0
  5
22
 10
0.0
 20
0.0
 30
0.0
 11
-1.0
 21
-0.267949
 31
0.0
  0
LINE
  8
0
  6
BYBLOCK
 62
               0
  5
23
 10
0.0
 20
0.0
 30
0.0
 11
-1.0
 21
0.0
 31
0.0
  0
ENDBLK
  8
0
  6
BYBLOCK
 62
               0
  5
24
  0
ENDSEC
  0
SECTION
  2
ENTITIES
  0
ARC
  8
LY_3
  6
CONTINUOUS
 62
             100
  5
25
 10
98.774322509765625
 20
-85.5
 30
0.0
 40
0.25
 50
160.00051443986365
 51
269.99994604173196
  0
ARC
  8
LY_3
  6
CONTINUOUS
 62
             100
  5
26
 10
98.774307250976563
 20
85.5
 30
0.0
 40
0.25
 50
89.999982013910653
 51
199.99944093653565
  0
ARC
  8
LY_3
  6
CONTINUOUS
 62
             100
  5
27
 10
1.225677490234375
 20
-85.5
 30
0.0
 40
0.25
 50
270.00001798608935
 51
19.999449587957656
  0
ARC
  8
LY_3
  6
CONTINUOUS
 62
             100
  5
28
 10
1.2256927490234375
 20
85.5
 30
0.0
 40
0.25
 50
340.00052309128569
 51
89.999982013910653
  0
LINE
  8
LY_3
  6
CONTINUOUS
 62
             100
  5
29
 10
81.799999999999997
 20
-70.0
 30
0.0
 11
71.0
 21
-70.0
 31
0.0
  0
LINE
  8
LY_3
  6
CONTINUOUS
 62
             100
  5
2A
 10
71.0
 20
-72.849999999999966
 30
0.0
 11
69.999999926794899
 21
-73.849999999999966
 31
0.0
  0
LINE
  8
LY_3
  6
CONTINUOUS
 62
             100
  5
2B
 10
18.199999999999999
 20
-70.0
 30
0.0
 11
29.0
 21
-70.0
 31
0.0
  0
LINE
  8
LY_3
  6
CONTINUOUS
 62
             100
  5
2C
 10
28.999999999999993
 20
-72.84999999999998
 30
0.0
 11
30.00000007320509
 21
-73.84999999999998
 31
0.0
  0
LINE
  8
LY_3
  6
CONTINUOUS
 62
             100
  5
2D
 10
81.799999999999997
 20
70.0
 30
0.0
 11
71.0
 21
70.0
 31
0.0
  0
LINE
  8
LY_3
  6
CONTINUOUS
 62
             100
  5
2E
 10
71.0
 20
72.849999999999994
 30
0.0
 11
71.0
 21
-72.849999999999994
 31
0.0
  0
LINE
  8
LY_3
  6
CONTINUOUS
 62
             100
  5
2F
 10
71.0
 20
72.849999999999966
 30
0.0
 11
69.999999926794899
 21
73.849999999999966
 31
0.0
  0
LINE
  8
LY_3
  6
CONTINUOUS
 62
             100
  5
30
 10
29.0
 20
72.849999999999994
 30
0.0
 11
30.000000073205094
 21
73.849999999999994
 31
0.0
  0
LINE
  8
LY_3
  6
CONTINUOUS
 62
             100
  5
31
 10
29.0
 20
72.849999999999994
 30
0.0
 11
29.0
 21
-72.849999999999994
 31
0.0
  0
LINE
  8
LY_3
  6
CONTINUOUS
 62
             100
  5
32
 10
70.599999999999994
 20
-74.849999999999966
 30
0.0
 11
71.599999999999994
 21
-73.849999999999966
 31
0.0
  0
LINE
  8
LY_3
  6
CONTINUOUS
 62
             100
  5
33
 10
71.600000000000009
 20
-73.84999999999998
 30
0.0
 11
72.599999999999994
 21
-74.84999999999998
 31
0.0
  0
LINE
  8
LY_3
  6
CONTINUOUS
 62
             100
  5
34
 10
74.0
 20
-76.349998474121094
 30
0.0
 11
74.0
 21
-74.849999999999994
 31
0.0
  0
LINE
  8
LY_3
  6
CONTINUOUS
 62
             100
  5
35
 10
70.599999999999994
 20
-74.849999999999994
 30
0.0
 11
70.0
 21
-74.849999999999994
 31
0.0
  0
LINE
  8
LY_3
  6
CONTINUOUS
 62
             100
  5
36
 10
87.300003051757813
 20
-76.349998474121094
 30
0.0
 11
74.0
 21
-76.349998474121094
 31
0.0
  0
LINE
  8
LY_3
  6
CONTINUOUS
 62
             100
  5
37
 10
74.0
 20
-74.849999999999994
 30
0.0
 11
72.600000000000009
 21
-74.849999999999994
 31
0.0
  0
LINE
  8
LY_3
  6
CONTINUOUS
 62
             100
  5
38
 10
29.400000000000002
 20
-74.84999999999998
 30
0.0
 11
28.399999999999999
 21
-73.84999999999998
 31
0.0
  0
LINE
  8
LY_3
  6
CONTINUOUS
 62
             100
  5
39
 10
28.399999999999988
 20
-73.84999999999998
 30
0.0
 11
27.399999999999995
 21
-74.84999999999998
 31
0.0
  0
LINE
  8
LY_3
  6
CONTINUOUS
 62
             100
  5
3A
 10
26.0
 20
-76.349998474121094
 30
0.0
 11
26.0
 21
-74.849999999999994
 31
0.0
  0
LINE
  8
LY_3
  6
CONTINUOUS
 62
             100
  5
3B
 10
29.399999999999999
 20
-74.849999999999994
 30
0.0
 11
30.0
 21
-74.849999999999994
 31
0.0
  0
LINE
  8
LY_3
  6
CONTINUOUS
 62
             100
  5
3C
 10
12.699996948242188
 20
-76.349998474121094
 30
0.0
 11
26.0
 21
-76.349998474121094
 31
0.0
  0
LINE
  8
LY_3
  6
CONTINUOUS
 62
             100
  5
3D
 10
26.0
 20
-74.849999999999994
 30
0.0
 11
27.399999999999995
 21
-74.849999999999994
 31
0.0
  0
LINE
  8
LY_3
  6
CONTINUOUS
 62
             100
  5
3E
 10
70.599999999999994
 20
74.849999999999966
 30
0.0
 11
71.600000000000009
 21
73.849999999999966
 31
0.0
  0
LINE
  8
LY_3
  6
CONTINUOUS
 62
             100
  5
3F
 10
71.600000000000009
 20
73.84999999999998
 30
0.0
 11
72.600000000000009
 21
74.84999999999998
 31
0.0
  0
LINE
  8
LY_3
  6
CONTINUOUS
 62
             100
  5
40
 10
74.0
 20
76.349998474121094
 30
0.0
 11
74.0
 21
74.849999999999994
 31
0.0
  0
LINE
  8
LY_3
  6
CONTINUOUS
 62
             100
  5
41
 10
70.599999999999994
 20
74.849999999999994
 30
0.0
 11
70.0
 21
74.849999999999994
 31
0.0
  0
LINE
  8
LY_3
  6
CONTINUOUS
 62
             100
  5
42
 10
87.300003051757813
 20
76.349998474121094
 30
0.0
 11
74.0
 21
76.349998474121094
 31
0.0
  0
LINE
  8
LY_3
  6
CONTINUOUS
 62
             100
  5
43
 10
74.0
 20
74.849999999999994
 30
0.0
 11
72.600000000000009
 21
74.849999999999994
 31
0.0
  0
LINE
  8
LY_3
  6
CONTINUOUS
 62
             100
  5
44
 10
81.799999999999997
 20
-73.5
 30
0.0
 11
81.799999999999997
 21
73.5
 31
0.0
  0
LINE
  8
LY_3
  6
CONTINUOUS
 62
             100
  5
45
 10
18.199999999999999
 20
73.5
 30
0.0
 11
18.199999999999999
 21
-73.5
 31
0.0
  0
LINE
  8
LY_3
  6
CONTINUOUS
 62
             100
  5
46
 10
29.400000000000006
 20
74.849999999999994
 30
0.0
 11
28.399999999999999
 21
73.849999999999966
 31
0.0
  0
LINE
  8
LY_3
  6
CONTINUOUS
 62
             100
  5
47
 10
28.399999999999991
 20
73.849999999999994
 30
0.0
 11
27.399999999999991
 21
74.849999999999994
 31
0.0
  0
LINE
  8
LY_3
  6
CONTINUOUS
 62
             100
  5
48
 10
26.0
 20
76.349998474121094
 30
0.0
 11
26.0
 21
74.849999999999994
 31
0.0
  0
LINE
  8
LY_3
  6
CENTER
 62
             110
  5
4A
 10
-4.800018310546875
 20
0.0
 30
0.0
 11
104.80001831054687
 21
0.0
 31
0.0
  0
LINE
  8
LY_3
  6
CONTINUOUS
 62
             100
  5
4B
 10
81.799999999999997
 20
73.5
 30
0.0
 11
87.300003051757813
 21
73.5
 31
0.0
  0
LINE
  8
LY_3
  6
CONTINUOUS
 62
             100
  5
4C
 10
81.799999999999997
 20
-73.5
 30
0.0
 11
87.300003051757813
 21
-73.5
 31
0.0
  0
LINE
  8
LY_3
  6
CONTINUOUS
 62
             100
  5
4D
 10
12.699996948242188
 20
73.5
 30
0.0
 11
18.199999999999999
 21
73.5
 31
0.0
  0
LINE
  8
LY_3
  6
CONTINUOUS
 62
             100
  5
4E
 10
12.699996948242188
 20
-73.5
 30
0.0
 11
18.199999999999999
 21
-73.5
 31
0.0
  0
LINE
  8
LY_3
  6
CONTINUOUS
 62
             100
  5
4F
 10
18.199999999999999
 20
70.0
 30
0.0
 11
29.0
 21
70.0
 31
0.0
  0
LINE
  8
LY_3
  6
CONTINUOUS
 62
             100
  5
50
 10
99.999984741210938
 20
85.75
 30
0.0
 11
98.774307250976563
 21
85.75
 31
0.0
  0
LINE
  8
LY_3
  6
CONTINUOUS
 62
             100
  5
51
 10
100.00001525878906
 20
-85.75
 30
0.0
 11
98.774337768554688
 21
-85.75
 31
0.0
  0
LINE
  8
LY_3
  6
CONTINUOUS
 62
             100
  5
52
 10
77.600006103515625
 20
76.349998474121094
 30
0.0
 11
77.600006103515625
 21
100.39999389648437
 31
0.0
  0
LINE
  8
LY_3
  6
CONTINUOUS
 62
             100
  5
53
 10
77.600006103515625
 20
-100.40000152587891
 30
0.0
 11
77.600006103515625
 21
-76.349998474121094
 31
0.0
  0
LINE
  8
LY_3
  6
CENTER
 62
             110
  5
54
 10
104.79998779296875
 20
90.550003051757813
 30
0.0
 11
72.79998779296875
 21
90.550003051757813
 31
0.0
  0
LINE
  8
LY_3
  6
CENTER
 62
             110
  5
55
 10
104.80001831054687
 20
-90.550003051757813
 30
0.0
 11
72.800018310546875
 21
-90.550003051757813
 31
0.0
  0
LINE
  8
LY_3
  6
CONTINUOUS
 62
             100
  5
56
 10
99.400011677702153
 20
-83.0498886939518
 30
0.0
 11
98.800016016599571
 21
-82.997398796433089
 31
0.0
  0
LINE
  8
LY_3
  6
CONTINUOUS
 62
             100
  5
57
 10
99.400062884364729
 20
-83.050030907162125
 30
0.0
 11
98.539458658120111
 21
-85.414518316776039
 31
0.0
  0
LINE
  8
LY_3
  6
CONTINUOUS
 62
             100
  5
58
 10
99.399990586070231
 20
83.049956903491662
 30
0.0
 11
98.799994940434431
 21
82.997466829177242
 31
0.0
  0
LINE
  8
LY_3
  6
CONTINUOUS
 62
             100
  5
59
 10
99.400022181549261
 20
83.050021994843718
 30
0.0
 11
98.539411977900443
 21
85.414523466924066
 31
0.0
  0
LINE
  8
LY_3
  6
CONTINUOUS
 62
             100
  5
5A
 10
90.300018310546875
 20
-74.0
 30
0.0
 11
87.300018310546875
 21
-74.0
 31
0.0
  0
LINE
  8
LY_3
  6
CONTINUOUS
 62
             100
  5
5B
 10
90.29998779296875
 20
74.0
 30
0.0
 11
87.29998779296875
 21
74.0
 31
0.0
  0
LINE
  8
LY_3
  6
CONTINUOUS
 62
             100
  5
5C
 10
87.300018310546875
 20
-76.449996948242188
 30
0.0
 11
77.600006103515625
 21
-76.449996948242188
 31
0.0
  0
LINE
  8
LY_3
  6
CONTINUOUS
 62
             100
  5
5D
 10
87.29998779296875
 20
76.449996948242188
 30
0.0
 11
77.599990844726563
 21
76.449996948242188
 31
0.0
  0
LINE
  8
LY_3
  6
CONTINUOUS
 62
             100
  5
5E
 10
87.300003051757813
 20
-76.449996948242188
 30
0.0
 11
87.300003051757813
 21
76.449996948242188
 31
0.0
  0
LINE
  8
LY_3
  6
CONTINUOUS
 62
             100
  5
5F
 10
99.999984741210938
 20
94.800003051757812
 30
0.0
 11
77.599990844726563
 21
94.800003051757812
 31
0.0
  0
LINE
  8
LY_3
  6
CONTINUOUS
 62
             100
  5
60
 10
99.999984741210938
 20
86.300003051757812
 30
0.0
 11
77.599990844726563
 21
86.300003051757812
 31
0.0
  0
LINE
  8
LY_3
  6
CONTINUOUS
 62
             100
  5
61
 10
78.400073000389995
 20
-101.19995045790054
 30
0.0
 11
77.600067214671327
 21
-100.399945886019
 31
0.0
  0
LINE
  8
LY_3
  6
CONTINUOUS
 62
             100
  5
62
 10
99.200114200827201
 20
-101.20012443801608
 30
0.0
 11
100.00009958742878
 21
-100.4001426253939
 31
0.0
  0
LINE
  8
LY_3
  6
CONTINUOUS
 62
             100
  5
63
 10
77.599958424545719
 20
100.39999396644291
 30
0.0
 11
78.399966806520794
 21
101.19999594205569
 31
0.0
  0
LINE
  8
LY_3
  6
CONTINUOUS
 62
             100
  5
64
 10
100.00018925950778
 20
100.40019828073167
 30
0.0
 11
99.200173156241647
 21
101.20021411425259
 31
0.0
  0
LINE
  8
LY_3
  6
CONTINUOUS
 62
             100
  5
65
 10
90.300003051757812
 20
-76.449996948242188
 30
0.0
 11
90.300003051757812
 21
76.449996948242188
 31
0.0
  0
LINE
  8
LY_3
  6
CONTINUOUS
 62
             100
  5
66
 10
98.79998779296875
 20
76.449996948242188
 30
0.0
 11
90.29998779296875
 21
76.449996948242188
 31
0.0
  0
LINE
  8
LY_3
  6
CONTINUOUS
 62
             100
  5
67
 10
98.800018310546875
 20
-76.449996948242188
 30
0.0
 11
90.300018310546875
 21
-76.449996948242188
 31
0.0
  0
LINE
  8
LY_3
  6
CONTINUOUS
 62
             100
  5
68
 10
98.800003051757812
 20
-82.997512817382813
 30
0.0
 11
98.800003051757812
 21
82.997512817382813
 31
0.0
  0
LINE
  8
LY_3
  6
CONTINUOUS
 62
             100
  5
69
 10
100.0
 20
-100.40000152587891
 30
0.0
 11
100.0
 21
100.39999389648437
 31
0.0
  0
LINE
  8
LY_3
  6
CONTINUOUS
 62
             100
  5
6A
 10
99.199981689453125
 20
101.19999694824219
 30
0.0
 11
78.399993896484375
 21
101.19999694824219
 31
0.0
  0
LINE
  8
LY_3
  6
CONTINUOUS
 62
             100
  5
6B
 10
99.20001220703125
 20
-101.19999694824219
 30
0.0
 11
78.400016784667969
 21
-101.19999694824219
 31
0.0
  0
LINE
  8
LY_3
  6
CONTINUOUS
 62
             100
  5
6C
 10
66.0
 20
-73.0
 30
0.0
 11
66.0
 21
-75.0
 31
0.0
  0
LINE
  8
LY_3
  6
CONTINUOUS
 62
             100
  5
6D
 10
67.999984198013451
 20
-70.999969503300647
 30
0.0
 11
65.999982040605872
 21
-72.999971660708226
 31
0.0
  0
LINE
  8
LY_3
  6
CONTINUOUS
 62
             100
  5
6E
 10
68.0
 20
-71.0
 30
0.0
 11
68.0
 21
-60.0
 31
0.0
  0
LINE
  8
LY_3
  6
CONTINUOUS
 62
             100
  5
6F
 10
70.000040303387209
 20
-72.99995008152176
 30
0.0
 11
68.00003814597963
 21
-70.999947924114181
 31
0.0
  0
LINE
  8
LY_3
  6
CONTINUOUS
 62
             100
  5
70
 10
66.0
 20
73.0
 30
0.0
 11
66.0
 21
75.0
 31
0.0
  0
LINE
  8
LY_3
  6
CONTINUOUS
 62
             100
  5
71
 10
67.999986895411709
 20
70.999967880773127
 30
0.0
 11
65.999995527597349
 21
72.999959248587487
 31
0.0
  0
LINE
  8
LY_3
  6
CONTINUOUS
 62
             100
  5
72
 10
68.0
 20
71.0
 30
0.0
 11
68.0
 21
60.0
 31
0.0
  0
LINE
  8
LY_3
  6
CONTINUOUS
 62
             100
  5
73
 10
70.000020072899943
 20
72.99996868948152
 30
0.0
 11
68.000017915492364
 21
70.999966532073941
 31
0.0
  0
LINE
  8
LY_3
  6
CONTINUOUS
 62
             100
  5
74
 10
34.0
 20
-73.0
 30
0.0
 11
34.0
 21
-75.0
 31
0.0
  0
LINE
  8
LY_3
  6
CONTINUOUS
 62
             100
  5
75
 10
32.000054619529749
 20
-70.999949272813268
 30
0.0
 11
34.000056776937328
 21
-72.999951430220847
 31
0.0
  0
LINE
  8
LY_3
  6
CONTINUOUS
 62
             100
  5
76
 10
32.0
 20
-71.0
 30
0.0
 11
32.0
 21
-60.0
 31
0.0
  0
LINE
  8
LY_3
  6
CONTINUOUS
 62
             100
  5
77
 10
30.000036277732232
 20
-72.999999983390467
 30
0.0
 11
32.000038435139814
 21
-70.999997825982888
 31
0.0
  0
LINE
  8
LY_3
  6
CONTINUOUS
 62
             100
  5
78
 10
32.0
 20
71.0
 30
0.0
 11
32.0
 21
60.0
 31
0.0
  0
LINE
  8
LY_3
  6
CONTINUOUS
 62
             100
  5
79
 10
34.0
 20
73.0
 30
0.0
 11
34.0
 21
75.0
 31
0.0
  0
LINE
  8
LY_3
  6
CONTINUOUS
 62
             100
  5
7A
 10
32.000054619529777
 20
70.99996653207387
 30
0.0
 11
34.000045987344137
 21
72.99995789988823
 31
0.0
  0
LINE
  8
LY_3
  6
CONTINUOUS
 62
             100
  5
7B
 10
30.000041672528809
 20
72.999979479074796
 30
0.0
 11
32.00002225074995
 21
70.999998900853655
 31
0.0
  0
LINE
  8
LY_3
  6
PHANTOM
 62
             110
  5
7D
 10
34.0
 20
-75.0
 30
0.0
 11
66.0
 21
-75.0
 31
0.0
  0
LINE
  8
LY_3
  6
PHANTOM
 62
             110
  5
7E
 10
34.0
 20
75.0
 30
0.0
 11
66.0
 21
75.0
 31
0.0
  0
LINE
  8
LY_3
  6
CONTINUOUS
 62
             100
  5
7F
 10
32.0
 20
-60.0
 30
0.0
 11
68.0
 21
-60.0
 31
0.0
  0
LINE
  8
LY_3
  6
PHANTOM
 62
             110
  5
80
 10
32.0
 20
60.0
 30
0.0
 11
68.0
 21
60.0
 31
0.0
  0
LINE
  8
LY_3
  6
CONTINUOUS
 62
             100
  5
81
 10
30.0
 20
74.849999999999994
 30
0.0
 11
30.0
 21
-74.849999999999994
 31
0.0
  0
LINE
  8
LY_3
  6
CONTINUOUS
 62
             100
  5
82
 10
70.0
 20
74.849999999999994
 30
0.0
 11
70.0
 21
-74.849999999999994
 31
0.0
  0
LINE
  8
LY_3
  6
CONTINUOUS
 62
             100
  5
83
 10
29.399999999999999
 20
74.849999999999994
 30
0.0
 11
30.0
 21
74.849999999999994
 31
0.0
  0
LINE
  8
LY_3
  6
CONTINUOUS
 62
             100
  5
84
 10
12.699996948242188
 20
76.349998474121094
 30
0.0
 11
26.0
 21
76.349998474121094
 31
0.0
  0
LINE
  8
LY_3
  6
CONTINUOUS
 62
             100
  5
85
 10
26.0
 20
74.849999999999994
 30
0.0
 11
27.399999999999995
 21
74.849999999999994
 31
0.0
  0
LINE
  8
LY_3
  6
CONTINUOUS
 62
             100
  5
86
 10
0.0000152587890625
 20
85.75
 30
0.0
 11
1.2256927490234375
 21
85.75
 31
0.0
  0
LINE
  8
LY_3
  6
CONTINUOUS
 62
             100
  5
87
 10
-0.0000152587890625
 20
-85.75
 30
0.0
 11
1.2256622314453125
 21
-85.75
 31
0.0
  0
LINE
  8
LY_3
  6
CONTINUOUS
 62
             100
  5
88
 10
22.399993896484375
 20
76.349998474121094
 30
0.0
 11
22.399993896484375
 21
100.39999389648437
 31
0.0
  0
LINE
  8
LY_3
  6
CENTER
 62
             110
  5
89
 10
-4.79998779296875
 20
90.550003051757813
 30
0.0
 11
27.20001220703125
 21
90.550003051757813
 31
0.0
  0
LINE
  8
LY_3
  6
CENTER
 62
             110
  5
8A
 10
-4.800018310546875
 20
-90.550003051757813
 30
0.0
 11
27.199981689453125
 21
-90.550003051757813
 31
0.0
  0
LINE
  8
LY_3
  6
CONTINUOUS
 62
             100
  5
8B
 10
0.5999646304146893
 20
-83.049924338190579
 30
0.0
 11
1.199937490420492
 21
-82.997436435398356
 31
0.0
  0
LINE
  8
LY_3
  6
CONTINUOUS
 62
             100
  5
8C
 10
0.5998021651533527
 20
-83.050069031078522
 30
0.0
 11
1.4604089600357426
 21
-85.414563497956962
 31
0.0
  0
LINE
  8
LY_3
  6
CONTINUOUS
 62
             100
  5
8D
 10
0.5999964115940628
 20
83.049976185419069
 30
0.0
 11
1.1999844568644633
 21
82.99748677601572
 31
0.0
  0
LINE
  8
LY_3
  6
CONTINUOUS
 62
             100
  5
8E
 10
0.5998646398023979
 20
83.050067952739639
 30
0.0
 11
1.4604722340391234
 21
85.414562255536239
 31
0.0
  0
LINE
  8
LY_3
  6
CONTINUOUS
 62
             100
  5
8F
 10
9.699981689453125
 20
-74.0
 30
0.0
 11
12.699981689453125
 21
-74.0
 31
0.0
  0
LINE
  8
LY_3
  6
CONTINUOUS
 62
             100
  5
90
 10
9.70001220703125
 20
74.0
 30
0.0
 11
12.70001220703125
 21
74.0
 31
0.0
  0
LINE
  8
LY_3
  6
CONTINUOUS
 62
             100
  5
91
 10
12.699981689453125
 20
-76.449996948242188
 30
0.0
 11
22.399993896484375
 21
-76.449996948242188
 31
0.0
  0
LINE
  8
LY_3
  6
CONTINUOUS
 62
             100
  5
92
 10
12.70001220703125
 20
76.449996948242188
 30
0.0
 11
22.400009155273438
 21
76.449996948242188
 31
0.0
  0
LINE
  8
LY_3
  6
CONTINUOUS
 62
             100
  5
93
 10
12.699996948242188
 20
-76.449996948242188
 30
0.0
 11
12.699996948242188
 21
76.449996948242188
 31
0.0
  0
LINE
  8
LY_3
  6
CONTINUOUS
 62
             100
  5
94
 10
0.0000152587890625
 20
94.800003051757812
 30
0.0
 11
22.400009155273438
 21
94.800003051757812
 31
0.0
  0
LINE
  8
LY_3
  6
CONTINUOUS
 62
             100
  5
95
 10
0.0000152587890625
 20
86.300003051757812
 30
0.0
 11
22.400009155273438
 21
86.300003051757812
 31
0.0
  0
LINE
  8
LY_3
  6
CONTINUOUS
 62
             100
  5
96
 10
21.599959747883268
 20
-101.20001007195862
 30
0.0
 11
22.399965533601915
 21
-100.40000550007709
 31
0.0
  0
LINE
  8
LY_3
  6
CONTINUOUS
 62
             100
  5
97
 10
0.7997749105848477
 20
-101.20019373438926
 30
0.0
 11
-0.0002158708253965
 21
-100.40020652698252
 31
0.0
  0
LINE
  8
LY_3
  6
CONTINUOUS
 62
             100
  5
98
 10
22.399971146370945
 20
100.39994665742364
 30
0.0
 11
21.599962764395897
 21
101.1999486330364
 31
0.0
  0
LINE
  8
LY_3
  6
CONTINUOUS
 62
             100
  5
99
 10
-0.0003932077833255
 20
100.40039123431788
 30
0.0
 11
0.7996175006852937
 21
101.2004016730431
 31
0.0
  0
LINE
  8
LY_3
  6
CONTINUOUS
 62
             100
  5
9A
 10
9.6999969482421875
 20
-76.449996948242188
 30
0.0
 11
9.6999969482421875
 21
76.449996948242188
 31
0.0
  0
LINE
  8
LY_3
  6
CONTINUOUS
 62
             100
  5
9B
 10
1.20001220703125
 20
76.449996948242188
 30
0.0
 11
9.70001220703125
 21
76.449996948242188
 31
0.0
  0
LINE
  8
LY_3
  6
CONTINUOUS
 62
             100
  5
9C
 10
1.199981689453125
 20
-76.449996948242188
 30
0.0
 11
9.699981689453125
 21
-76.449996948242188
 31
0.0
  0
LINE
  8
LY_3
  6
CONTINUOUS
 62
             100
  5
9D
 10
1.1999969482421875
 20
-82.997512817382813
 30
0.0
 11
1.1999969482421875
 21
82.997512817382813
 31
0.0
  0
LINE
  8
LY_3
  6
CONTINUOUS
 62
             100
  5
9E
 10
22.399993896484375
 20
-100.40000152587891
 30
0.0
 11
22.399993896484375
 21
-76.349998474121094
 31
0.0
  0
LINE
  8
LY_3
  6
CONTINUOUS
 62
             100
  5
9F
 10
0.0
 20
-100.40000152587891
 30
0.0
 11
0.0
 21
100.39999389648437
 31
0.0
  0
LINE
  8
LY_3
  6
CONTINUOUS
 62
             100
  5
A0
 10
0.800018310546875
 20
101.19999694824219
 30
0.0
 11
21.600006103515625
 21
101.19999694824219
 31
0.0
  0
LINE
  8
LY_3
  6
CONTINUOUS
 62
             100
  5
A1
 10
0.79998779296875
 20
-101.19999694824219
 30
0.0
 11
21.5999755859375
 21
-101.19999694824219
 31
0.0
  0
ENDSEC
  0
EOF
