  0
SECTION
  2
HEADER
  9
$ACADVER
  1
AC1009
  9
$DWGCODEPAGE
  3
dos932
  9
$INSBASE
 10
0.0
 20
0.0
 30
0.0
  9
$EXTMIN
 10
-3.0
 20
-56.750045976568217
 30
0.0
  9
$EXTMAX
 10
83.0
 20
56.75
 30
0.0
  9
$LIMMIN
 10
-3.0
 20
-56.750045976568217
  9
$LIMMAX
 10
83.0
 20
56.75
  9
$ORTHOMODE
 70
               0
  9
$REGENMODE
 70
               1
  9
$FILLMODE
 70
               1
  9
$QTEXTMODE
 70
               0
  9
$MIRRTEXT
 70
               1
  9
$DRAGMODE
 70
               2
  9
$LTSCALE
 40
1.0
  9
$OSMODE
 70
               0
  9
$ATTMODE
 70
               1
  9
$TEXTSIZE
 40
3.2000000476837158
  9
$TRACEWID
 40
0.05
  9
$TEXTSTYLE
  7
MX_NOTE_STANDARD
  9
$CLAYER
  8
LY_3
  9
$CELTYPE
  6
CONTINUOUS
  9
$CECOLOR
 62
             256
  9
$DIMSCALE
 40
1.0
  9
$DIMASZ
 40
2.5
  9
$DIMEXO
 40
2.0
  9
$DIMDLI
 40
3.75
  9
$DIMRND
 40
0.0
  9
$DIMDLE
 40
0.0
  9
$DIMEXE
 40
1.0
  9
$DIMTP
 40
0.0
  9
$DIMTM
 40
0.0
  9
$DIMTXT
 40
4.1655998229980469
  9
$DIMCEN
 40
2.5
  9
$DIMTSZ
 40
0.0
  9
$DIMTOL
 70
               0
  9
$DIMLIM
 70
               0
  9
$DIMTIH
 70
               0
  9
$DIMTOH
 70
               0
  9
$DIMSE1
 70
               0
  9
$DIMSE2
 70
               0
  9
$DIMTAD
 70
               1
  9
$DIMZIN
 70
               8
  9
$DIMBLK
  1

  9
$DIMASO
 70
               1
  9
$DIMSHO
 70
               1
  9
$DIMPOST
  1

  9
$DIMAPOST
  1

  9
$DIMALT
 70
               0
  9
$DIMALTD
 70
               4
  9
$DIMALTF
 40
0.03937007874016
  9
$DIMLFAC
 40
1.0
  9
$DIMTOFL
 70
               1
  9
$DIMTVP
 40
0.0
  9
$DIMTIX
 70
               0
  9
$DIMSOXD
 70
               0
  9
$DIMSAH
 70
               1
  9
$DIMBLK1
  1
_OPEN30
  9
$DIMBLK2
  1
_OPEN30
  9
$DIMSTYLE
  2
MXDIMSTYLE
  9
$DIMCLRD
 70
               0
  9
$DIMCLRE
 70
               0
  9
$DIMCLRT
 70
               0
  9
$DIMTFAC
 40
1.0
  9
$DIMGAP
 40
1.0
  9
$LUNITS
 70
               2
  9
$LUPREC
 70
               4
  9
$AXISMODE
 70
               0
  9
$AXISUNIT
 10
0.0
 20
0.0
  9
$SKETCHINC
 40
0.1
  9
$FILLETRAD
 40
0.0
  9
$AUNITS
 70
               0
  9
$AUPREC
 70
               0
  9
$MENU
  1
acad
  9
$ELEVATION
 40
0.0
  9
$PELEVATION
 40
0.0
  9
$THICKNESS
 40
0.0
  9
$LIMCHECK
 70
               0
  9
$BLIPMODE
 70
               1
  9
$CHAMFERA
 40
0.0
  9
$CHAMFERB
 40
0.0
  9
$SKPOLY
 70
               0
  9
$TDCREATE
 40
2455163.519016204
  9
$TDUPDATE
 40
2455163.519016204
  9
$TDINDWG
 40
0.0000000000
  9
$TDUSRTIMER
 40
0.0000000000
  9
$USRTIMER
 70
               1
  9
$ANGBASE
 50
0.0
  9
$ANGDIR
 70
               0
  9
$PDMODE
 70
               0
  9
$PDSIZE
 40
0.0
  9
$PLINEWID
 40
0.0
  9
$COORDS
 70
               1
  9
$SPLFRAME
 70
               0
  9
$SPLINETYPE
 70
               6
  9
$SPLINESEGS
 70
               8
  9
$ATTDIA
 70
               0
  9
$ATTREQ
 70
               1
  9
$HANDLING
 70
               1
  9
$HANDSEED
  5
A6
  9
$SURFTAB1
 70
               6
  9
$SURFTAB2
 70
               6
  9
$SURFTYPE
 70
               6
  9
$SURFU
 70
               6
  9
$SURFV
 70
               6
  9
$UCSNAME
  2

  9
$UCSORG
 10
0.0
 20
0.0
 30
0.0
  9
$UCSXDIR
 10
1.0
 20
0.0
 30
0.0
  9
$UCSYDIR
 10
0.0
 20
1.0
 30
0.0
  9
$PUCSNAME
  2

  9
$PUCSORG
 10
0.0
 20
0.0
 30
0.0
  9
$PUCSXDIR
 10
1.0
 20
0.0
 30
0.0
  9
$PUCSYDIR
 10
0.0
 20
1.0
 30
0.0
  9
$USERI1
 70
               0
  9
$USERI2
 70
               0
  9
$USERI3
 70
               0
  9
$USERI4
 70
               0
  9
$USERI5
 70
               0
  9
$USERR1
 40
0.0
  9
$USERR2
 40
0.0
  9
$USERR3
 40
0.0
  9
$USERR4
 40
0.0
  9
$USERR5
 40
0.0
  9
$WORLDVIEW
 70
               1
  9
$SHADEDGE
 70
               3
  9
$SHADEDIF
 70
              70
  9
$TILEMODE
 70
               1
  9
$MAXACTVP
 70
              16
  9
$PINSBASE
 10
0.0
 20
0.0
 30
0.0
  9
$PLIMCHECK
 70
               0
  9
$PEXTMIN
 10
1.0000000000000000E+20
 20
1.0000000000000000E+20
 30
1.0000000000000000E+20
  9
$PEXTMAX
 10
-1.0000000000000000E+20
 20
-1.0000000000000000E+20
 30
-1.0000000000000000E+20
  9
$PLIMMIN
 10
0.0
 20
0.0
  9
$PLIMMAX
 10
12.0
 20
9.0
  9
$UNITMODE
 70
               0
  9
$VISRETAIN
 70
               0
  9
$PLINEGEN
 70
               1
  9
$PSLTSCALE
 70
               0
  9
$TREEDEPTH
 70
            3020
  0
ENDSEC
  0
SECTION
  2
TABLES
  0
TABLE
  2
VPORT
 70
               1
  0
VPORT
  2
*ACTIVE
 70
               0
 10
0.0
 20
0.0
 11
1.0
 21
1.0
 12
40.0
 22
-0.0000229882841083
 13
0.0
 23
0.0
 14
1.0
 24
1.0
 15
0.0
 25
0.0
 16
0.0
 26
0.0
 36
1.0
 17
0.0
 27
0.0
 37
0.0
 40
114.63504643633389
 41
1.7320508075688772
 42
50.0
 43
0.0
 44
0.0
 50
0.0
 51
0.0
 71
               0
 72
             100
 73
               1
 74
               1
 75
               0
 76
               0
 77
               0
 78
               0
  0
ENDTAB
  0
TABLE
  2
LTYPE
 70
               3
  0
LTYPE
  2
CONTINUOUS
 70
              64
  3
Solid line
 72
              65
 73
               0
 40
0.0
  0
LTYPE
  2
PHANTOM
 70
              64
  3
Phantom ______  __  __  ______  __  __  ______
 72
              65
 73
               6
 40
63.500000000000007
 49
31.75
 49
-6.3499999999999996
 49
6.3499999999999996
 49
-6.3499999999999996
 49
6.3499999999999996
 49
-6.3499999999999996
  0
LTYPE
  2
CENTER
 70
              64
  3
Center ____ _ ____ _ ____ _ ____ _ ____ _ ____
 72
              65
 73
               4
 40
50.800000000000004
 49
31.75
 49
-6.3499999999999996
 49
6.3499999999999996
 49
-6.3499999999999996
  0
ENDTAB
  0
TABLE
  2
LAYER
 70
               3
  0
LAYER
  2
0
 70
               0
 62
               7
  6
CONTINUOUS
  0
LAYER
  2
DEFPOINTS
 70
               0
 62
               7
  6
CONTINUOUS
  0
LAYER
  2
LY_3
 70
               0
 62
               7
  6
CONTINUOUS
  0
ENDTAB
  0
TABLE
  2
STYLE
 70
               1
  0
STYLE
  2
MX_NOTE_STANDARD
 70
               0
 40
0.0
 41
1.0
 50
0.0
 71
               0
 42
3.2000000476837158
  3
txt.shx
  4
extfont.shx
  0
ENDTAB
  0
TABLE
  2
VIEW
 70
               0
  0
ENDTAB
  0
TABLE
  2
UCS
 70
               0
  0
ENDTAB
  0
TABLE
  2
APPID
 70
               1
  0
APPID
  2
ACAD
 70
               0
  0
ENDTAB
  0
TABLE
  2
DIMSTYLE
 70
               1
  0
DIMSTYLE
  2
MXDIMSTYLE
 70
               0
  3

  4

  5

  6
_OPEN30
  7
_OPEN30
 40
1.0
 41
2.5
 42
2.0
 43
3.75
 44
1.0
 45
0.0
 46
0.0
 47
0.0
 48
0.0
 71
               0
 72
               0
 73
               0
 74
               0
 75
               0
 76
               0
 77
               1
 78
               8
140
4.1655998229980469
141
2.5
142
0.0
143
0.03937007874016
144
1.0
145
0.0
146
1.0
147
1.0
170
               0
171
               4
172
               1
173
               1
174
               0
175
               0
176
               0
177
               0
178
               0
  0
ENDTAB
  0
ENDSEC
  0
SECTION
  2
BLOCKS
  0
BLOCK
  8
0
  6
BYBLOCK
 62
               0
  5
20
  2
_OPEN30
 70
               2
 10
0.0
 20
0.0
 30
0.0
  3
_OPEN30
  0
LINE
  8
0
  6
BYBLOCK
 62
               0
  5
21
 10
-1.0
 20
0.267949
 30
0.0
 11
0.0
 21
0.0
 31
0.0
  0
LINE
  8
0
  6
BYBLOCK
 62
               0
  5
22
 10
0.0
 20
0.0
 30
0.0
 11
-1.0
 21
-0.267949
 31
0.0
  0
LINE
  8
0
  6
BYBLOCK
 62
               0
  5
23
 10
0.0
 20
0.0
 30
0.0
 11
-1.0
 21
0.0
 31
0.0
  0
ENDBLK
  8
0
  6
BYBLOCK
 62
               0
  5
24
  0
ENDSEC
  0
SECTION
  2
ENTITIES
  0
ARC
  8
LY_3
  6
CONTINUOUS
 62
             100
  5
25
 10
1.225677490234375
 20
-41.050003051757813
 30
0.0
 40
0.25
 50
270.00001798608935
 51
20.000282871036397
  0
ARC
  8
LY_3
  6
CONTINUOUS
 62
             100
  5
26
 10
1.225677490234375
 20
41.050003051757813
 30
0.0
 40
0.25
 50
339.9997171289636
 51
89.999982013910653
  0
ARC
  8
LY_3
  6
CONTINUOUS
 62
             100
  5
27
 10
78.774322509765625
 20
-41.049999237060547
 30
0.0
 40
0.25
 50
159.9996811567849
 51
269.99994604173196
  0
ARC
  8
LY_3
  6
CONTINUOUS
 62
             100
  5
28
 10
78.774322509765625
 20
41.050003051757813
 30
0.0
 40
0.25
 50
89.999982013910653
 51
200.00024689885771
  0
LINE
  8
LY_3
  6
CONTINUOUS
 62
             100
  5
29
 10
59.5
 20
-22.5
 30
0.0
 11
68.0
 21
-22.5
 31
0.0
  0
LINE
  8
LY_3
  6
CONTINUOUS
 62
               3
  5
2A
 10
59.5
 20
-23.75
 30
0.0
 11
59.5
 21
23.75
 31
0.0
  0
LINE
  8
LY_3
  6
CONTINUOUS
 62
               3
  5
2B
 10
59.5
 20
-23.750000000000004
 30
0.0
 11
58.499999926794914
 21
-24.750000000000004
 31
0.0
  0
LINE
  8
LY_3
  6
CONTINUOUS
 62
             100
  5
2C
 10
20.5
 20
-22.5
 30
0.0
 11
12.0
 21
-22.5
 31
0.0
  0
LINE
  8
LY_3
  6
CONTINUOUS
 62
               3
  5
2D
 10
20.5
 20
-23.75
 30
0.0
 11
20.5
 21
23.75
 31
0.0
  0
LINE
  8
LY_3
  6
CONTINUOUS
 62
               3
  5
2E
 10
20.499999999999993
 20
-23.75
 30
0.0
 11
21.500000073205079
 21
-24.75
 31
0.0
  0
LINE
  8
LY_3
  6
CONTINUOUS
 62
             100
  5
2F
 10
59.5
 20
22.5
 30
0.0
 11
68.0
 21
22.5
 31
0.0
  0
LINE
  8
LY_3
  6
CONTINUOUS
 62
               3
  5
30
 10
59.500000000000014
 20
23.750000000000014
 30
0.0
 11
58.499999926794928
 21
24.750000000000014
 31
0.0
  0
LINE
  8
LY_3
  6
CONTINUOUS
 62
               3
  5
31
 10
20.5
 20
23.75
 30
0.0
 11
21.500000073205083
 21
24.75
 31
0.0
  0
LINE
  8
LY_3
  6
CONTINUOUS
 62
               3
  5
32
 10
62.5
 20
-31.75
 30
0.0
 11
73.0
 21
-31.75
 31
0.0
  0
LINE
  8
LY_3
  6
CONTINUOUS
 62
               3
  5
33
 10
62.5
 20
31.75
 30
0.0
 11
73.0
 21
31.75
 31
0.0
  0
LINE
  8
LY_3
  6
CONTINUOUS
 62
               3
  5
34
 10
7.0
 20
-31.75
 30
0.0
 11
17.5
 21
-31.75
 31
0.0
  0
LINE
  8
LY_3
  6
CONTINUOUS
 62
               3
  5
35
 10
7.0
 20
31.75
 30
0.0
 11
17.5
 21
31.75
 31
0.0
  0
LINE
  8
LY_3
  6
CONTINUOUS
 62
             100
  5
36
 10
57.0
 20
-22.5
 30
0.0
 11
57.0
 21
-18.0
 31
0.0
  0
LINE
  8
LY_3
  6
CONTINUOUS
 62
             100
  5
37
 10
55.5
 20
-24.0
 30
0.0
 11
55.5
 21
-25.5
 31
0.0
  0
LINE
  8
LY_3
  6
CONTINUOUS
 62
             100
  5
38
 10
56.999975201311749
 20
-22.499988669777238
 30
0.0
 11
55.499978978052674
 21
-23.999984893036313
 31
0.0
  0
LINE
  8
LY_3
  6
CONTINUOUS
 62
             100
  5
39
 10
58.499963332375927
 20
-24.000046933197289
 30
0.0
 11
56.999967109116852
 21
-22.500050709938215
 31
0.0
  0
LINE
  8
LY_3
  6
CONTINUOUS
 62
             100
  5
3A
 10
57.0
 20
22.5
 30
0.0
 11
57.0
 21
18.0
 31
0.0
  0
LINE
  8
LY_3
  6
CONTINUOUS
 62
             100
  5
3B
 10
55.5
 20
24.0
 30
0.0
 11
55.5
 21
25.5
 31
0.0
  0
LINE
  8
LY_3
  6
CONTINUOUS
 62
             100
  5
3C
 10
57.000011616188857
 20
22.500009970024706
 30
0.0
 11
55.500009998133173
 21
24.00001158808039
 31
0.0
  0
LINE
  8
LY_3
  6
CONTINUOUS
 62
             100
  5
3D
 10
58.499921522702209
 20
24.000070930843066
 30
0.0
 11
56.999922602044833
 21
22.50007201018569
 31
0.0
  0
LINE
  8
LY_3
  6
CONTINUOUS
 62
             100
  5
3E
 10
23.0
 20
-22.5
 30
0.0
 11
23.0
 21
-18.0
 31
0.0
  0
LINE
  8
LY_3
  6
CONTINUOUS
 62
             100
  5
3F
 10
24.5
 20
-24.0
 30
0.0
 11
24.5
 21
-25.5
 31
0.0
  0
LINE
  8
LY_3
  6
CONTINUOUS
 62
             100
  5
40
 10
22.999905084287768
 20
-22.500101960505965
 30
0.0
 11
24.499901307546843
 21
-24.00009818376504
 31
0.0
  0
LINE
  8
LY_3
  6
CONTINUOUS
 62
             100
  5
41
 10
21.499908861028686
 20
-23.999925550273645
 30
0.0
 11
22.99991047908437
 21
-22.49992393221796
 31
0.0
  0
LINE
  8
LY_3
  6
CONTINUOUS
 62
             100
  5
42
 10
23.0
 20
22.5
 30
0.0
 11
23.0
 21
18.0
 31
0.0
  0
LINE
  8
LY_3
  6
CONTINUOUS
 62
             100
  5
43
 10
24.5
 20
24.0
 30
0.0
 11
24.5
 21
25.5
 31
0.0
  0
LINE
  8
LY_3
  6
CONTINUOUS
 62
             100
  5
44
 10
22.999856531118311
 20
22.500146188639008
 30
0.0
 11
24.499858149173996
 21
24.000147806694692
 31
0.0
  0
LINE
  8
LY_3
  6
CONTINUOUS
 62
             100
  5
45
 10
21.499941229808314
 20
23.999953594016873
 30
0.0
 11
22.999937453067389
 21
22.499957370757798
 31
0.0
  0
LINE
  8
LY_3
  6
CONTINUOUS
 62
             100
  5
46
 10
58.5
 20
25.549999999999997
 30
0.0
 11
58.5
 21
-25.5
 31
0.0
  0
LINE
  8
LY_3
  6
PHANTOM
 62
             110
  5
48
 10
24.5
 20
25.5
 30
0.0
 11
55.5
 21
25.5
 31
0.0
  0
LINE
  8
LY_3
  6
PHANTOM
 62
             110
  5
49
 10
24.5
 20
-25.5
 30
0.0
 11
55.5
 21
-25.5
 31
0.0
  0
LINE
  8
LY_3
  6
PHANTOM
 62
             110
  5
4A
 10
23.0
 20
18.0
 30
0.0
 11
57.0
 21
18.0
 31
0.0
  0
LINE
  8
LY_3
  6
PHANTOM
 62
             110
  5
4B
 10
23.0
 20
-18.0
 30
0.0
 11
57.0
 21
-18.0
 31
0.0
  0
LINE
  8
LY_3
  6
CONTINUOUS
 62
             100
  5
4C
 10
21.5
 20
25.549999999999997
 30
0.0
 11
21.5
 21
-25.5
 31
0.0
  0
LINE
  8
LY_3
  6
CENTER
 62
             110
  5
4E
 10
-3.0
 20
0.0
 30
0.0
 11
83.0
 21
0.0
 31
0.0
  0
LINE
  8
LY_3
  6
CONTINUOUS
 62
             100
  5
4F
 10
12.0
 20
-30.0
 30
0.0
 11
7.0
 21
-30.0
 31
0.0
  0
LINE
  8
LY_3
  6
CONTINUOUS
 62
             100
  5
50
 10
12.0
 20
30.0
 30
0.0
 11
12.0
 21
-30.0
 31
0.0
  0
LINE
  8
LY_3
  6
CONTINUOUS
 62
             100
  5
51
 10
12.0
 20
30.0
 30
0.0
 11
7.0
 21
30.0
 31
0.0
  0
LINE
  8
LY_3
  6
CONTINUOUS
 62
             100
  5
52
 10
20.5
 20
22.5
 30
0.0
 11
12.0
 21
22.5
 31
0.0
  0
LINE
  8
LY_3
  6
CONTINUOUS
 62
             100
  5
53
 10
17.5
 20
-25.5
 30
0.0
 11
17.5
 21
-31.75
 31
0.0
  0
LINE
  8
LY_3
  6
CONTINUOUS
 62
             100
  5
54
 10
18.899993896484375
 20
-25.5
 30
0.0
 11
17.5
 21
-25.5
 31
0.0
  0
LINE
  8
LY_3
  6
CONTINUOUS
 62
             100
  5
55
 10
19.900001004563634
 20
-24.499996221981462
 30
0.0
 11
18.899999925859845
 21
-25.499997300685251
 31
0.0
  0
LINE
  8
LY_3
  6
CONTINUOUS
 62
             100
  5
56
 10
20.90001287286065
 20
-25.499986511091912
 30
0.0
 11
19.90001718895347
 21
-24.499990827184732
 31
0.0
  0
LINE
  8
LY_3
  6
CONTINUOUS
 62
             100
  5
57
 10
21.5
 20
-25.5
 30
0.0
 11
20.899993896484375
 21
-25.5
 31
0.0
  0
LINE
  8
LY_3
  6
CONTINUOUS
 62
             100
  5
58
 10
21.5
 20
25.5
 30
0.0
 11
21.5
 21
-25.5
 31
0.0
  0
LINE
  8
LY_3
  6
CONTINUOUS
 62
             100
  5
59
 10
17.5
 20
25.549999999999997
 30
0.0
 11
17.5
 21
31.75
 31
0.0
  0
LINE
  8
LY_3
  6
CONTINUOUS
 62
             100
  5
5A
 10
18.899993896484375
 20
25.549999999999997
 30
0.0
 11
17.5
 21
25.549999999999997
 31
0.0
  0
LINE
  8
LY_3
  6
CONTINUOUS
 62
             100
  5
5B
 10
19.900006399360208
 20
24.549997291741647
 30
0.0
 11
18.900005320656419
 21
25.549998370445437
 31
0.0
  0
LINE
  8
LY_3
  6
CONTINUOUS
 62
             100
  5
5C
 10
20.90001826765727
 20
25.549987580852104
 30
0.0
 11
19.900017188953477
 21
24.549986502148307
 31
0.0
  0
LINE
  8
LY_3
  6
CONTINUOUS
 62
             100
  5
5D
 10
21.5
 20
25.549999999999997
 30
0.0
 11
20.899993896484375
 21
25.549999999999997
 31
0.0
  0
LINE
  8
LY_3
  6
CONTINUOUS
 62
             100
  5
5E
 10
0.0
 20
-41.300003051757813
 30
0.0
 11
1.225677490234375
 21
-41.300003051757813
 31
0.0
  0
LINE
  8
LY_3
  6
CONTINUOUS
 62
             100
  5
5F
 10
0.0
 20
41.300003051757813
 30
0.0
 11
1.225677490234375
 21
41.300003051757813
 31
0.0
  0
LINE
  8
LY_3
  6
CONTINUOUS
 62
             100
  5
60
 10
17.5
 20
-31.75
 30
0.0
 11
17.5
 21
-55.950000762939453
 31
0.0
  0
LINE
  8
LY_3
  6
CONTINUOUS
 62
             100
  5
61
 10
17.5
 20
55.949996948242187
 30
0.0
 11
17.5
 21
31.75
 31
0.0
  0
LINE
  8
LY_3
  6
CONTINUOUS
 62
             100
  5
62
 10
7.0
 20
31.900001525878906
 30
0.0
 11
7.0
 21
-31.899999618530273
 31
0.0
  0
LINE
  8
LY_3
  6
CONTINUOUS
 62
             100
  5
63
 10
5.0
 20
31.900001525878906
 30
0.0
 11
5.0
 21
-31.899999618530273
 31
0.0
  0
LINE
  8
LY_3
  6
CONTINUOUS
 62
             100
  5
64
 10
1.1999969482421875
 20
38.547508239746094
 30
0.0
 11
1.1999969482421875
 21
-38.547508239746094
 31
0.0
  0
LINE
  8
LY_3
  6
CONTINUOUS
 62
             100
  5
65
 10
0.0
 20
55.949996948242187
 30
0.0
 11
0.0
 21
-55.950000762939453
 31
0.0
  0
LINE
  8
LY_3
  6
CONTINUOUS
 62
             100
  5
66
 10
0.5999939950898963
 20
-38.60001147553244
 30
0.0
 11
1.1999969318957682
 21
-38.547517202123437
 31
0.0
  0
LINE
  8
LY_3
  6
CONTINUOUS
 62
             100
  5
67
 10
0.5999130927383476
 20
-38.600030351863332
 30
0.0
 11
1.4605196553311899
 21
-40.964523000389875
 31
0.0
  0
LINE
  8
LY_3
  6
CONTINUOUS
 62
             100
  5
68
 10
0.6000021948926673
 20
38.60003927700356
 30
0.0
 11
1.1999899309755762
 21
38.547546333506233
 31
0.0
  0
LINE
  8
LY_3
  6
CONTINUOUS
 62
             100
  5
69
 10
0.5998970911632284
 20
38.600026681561786
 30
0.0
 11
1.4605056108142804
 21
40.964524707051453
 31
0.0
  0
LINE
  8
LY_3
  6
CENTER
 62
             110
  5
6A
 10
-3.0
 20
-46.099998474121094
 30
0.0
 11
20.5
 21
-46.099998474121094
 31
0.0
  0
LINE
  8
LY_3
  6
CENTER
 62
             110
  5
6B
 10
-3.0
 20
46.099998474121094
 30
0.0
 11
20.5
 21
46.099998474121094
 31
0.0
  0
LINE
  8
LY_3
  6
CONTINUOUS
 62
             100
  5
6C
 10
16.700009960743664
 20
56.749975434574452
 30
0.0
 11
17.500015139543983
 21
55.949970255774133
 31
0.0
  0
LINE
  8
LY_3
  6
CONTINUOUS
 62
             100
  5
6D
 10
17.500022689754516
 20
-55.949995886089468
 30
0.0
 11
16.70001943286519
 21
-56.750002986796162
 31
0.0
  0
LINE
  8
LY_3
  6
CONTINUOUS
 62
             100
  5
6E
 10
7.0
 20
-31.900001525878906
 30
0.0
 11
17.5
 21
-31.900001525878906
 31
0.0
  0
LINE
  8
LY_3
  6
CONTINUOUS
 62
             100
  5
6F
 10
7.0
 20
31.900001525878906
 30
0.0
 11
17.5
 21
31.900001525878906
 31
0.0
  0
LINE
  8
LY_3
  6
CONTINUOUS
 62
             100
  5
70
 10
5.0
 20
-30.75
 30
0.0
 11
7.0
 21
-30.75
 31
0.0
  0
LINE
  8
LY_3
  6
CONTINUOUS
 62
             100
  5
71
 10
5.0
 20
30.75
 30
0.0
 11
7.0
 21
30.75
 31
0.0
  0
LINE
  8
LY_3
  6
CONTINUOUS
 62
             100
  5
72
 10
1.1999969482421875
 20
-31.900001525878906
 30
0.0
 11
5.0
 21
-31.900001525878906
 31
0.0
  0
LINE
  8
LY_3
  6
CONTINUOUS
 62
             100
  5
73
 10
1.1999969482421875
 20
31.900001525878906
 30
0.0
 11
5.0
 21
31.900001525878906
 31
0.0
  0
LINE
  8
LY_3
  6
CONTINUOUS
 62
             100
  5
74
 10
0.0
 20
50.349998474121094
 30
0.0
 11
17.5
 21
50.349998474121094
 31
0.0
  0
LINE
  8
LY_3
  6
CONTINUOUS
 62
             100
  5
75
 10
0.0
 20
41.849998474121094
 30
0.0
 11
17.5
 21
41.849998474121094
 31
0.0
  0
LINE
  8
LY_3
  6
CONTINUOUS
 62
             100
  5
76
 10
0.0000744867785798
 20
-55.949934119835866
 30
0.0
 11
0.8000742707822894
 21
-56.749933903839576
 31
0.0
  0
LINE
  8
LY_3
  6
CONTINUOUS
 62
             100
  5
77
 10
0.8000580863924824
 20
56.749978131972625
 30
0.0
 11
0.0000636971853822
 21
55.949983742765525
 31
0.0
  0
LINE
  8
LY_3
  6
CONTINUOUS
 62
             100
  5
78
 10
0.8000030517578125
 20
56.75
 30
0.0
 11
16.699996948242188
 21
56.75
 31
0.0
  0
LINE
  8
LY_3
  6
CONTINUOUS
 62
             100
  5
79
 10
0.8000030517578125
 20
-56.75
 30
0.0
 11
16.70001220703125
 21
-56.75
 31
0.0
  0
LINE
  8
LY_3
  6
CONTINUOUS
 62
             100
  5
7A
 10
68.0
 20
-30.0
 30
0.0
 11
73.0
 21
-30.0
 31
0.0
  0
LINE
  8
LY_3
  6
CONTINUOUS
 62
             100
  5
7B
 10
68.0
 20
30.0
 30
0.0
 11
68.0
 21
-30.0
 31
0.0
  0
LINE
  8
LY_3
  6
CONTINUOUS
 62
             100
  5
7C
 10
68.0
 20
30.0
 30
0.0
 11
73.0
 21
30.0
 31
0.0
  0
LINE
  8
LY_3
  6
CONTINUOUS
 62
             100
  5
7D
 10
62.5
 20
-25.5
 30
0.0
 11
62.5
 21
-31.75
 31
0.0
  0
LINE
  8
LY_3
  6
CONTINUOUS
 62
             100
  5
7E
 10
61.099998474121094
 20
-25.5
 30
0.0
 11
62.5
 21
-25.5
 31
0.0
  0
LINE
  8
LY_3
  6
CONTINUOUS
 62
             100
  5
7F
 10
60.100008756154523
 20
-24.500001616778007
 30
0.0
 11
61.100009834858312
 21
-25.500002695481797
 31
0.0
  0
LINE
  8
LY_3
  6
CONTINUOUS
 62
             100
  5
80
 10
59.100004980052418
 20
-25.500005392880126
 30
0.0
 11
60.100006058756207
 21
-24.500004314176337
 31
0.0
  0
LINE
  8
LY_3
  6
CONTINUOUS
 62
             100
  5
81
 10
58.5
 20
-25.5
 30
0.0
 11
59.099998474121094
 21
-25.5
 31
0.0
  0
LINE
  8
LY_3
  6
CONTINUOUS
 62
             100
  5
82
 10
58.5
 20
25.5
 30
0.0
 11
58.5
 21
-25.5
 31
0.0
  0
LINE
  8
LY_3
  6
CONTINUOUS
 62
             100
  5
83
 10
62.5
 20
25.549999999999997
 30
0.0
 11
62.5
 21
31.75
 31
0.0
  0
LINE
  8
LY_3
  6
CONTINUOUS
 62
             100
  5
84
 10
61.099998474121094
 20
25.549999999999997
 30
0.0
 11
62.5
 21
25.549999999999997
 31
0.0
  0
LINE
  8
LY_3
  6
CONTINUOUS
 62
             100
  5
85
 10
60.100010104853695
 20
24.549987850847529
 30
0.0
 11
61.100011183557484
 21
25.549988929551319
 31
0.0
  0
LINE
  8
LY_3
  6
CONTINUOUS
 62
             100
  5
86
 10
59.100000259605366
 20
25.550001742193274
 30
0.0
 11
60.100001338309156
 21
24.550000663489485
 31
0.0
  0
LINE
  8
LY_3
  6
CONTINUOUS
 62
             100
  5
87
 10
58.5
 20
25.549999999999997
 30
0.0
 11
59.099998474121094
 21
25.549999999999997
 31
0.0
  0
LINE
  8
LY_3
  6
CONTINUOUS
 62
             100
  5
88
 10
80.0
 20
-41.299999237060547
 30
0.0
 11
78.774322509765625
 21
-41.299999237060547
 31
0.0
  0
LINE
  8
LY_3
  6
CONTINUOUS
 62
             100
  5
89
 10
80.0
 20
41.300003051757813
 30
0.0
 11
78.774322509765625
 21
41.300003051757813
 31
0.0
  0
LINE
  8
LY_3
  6
CONTINUOUS
 62
             100
  5
8A
 10
62.5
 20
-31.75
 30
0.0
 11
62.5
 21
-55.950000762939453
 31
0.0
  0
LINE
  8
LY_3
  6
CONTINUOUS
 62
             100
  5
8B
 10
73.0
 20
31.900001525878906
 30
0.0
 11
73.0
 21
-31.899999618530273
 31
0.0
  0
LINE
  8
LY_3
  6
CONTINUOUS
 62
             100
  5
8C
 10
75.0
 20
31.900001525878906
 30
0.0
 11
75.0
 21
-31.899999618530273
 31
0.0
  0
LINE
  8
LY_3
  6
CONTINUOUS
 62
             100
  5
8D
 10
78.800003051757813
 20
38.547508239746094
 30
0.0
 11
78.800003051757813
 21
-38.547508239746094
 31
0.0
  0
LINE
  8
LY_3
  6
CONTINUOUS
 62
             100
  5
8E
 10
80.0
 20
55.949996948242187
 30
0.0
 11
80.0
 21
-55.950000762939453
 31
0.0
  0
LINE
  8
LY_3
  6
CONTINUOUS
 62
             100
  5
8F
 10
79.400000755990533
 20
-38.600013440947883
 30
0.0
 11
78.800005419546153
 21
-38.547519832494721
 31
0.0
  0
LINE
  8
LY_3
  6
CONTINUOUS
 62
             100
  5
90
 10
79.400000552975058
 20
-38.600007951942573
 30
0.0
 11
78.539393338029498
 21
-40.964502392790152
 31
0.0
  0
LINE
  8
LY_3
  6
CONTINUOUS
 62
             100
  5
91
 10
79.39998478958735
 20
38.600042477553586
 30
0.0
 11
78.799989453142956
 21
38.547548869100424
 31
0.0
  0
LINE
  8
LY_3
  6
CONTINUOUS
 62
             100
  5
92
 10
79.400009709793409
 20
38.600006357305148
 30
0.0
 11
78.53940249484782
 21
40.964500798152727
 31
0.0
  0
LINE
  8
LY_3
  6
CENTER
 62
             110
  5
93
 10
83.0
 20
-46.099998474121094
 30
0.0
 11
59.5
 21
-46.099998474121094
 31
0.0
  0
LINE
  8
LY_3
  6
CENTER
 62
             110
  5
94
 10
83.0
 20
46.099998474121094
 30
0.0
 11
59.5
 21
46.099998474121094
 31
0.0
  0
LINE
  8
LY_3
  6
CONTINUOUS
 62
             100
  5
95
 10
63.300026773957512
 20
56.749959250184574
 30
0.0
 11
62.500026989953803
 21
55.949959466180871
 31
0.0
  0
LINE
  8
LY_3
  6
CONTINUOUS
 62
             100
  5
96
 10
62.499972234591127
 20
-55.950044270671086
 30
0.0
 11
63.299970096696811
 21
-56.750045976568217
 31
0.0
  0
LINE
  8
LY_3
  6
CONTINUOUS
 62
             100
  5
97
 10
62.5
 20
55.949996948242187
 30
0.0
 11
62.5
 21
31.75
 31
0.0
  0
LINE
  8
LY_3
  6
CONTINUOUS
 62
             100
  5
98
 10
73.0
 20
-31.900001525878906
 30
0.0
 11
62.5
 21
-31.900001525878906
 31
0.0
  0
LINE
  8
LY_3
  6
CONTINUOUS
 62
             100
  5
99
 10
73.0
 20
31.900001525878906
 30
0.0
 11
62.5
 21
31.900001525878906
 31
0.0
  0
LINE
  8
LY_3
  6
CONTINUOUS
 62
             100
  5
9A
 10
75.0
 20
-30.75
 30
0.0
 11
73.0
 21
-30.75
 31
0.0
  0
LINE
  8
LY_3
  6
CONTINUOUS
 62
             100
  5
9B
 10
75.0
 20
30.75
 30
0.0
 11
73.0
 21
30.75
 31
0.0
  0
LINE
  8
LY_3
  6
CONTINUOUS
 62
             100
  5
9C
 10
78.800003051757813
 20
-31.900001525878906
 30
0.0
 11
75.0
 21
-31.900001525878906
 31
0.0
  0
LINE
  8
LY_3
  6
CONTINUOUS
 62
             100
  5
9D
 10
78.800003051757813
 20
31.900001525878906
 30
0.0
 11
75.0
 21
31.900001525878906
 31
0.0
  0
LINE
  8
LY_3
  6
CONTINUOUS
 62
             100
  5
9E
 10
80.0
 20
50.349998474121094
 30
0.0
 11
62.5
 21
50.349998474121094
 31
0.0
  0
LINE
  8
LY_3
  6
CONTINUOUS
 62
             100
  5
9F
 10
80.0
 20
41.849998474121094
 30
0.0
 11
62.5
 21
41.849998474121094
 31
0.0
  0
LINE
  8
LY_3
  6
CONTINUOUS
 62
             100
  5
A0
 10
79.999979443836821
 20
-55.949972894936579
 30
0.0
 11
79.199979659833105
 21
-56.749972678940281
 31
0.0
  0
LINE
  8
LY_3
  6
CONTINUOUS
 62
             100
  5
A1
 10
79.199993483999435
 20
56.749992967663417
 30
0.0
 11
79.999987873206521
 21
55.949998578456302
 31
0.0
  0
LINE
  8
LY_3
  6
CONTINUOUS
 62
             100
  5
A2
 10
79.199996948242187
 20
56.75
 30
0.0
 11
63.300003051757813
 21
56.75
 31
0.0
  0
LINE
  8
LY_3
  6
CONTINUOUS
 62
             100
  5
A3
 10
79.199996948242187
 20
-56.75
 30
0.0
 11
63.299995422363281
 21
-56.75
 31
0.0
  0
ENDSEC
  0
EOF
