  0
SECTION
  2
HEADER
  9
$ACADVER
  1
AC1009
  9
$DWGCODEPAGE
  3
dos932
  9
$INSBASE
 10
0.0
 20
0.0
 30
0.0
  9
$EXTMIN
 10
-10.498188231226173
 20
-126.60000073396344
 30
0.0
  9
$EXTMAX
 10
111.12071594980048
 20
126.59999847412109
 30
0.0
  9
$LIMMIN
 10
-10.498188231226173
 20
-126.60000073396344
  9
$LIMMAX
 10
111.12071594980048
 20
126.59999847412109
  9
$ORTHOMODE
 70
               0
  9
$REGENMODE
 70
               1
  9
$FILLMODE
 70
               1
  9
$QTEXTMODE
 70
               0
  9
$MIRRTEXT
 70
               1
  9
$DRAGMODE
 70
               2
  9
$LTSCALE
 40
1.0
  9
$OSMODE
 70
               0
  9
$ATTMODE
 70
               1
  9
$TEXTSIZE
 40
3.2000000476837158
  9
$TRACEWID
 40
0.05
  9
$TEXTSTYLE
  7
MX_NOTE_STANDARD
  9
$CLAYER
  8
LY_3
  9
$CELTYPE
  6
CONTINUOUS
  9
$CECOLOR
 62
             256
  9
$DIMSCALE
 40
1.0
  9
$DIMASZ
 40
2.5
  9
$DIMEXO
 40
2.0
  9
$DIMDLI
 40
3.75
  9
$DIMRND
 40
0.0
  9
$DIMDLE
 40
0.0
  9
$DIMEXE
 40
1.0
  9
$DIMTP
 40
0.0
  9
$DIMTM
 40
0.0
  9
$DIMTXT
 40
4.1655998229980469
  9
$DIMCEN
 40
2.5
  9
$DIMTSZ
 40
0.0
  9
$DIMTOL
 70
               0
  9
$DIMLIM
 70
               0
  9
$DIMTIH
 70
               0
  9
$DIMTOH
 70
               0
  9
$DIMSE1
 70
               0
  9
$DIMSE2
 70
               0
  9
$DIMTAD
 70
               1
  9
$DIMZIN
 70
               8
  9
$DIMBLK
  1

  9
$DIMASO
 70
               1
  9
$DIMSHO
 70
               1
  9
$DIMPOST
  1

  9
$DIMAPOST
  1

  9
$DIMALT
 70
               0
  9
$DIMALTD
 70
               4
  9
$DIMALTF
 40
0.03937007874016
  9
$DIMLFAC
 40
1.0
  9
$DIMTOFL
 70
               1
  9
$DIMTVP
 40
0.0
  9
$DIMTIX
 70
               0
  9
$DIMSOXD
 70
               0
  9
$DIMSAH
 70
               1
  9
$DIMBLK1
  1
_OPEN30
  9
$DIMBLK2
  1
_OPEN30
  9
$DIMSTYLE
  2
MXDIMSTYLE
  9
$DIMCLRD
 70
               0
  9
$DIMCLRE
 70
               0
  9
$DIMCLRT
 70
               0
  9
$DIMTFAC
 40
1.0
  9
$DIMGAP
 40
1.0
  9
$LUNITS
 70
               2
  9
$LUPREC
 70
               4
  9
$AXISMODE
 70
               0
  9
$AXISUNIT
 10
0.0
 20
0.0
  9
$SKETCHINC
 40
0.1
  9
$FILLETRAD
 40
0.0
  9
$AUNITS
 70
               0
  9
$AUPREC
 70
               0
  9
$MENU
  1
acad
  9
$ELEVATION
 40
0.0
  9
$PELEVATION
 40
0.0
  9
$THICKNESS
 40
0.0
  9
$LIMCHECK
 70
               0
  9
$BLIPMODE
 70
               1
  9
$CHAMFERA
 40
0.0
  9
$CHAMFERB
 40
0.0
  9
$SKPOLY
 70
               0
  9
$TDCREATE
 40
2455163.518842592
  9
$TDUPDATE
 40
2455163.518842592
  9
$TDINDWG
 40
0.0000000000
  9
$TDUSRTIMER
 40
0.0000000000
  9
$USRTIMER
 70
               1
  9
$ANGBASE
 50
0.0
  9
$ANGDIR
 70
               0
  9
$PDMODE
 70
               0
  9
$PDSIZE
 40
0.0
  9
$PLINEWID
 40
0.0
  9
$COORDS
 70
               1
  9
$SPLFRAME
 70
               0
  9
$SPLINETYPE
 70
               6
  9
$SPLINESEGS
 70
               8
  9
$ATTDIA
 70
               0
  9
$ATTREQ
 70
               1
  9
$HANDLING
 70
               1
  9
$HANDSEED
  5
A4
  9
$SURFTAB1
 70
               6
  9
$SURFTAB2
 70
               6
  9
$SURFTYPE
 70
               6
  9
$SURFU
 70
               6
  9
$SURFV
 70
               6
  9
$UCSNAME
  2

  9
$UCSORG
 10
0.0
 20
0.0
 30
0.0
  9
$UCSXDIR
 10
1.0
 20
0.0
 30
0.0
  9
$UCSYDIR
 10
0.0
 20
1.0
 30
0.0
  9
$PUCSNAME
  2

  9
$PUCSORG
 10
0.0
 20
0.0
 30
0.0
  9
$PUCSXDIR
 10
1.0
 20
0.0
 30
0.0
  9
$PUCSYDIR
 10
0.0
 20
1.0
 30
0.0
  9
$USERI1
 70
               0
  9
$USERI2
 70
               0
  9
$USERI3
 70
               0
  9
$USERI4
 70
               0
  9
$USERI5
 70
               0
  9
$USERR1
 40
0.0
  9
$USERR2
 40
0.0
  9
$USERR3
 40
0.0
  9
$USERR4
 40
0.0
  9
$USERR5
 40
0.0
  9
$WORLDVIEW
 70
               1
  9
$SHADEDGE
 70
               3
  9
$SHADEDIF
 70
              70
  9
$TILEMODE
 70
               1
  9
$MAXACTVP
 70
              16
  9
$PINSBASE
 10
0.0
 20
0.0
 30
0.0
  9
$PLIMCHECK
 70
               0
  9
$PEXTMIN
 10
1.0000000000000000E+20
 20
1.0000000000000000E+20
 30
1.0000000000000000E+20
  9
$PEXTMAX
 10
-1.0000000000000000E+20
 20
-1.0000000000000000E+20
 30
-1.0000000000000000E+20
  9
$PLIMMIN
 10
0.0
 20
0.0
  9
$PLIMMAX
 10
12.0
 20
9.0
  9
$UNITMODE
 70
               0
  9
$VISRETAIN
 70
               0
  9
$PLINEGEN
 70
               1
  9
$PSLTSCALE
 70
               0
  9
$TREEDEPTH
 70
            3020
  0
ENDSEC
  0
SECTION
  2
TABLES
  0
TABLE
  2
VPORT
 70
               1
  0
VPORT
  2
*ACTIVE
 70
               0
 10
0.0
 20
0.0
 11
1.0
 21
1.0
 12
50.311263859287159
 22
-0.0000011299211735
 13
0.0
 23
0.0
 14
1.0
 24
1.0
 15
0.0
 25
0.0
 16
0.0
 26
0.0
 36
1.0
 17
0.0
 27
0.0
 37
0.0
 40
255.73199920016538
 41
1.7320508075688772
 42
50.0
 43
0.0
 44
0.0
 50
0.0
 51
0.0
 71
               0
 72
             100
 73
               1
 74
               1
 75
               0
 76
               0
 77
               0
 78
               0
  0
ENDTAB
  0
TABLE
  2
LTYPE
 70
               3
  0
LTYPE
  2
CONTINUOUS
 70
              64
  3
Solid line
 72
              65
 73
               0
 40
0.0
  0
LTYPE
  2
CENTER
 70
              64
  3
Center ____ _ ____ _ ____ _ ____ _ ____ _ ____
 72
              65
 73
               4
 40
50.800000000000004
 49
31.75
 49
-6.3499999999999996
 49
6.3499999999999996
 49
-6.3499999999999996
  0
LTYPE
  2
PHANTOM
 70
              64
  3
Phantom ______  __  __  ______  __  __  ______
 72
              65
 73
               6
 40
63.500000000000007
 49
31.75
 49
-6.3499999999999996
 49
6.3499999999999996
 49
-6.3499999999999996
 49
6.3499999999999996
 49
-6.3499999999999996
  0
ENDTAB
  0
TABLE
  2
LAYER
 70
               3
  0
LAYER
  2
0
 70
               0
 62
               7
  6
CONTINUOUS
  0
LAYER
  2
DEFPOINTS
 70
               0
 62
               7
  6
CONTINUOUS
  0
LAYER
  2
LY_3
 70
               0
 62
               7
  6
CONTINUOUS
  0
ENDTAB
  0
TABLE
  2
STYLE
 70
               1
  0
STYLE
  2
MX_NOTE_STANDARD
 70
               0
 40
0.0
 41
1.0
 50
0.0
 71
               0
 42
3.2000000476837158
  3
txt.shx
  4
extfont.shx
  0
ENDTAB
  0
TABLE
  2
VIEW
 70
               0
  0
ENDTAB
  0
TABLE
  2
UCS
 70
               0
  0
ENDTAB
  0
TABLE
  2
APPID
 70
               1
  0
APPID
  2
ACAD
 70
               0
  0
ENDTAB
  0
TABLE
  2
DIMSTYLE
 70
               1
  0
DIMSTYLE
  2
MXDIMSTYLE
 70
               0
  3

  4

  5

  6
_OPEN30
  7
_OPEN30
 40
1.0
 41
2.5
 42
2.0
 43
3.75
 44
1.0
 45
0.0
 46
0.0
 47
0.0
 48
0.0
 71
               0
 72
               0
 73
               0
 74
               0
 75
               0
 76
               0
 77
               1
 78
               8
140
4.1655998229980469
141
2.5
142
0.0
143
0.03937007874016
144
1.0
145
0.0
146
1.0
147
1.0
170
               0
171
               4
172
               1
173
               1
174
               0
175
               0
176
               0
177
               0
178
               0
  0
ENDTAB
  0
ENDSEC
  0
SECTION
  2
BLOCKS
  0
BLOCK
  8
0
  6
BYBLOCK
 62
               0
  5
20
  2
_OPEN30
 70
               2
 10
0.0
 20
0.0
 30
0.0
  3
_OPEN30
  0
LINE
  8
0
  6
BYBLOCK
 62
               0
  5
21
 10
-1.0
 20
0.267949
 30
0.0
 11
0.0
 21
0.0
 31
0.0
  0
LINE
  8
0
  6
BYBLOCK
 62
               0
  5
22
 10
0.0
 20
0.0
 30
0.0
 11
-1.0
 21
-0.267949
 31
0.0
  0
LINE
  8
0
  6
BYBLOCK
 62
               0
  5
23
 10
0.0
 20
0.0
 30
0.0
 11
-1.0
 21
0.0
 31
0.0
  0
ENDBLK
  8
0
  6
BYBLOCK
 62
               0
  5
24
  0
ENDSEC
  0
SECTION
  2
ENTITIES
  0
ARC
  8
LY_3
  6
CONTINUOUS
 62
               3
  5
25
 10
1.2065784931175187
 20
-110.90000152587891
 30
0.0
 40
0.25
 50
270.00001798608895
 51
19.999483738903098
  0
ARC
  8
LY_3
  6
CONTINUOUS
 62
               3
  5
26
 10
0.7385394573203996
 20
-108.59075164794922
 30
0.0
 40
0.1000000014901161
 50
94.999861713744508
 51
200.00081061683574
  0
ARC
  8
LY_3
  6
CONTINUOUS
 62
               3
  5
27
 10
0.7385394573219344
 20
108.59075164794922
 30
0.0
 40
0.1000000014901161
 50
159.9992066860091
 51
265.00014192872197
  0
ARC
  8
LY_3
  6
CONTINUOUS
 62
               3
  5
28
 10
1.2065784931190535
 20
110.90000152587891
 30
0.0
 40
0.25
 50
340.0005162610961
 51
89.999982013910255
  0
ARC
  8
LY_3
  6
CONTINUOUS
 62
               3
  5
29
 10
99.793421506880946
 20
110.90000152587891
 30
0.0
 40
0.25
 50
90.000017986090157
 51
199.99948373890433
  0
ARC
  8
LY_3
  6
CONTINUOUS
 62
               3
  5
2A
 10
100.26146054267809
 20
108.59075164794922
 30
0.0
 40
0.1000000014901161
 50
274.99985807127842
 51
20.000793313991313
  0
ARC
  8
LY_3
  6
CONTINUOUS
 62
               3
  5
2B
 10
99.793421506882481
 20
-110.90000152587891
 30
0.0
 40
0.25
 50
160.00051626109735
 51
269.99998201391145
  0
ARC
  8
LY_3
  6
CONTINUOUS
 62
               3
  5
2C
 10
100.26146054267963
 20
-108.59075164794922
 30
0.0
 40
0.1000000014901161
 50
339.99918938316466
 51
85.000138286255918
  0
LINE
  8
LY_3
  6
CONTINUOUS
 62
               3
  5
2D
 10
71.500000000000028
 20
-99.400000000000006
 30
0.0
 11
68.499999780384684
 21
-102.40000000000001
 31
0.0
  0
LINE
  8
LY_3
  6
CONTINUOUS
 62
               3
  5
2E
 10
32.499999999999972
 20
-102.40000000000003
 30
0.0
 11
29.499999999999975
 21
-99.39999978038469
 31
0.0
  0
LINE
  8
LY_3
  6
CONTINUOUS
 62
               3
  5
2F
 10
71.500000000000028
 20
99.400000000000006
 30
0.0
 11
68.499999780384684
 21
102.40000000000001
 31
0.0
  0
LINE
  8
LY_3
  6
CONTINUOUS
 62
               3
  5
30
 10
32.499999999999986
 20
102.40000000000003
 30
0.0
 11
29.499999999999986
 21
99.39999978038469
 31
0.0
  0
LINE
  8
LY_3
  6
CONTINUOUS
 62
               3
  5
31
 10
29.499999999999975
 20
-99.399999780384675
 30
0.0
 11
29.499999999999975
 21
99.399999780384661
 31
0.0
  0
LINE
  8
LY_3
  6
CONTINUOUS
 62
               3
  5
32
 10
71.500000000000028
 20
-99.400000000000006
 30
0.0
 11
71.500000000000028
 21
99.400000000000006
 31
0.0
  0
LINE
  8
LY_3
  6
CONTINUOUS
 62
               3
  5
33
 10
73.500000000000014
 20
101.75
 30
0.0
 11
73.500000000000014
 21
104.39999999999998
 31
0.0
  0
LINE
  8
LY_3
  6
CONTINUOUS
 62
               3
  5
34
 10
71.100000000000051
 20
104.39999999999998
 30
0.0
 11
73.500000000000014
 21
104.39999999999998
 31
0.0
  0
LINE
  8
LY_3
  6
CONTINUOUS
 62
               3
  5
35
 10
70.100000000000023
 20
103.39999999999998
 30
0.0
 11
71.100000000000023
 21
104.39999999999995
 31
0.0
  0
LINE
  8
LY_3
  6
CONTINUOUS
 62
               3
  5
36
 10
68.500000000000028
 20
104.39999999999998
 30
0.0
 11
69.100000000000023
 21
104.39999999999998
 31
0.0
  0
LINE
  8
LY_3
  6
CONTINUOUS
 62
               3
  5
37
 10
70.099999999999994
 20
103.39999999999998
 30
0.0
 11
69.100000000000023
 21
104.39999999999995
 31
0.0
  0
LINE
  8
LY_3
  6
CONTINUOUS
 62
               3
  5
38
 10
73.500000000000014
 20
-101.75
 30
0.0
 11
73.500000000000014
 21
-104.39999999999999
 31
0.0
  0
LINE
  8
LY_3
  6
CONTINUOUS
 62
               3
  5
39
 10
71.100000000000051
 20
-104.39999999999999
 30
0.0
 11
73.500000000000014
 21
-104.39999999999999
 31
0.0
  0
LINE
  8
LY_3
  6
CONTINUOUS
 62
               3
  5
3A
 10
70.100000000000023
 20
-103.39999999999995
 30
0.0
 11
71.100000000000009
 21
-104.39999999999995
 31
0.0
  0
LINE
  8
LY_3
  6
CONTINUOUS
 62
               3
  5
3B
 10
70.099999999999994
 20
-103.39999999999999
 30
0.0
 11
69.100000000000009
 21
-104.39999999999998
 31
0.0
  0
LINE
  8
LY_3
  6
CONTINUOUS
 62
               3
  5
3C
 10
68.500000000000028
 20
-104.39999999999999
 30
0.0
 11
69.100000000000023
 21
-104.39999999999999
 31
0.0
  0
LINE
  8
LY_3
  6
CONTINUOUS
 62
               3
  5
3D
 10
29.899999999999952
 20
-104.39999999999999
 30
0.0
 11
27.499999999999975
 21
-104.39999999999999
 31
0.0
  0
LINE
  8
LY_3
  6
CONTINUOUS
 62
               3
  5
3E
 10
27.499999999999975
 20
-101.75
 30
0.0
 11
27.499999999999975
 21
-104.39999999999999
 31
0.0
  0
LINE
  8
LY_3
  6
CONTINUOUS
 62
               3
  5
3F
 10
30.89999999999997
 20
-103.39999999999996
 30
0.0
 11
29.899999999999977
 21
-104.39999999999995
 31
0.0
  0
LINE
  8
LY_3
  6
CONTINUOUS
 62
               3
  5
40
 10
32.499999999999972
 20
-104.39999999999999
 30
0.0
 11
31.899999999999981
 21
-104.39999999999999
 31
0.0
  0
LINE
  8
LY_3
  6
CONTINUOUS
 62
               3
  5
41
 10
30.899999999999991
 20
-103.40000000000001
 30
0.0
 11
31.899999999999977
 21
-104.39999999999999
 31
0.0
  0
LINE
  8
LY_3
  6
CONTINUOUS
 62
               3
  5
42
 10
27.499999999999975
 20
-101.75
 30
0.0
 11
12.699999999999982
 21
-101.75
 31
0.0
  0
LINE
  8
LY_3
  6
CONTINUOUS
 62
               3
  5
43
 10
32.499999999999972
 20
104.39999999999998
 30
0.0
 11
31.899999999999981
 21
104.39999999999998
 31
0.0
  0
LINE
  8
LY_3
  6
CONTINUOUS
 62
               3
  5
44
 10
30.899999999999991
 20
103.40000000000001
 30
0.0
 11
31.899999999999977
 21
104.39999999999998
 31
0.0
  0
LINE
  8
LY_3
  6
CONTINUOUS
 62
               3
  5
45
 10
30.899999999999981
 20
103.39999999999998
 30
0.0
 11
29.899999999999974
 21
104.39999999999995
 31
0.0
  0
LINE
  8
LY_3
  6
CONTINUOUS
 62
               3
  5
46
 10
29.899999999999952
 20
104.39999999999998
 30
0.0
 11
27.499999999999975
 21
104.39999999999998
 31
0.0
  0
LINE
  8
LY_3
  6
CONTINUOUS
 62
               3
  5
47
 10
27.499999999999975
 20
101.75
 30
0.0
 11
27.499999999999975
 21
104.39999999999998
 31
0.0
  0
LINE
  8
LY_3
  6
CONTINUOUS
 62
               3
  5
48
 10
76.399999618530288
 20
-101.75
 30
0.0
 11
76.399999618530288
 21
-125.59999847412091
 31
0.0
  0
LINE
  8
LY_3
  6
CONTINUOUS
 62
               3
  5
49
 10
73.500000000000014
 20
-101.75
 30
0.0
 11
88.300000000000011
 21
-101.75
 31
0.0
  0
LINE
  8
LY_3
  6
CONTINUOUS
 62
               3
  5
4A
 10
76.399999618530288
 20
101.75
 30
0.0
 11
76.399999618530288
 21
125.59999847412092
 31
0.0
  0
LINE
  8
LY_3
  6
CONTINUOUS
 62
               3
  5
4B
 10
73.500000000000014
 20
101.75
 30
0.0
 11
88.300000000000011
 21
101.75
 31
0.0
  0
LINE
  8
LY_3
  6
CONTINUOUS
 62
               3
  5
4C
 10
24.600000381469712
 20
-101.75
 30
0.0
 11
24.600000381469712
 21
-125.59999847412091
 31
0.0
  0
LINE
  8
LY_3
  6
CONTINUOUS
 62
               3
  5
4D
 10
27.499999999999975
 20
101.75
 30
0.0
 11
12.699999999999982
 21
101.75
 31
0.0
  0
LINE
  8
LY_3
  6
CONTINUOUS
 62
               3
  5
4E
 10
24.600000381469712
 20
101.75
 30
0.0
 11
24.600000381469712
 21
125.59999847412092
 31
0.0
  0
LINE
  8
LY_3
  6
CONTINUOUS
 62
               3
  5
4F
 10
12.699999999999982
 20
-98.499999999999986
 30
0.0
 11
29.499999999999975
 21
-98.499999999999986
 31
0.0
  0
LINE
  8
LY_3
  6
CONTINUOUS
 62
               3
  5
50
 10
12.699999999999982
 20
98.5
 30
0.0
 11
29.499999999999975
 21
98.5
 31
0.0
  0
LINE
  8
LY_3
  6
CONTINUOUS
 62
               3
  5
51
 10
-0.0000000000008527
 20
120.19999694824219
 30
0.0
 11
24.600000381468881
 21
120.19999694824219
 31
0.0
  0
LINE
  8
LY_3
  6
CONTINUOUS
 62
               3
  5
52
 10
-0.0000000000007674
 20
111.69999694824219
 30
0.0
 11
24.600000381468924
 21
111.69999694824219
 31
0.0
  0
LINE
  8
LY_3
  6
CONTINUOUS
 62
               3
  5
53
 10
12.700000000000706
 20
101.84999999999999
 30
0.0
 11
24.600000381470437
 21
101.84999999999999
 31
0.0
  0
LINE
  8
LY_3
  6
CONTINUOUS
 62
               3
  5
54
 10
11.200000000000706
 20
99.899999999999977
 30
0.0
 11
12.700000000000706
 21
99.899999999999977
 31
0.0
  0
LINE
  8
LY_3
  6
CONTINUOUS
 62
               3
  5
55
 10
1.2000000476844335
 20
101.84999847412109
 30
0.0
 11
11.200000000000706
 21
101.84999847412109
 31
0.0
  0
LINE
  8
LY_3
  6
CONTINUOUS
 62
               3
  5
56
 10
11.199999999999299
 20
-99.899999999999991
 30
0.0
 11
12.699999999999299
 21
-99.899999999999991
 31
0.0
  0
LINE
  8
LY_3
  6
CONTINUOUS
 62
               3
  5
57
 10
11.199999999999982
 20
-101.84999847412118
 30
0.0
 11
11.199999999999982
 21
101.84999847412101
 31
0.0
  0
LINE
  8
LY_3
  6
CONTINUOUS
 62
               3
  5
58
 10
12.699999999999982
 20
-101.85000000000008
 30
0.0
 11
12.699999999999982
 21
101.84999999999991
 31
0.0
  0
LINE
  8
LY_3
  6
CONTINUOUS
 62
               3
  5
59
 10
12.699999999999278
 20
-101.84999999999999
 30
0.0
 11
24.600000381469009
 21
-101.84999999999999
 31
0.0
  0
LINE
  8
LY_3
  6
CONTINUOUS
 62
               3
  5
5A
 10
0.6445736257973849
 20
108.62495474087191
 30
0.0
 11
1.4415020864552162
 21
110.81449761304606
 31
0.0
  0
LINE
  8
LY_3
  6
CONTINUOUS
 62
               3
  5
5B
 10
0.7298246303970117
 20
108.49113980487371
 30
0.0
 11
1.200000148458912
 21
108.45000478081241
 31
0.0
  0
LINE
  8
LY_3
  6
CONTINUOUS
 62
               3
  5
5C
 10
0.6445736257959709
 20
-108.62495474087189
 30
0.0
 11
1.4415020864537738
 21
-110.81449761304607
 31
0.0
  0
LINE
  8
LY_3
  6
CONTINUOUS
 62
               3
  5
5D
 10
0.7298246303954556
 20
-108.4911398048738
 30
0.0
 11
1.2000001484573559
 21
-108.45000478081251
 31
0.0
  0
LINE
  8
LY_3
  6
CONTINUOUS
 62
               3
  5
5E
 10
1.2000000476837087
 20
-108.44999694824219
 30
0.0
 11
1.2000000476837087
 21
108.44999694824219
 31
0.0
  0
LINE
  8
LY_3
  6
CONTINUOUS
 62
               3
  5
5F
 10
0.6000000238418437
 20
-108.50249481201172
 30
0.0
 11
0.6000000238418437
 21
108.50248718261719
 31
0.0
  0
LINE
  8
LY_3
  6
CONTINUOUS
 62
               3
  5
60
 10
1.2000000476830053
 20
-101.84999847412109
 30
0.0
 11
11.199999999999278
 21
-101.84999847412109
 31
0.0
  0
LINE
  8
LY_3
  6
CONTINUOUS
 62
               3
  5
61
 10
0.0000000000007674
 20
111.15000152587891
 30
0.0
 11
1.2065784931190535
 21
111.15000152587891
 31
0.0
  0
LINE
  8
LY_3
  6
CONTINUOUS
 62
               3
  5
62
 10
-0.0000000000007674
 20
-111.15000152587889
 30
0.0
 11
1.2065784931175187
 21
-111.15000152587889
 31
0.0
  0
LINE
  8
LY_3
  6
CONTINUOUS
 62
               3
  5
63
 10
24.600005968452216
 20
125.59998643712908
 30
0.0
 11
23.600005816980552
 21
126.59998844306412
 31
0.0
  0
LINE
  8
LY_3
  6
CONTINUOUS
 62
               3
  5
64
 10
1.0000010787044076
 20
126.59999414126969
 30
0.0
 11
0.0000000000006324
 21
125.59999306256591
 31
0.0
  0
LINE
  8
LY_3
  6
CONTINUOUS
 62
               3
  5
65
 10
23.600001745755979
 20
-126.60000073396344
 30
0.0
 11
24.59999898908513
 21
-125.59999581989979
 31
0.0
  0
LINE
  8
LY_3
  6
CONTINUOUS
 62
               3
  5
66
 10
1.0000010787026454
 20
-126.59999414126958
 30
0.0
 11
-0.0000000000011298
 21
-125.59999306256577
 31
0.0
  0
LINE
  8
LY_3
  6
CENTER
 62
             110
  5
68
 10
-3.8499999046333571
 20
-115.94999694824217
 30
0.0
 11
28.849999237059752
 21
-115.94999694824217
 31
0.0
  0
LINE
  8
LY_3
  6
CENTER
 62
             110
  5
69
 10
-3.8499999046317654
 20
115.94999694824219
 30
0.0
 11
28.849999237061347
 21
115.94999694824219
 31
0.0
  0
LINE
  8
LY_3
  6
CONTINUOUS
 62
               3
  5
6A
 10
1.0000000000008811
 20
126.59999847412109
 30
0.0
 11
23.600002288819248
 21
126.59999847412109
 31
0.0
  0
LINE
  8
LY_3
  6
CONTINUOUS
 62
               3
  5
6B
 10
1.0000032186499439
 20
-126.59999847412109
 30
0.0
 11
23.600000381468853
 21
-126.59999847412109
 31
0.0
  0
LINE
  8
LY_3
  6
CONTINUOUS
 62
               3
  5
6C
 10
0.0
 20
-125.59999847412108
 30
0.0
 11
0.0
 21
125.59999847412109
 31
0.0
  0
LINE
  8
LY_3
  6
CENTER
 62
             110
  5
6D
 10
-10.498188231226173
 20
0.0
 30
0.0
 11
111.12071594980048
 21
0.0
 31
0.0
  0
LINE
  8
LY_3
  6
CONTINUOUS
 62
             100
  5
6E
 10
63.499999999999986
 20
-102.5
 30
0.0
 11
63.499999999999986
 21
-105.0
 31
0.0
  0
LINE
  8
LY_3
  6
CONTINUOUS
 62
             100
  5
6F
 10
65.999992567092022
 20
-99.999989897376253
 30
0.0
 11
63.499989870332556
 21
-102.49999259413573
 31
0.0
  0
LINE
  8
LY_3
  6
CONTINUOUS
 62
             100
  5
70
 10
65.999999999999986
 20
-100.0
 30
0.0
 11
65.999999999999986
 21
-80.0
 31
0.0
  0
LINE
  8
LY_3
  6
CONTINUOUS
 62
             100
  5
71
 10
68.500014562088893
 20
-102.49998856867103
 30
0.0
 11
66.000011865329412
 21
-99.999985871911548
 31
0.0
  0
LINE
  8
LY_3
  6
CONTINUOUS
 62
             100
  5
72
 10
63.499999999999986
 20
102.5
 30
0.0
 11
63.499999999999986
 21
105.0
 31
0.0
  0
LINE
  8
LY_3
  6
CONTINUOUS
 62
             100
  5
73
 10
65.999981785102676
 20
99.999978601958674
 30
0.0
 11
63.499979088343203
 21
102.49998129871815
 31
0.0
  0
LINE
  8
LY_3
  6
CONTINUOUS
 62
             100
  5
74
 10
65.999999999999986
 20
100.0
 30
0.0
 11
65.999999999999986
 21
80.0
 31
0.0
  0
LINE
  8
LY_3
  6
CONTINUOUS
 62
             100
  5
75
 10
68.500025344078324
 20
102.49997727325345
 30
0.0
 11
66.000022647318843
 21
99.999974576493969
 31
0.0
  0
LINE
  8
LY_3
  6
CONTINUOUS
 62
             100
  5
76
 10
37.499999999999986
 20
-102.5
 30
0.0
 11
37.499999999999986
 21
-105.0
 31
0.0
  0
LINE
  8
LY_3
  6
CONTINUOUS
 62
             100
  5
77
 10
35.000012338559259
 20
-99.999980523701538
 30
0.0
 11
37.500015035318725
 21
-102.49998322046102
 31
0.0
  0
LINE
  8
LY_3
  6
CONTINUOUS
 62
             100
  5
78
 10
34.999999999999986
 20
-100.0
 30
0.0
 11
34.999999999999986
 21
-80.0
 31
0.0
  0
LINE
  8
LY_3
  6
CONTINUOUS
 62
             100
  5
79
 10
32.500001858610418
 20
-102.49999327300391
 30
0.0
 11
34.999993765776672
 21
-100.00000136583765
 31
0.0
  0
LINE
  8
LY_3
  6
CONTINUOUS
 62
             100
  5
7A
 10
34.999999999999986
 20
100.0
 30
0.0
 11
34.999999999999986
 21
80.0
 31
0.0
  0
LINE
  8
LY_3
  6
CONTINUOUS
 62
             100
  5
7B
 10
37.499999999999986
 20
102.5
 30
0.0
 11
37.499999999999986
 21
105.0
 31
0.0
  0
LINE
  8
LY_3
  6
CONTINUOUS
 62
             100
  5
7C
 10
35.000023120548661
 20
99.999969228283987
 30
0.0
 11
37.500025817308142
 21
102.49997192504347
 31
0.0
  0
LINE
  8
LY_3
  6
CONTINUOUS
 62
             100
  5
7D
 10
32.499991076621022
 20
102.4999819775864
 30
0.0
 11
34.999982983787255
 21
99.999990070420154
 31
0.0
  0
LINE
  8
LY_3
  6
PHANTOM
 62
             110
  5
7F
 10
37.499999999999986
 20
-105.0
 30
0.0
 11
63.499999999999986
 21
-105.0
 31
0.0
  0
LINE
  8
LY_3
  6
PHANTOM
 62
             110
  5
80
 10
37.499999999999986
 20
105.0
 30
0.0
 11
63.499999999999986
 21
105.0
 31
0.0
  0
LINE
  8
LY_3
  6
PHANTOM
 62
             110
  5
81
 10
34.999999999999986
 20
-80.0
 30
0.0
 11
65.999999999999972
 21
-80.0
 31
0.0
  0
LINE
  8
LY_3
  6
PHANTOM
 62
             110
  5
82
 10
34.999999999999986
 20
80.0
 30
0.0
 11
65.999999999999972
 21
80.0
 31
0.0
  0
LINE
  8
LY_3
  6
CONTINUOUS
 62
               3
  5
83
 10
88.300000000000011
 20
-98.499999999999986
 30
0.0
 11
71.500000000000028
 21
-98.499999999999986
 31
0.0
  0
LINE
  8
LY_3
  6
CONTINUOUS
 62
               3
  5
84
 10
88.300000000000011
 20
98.5
 30
0.0
 11
71.500000000000028
 21
98.5
 31
0.0
  0
LINE
  8
LY_3
  6
CONTINUOUS
 62
               3
  5
85
 10
68.500000000000028
 20
-104.39999999999999
 30
0.0
 11
68.500000000000028
 21
104.39999999999998
 31
0.0
  0
LINE
  8
LY_3
  6
CONTINUOUS
 62
               3
  5
86
 10
32.499999999999972
 20
-104.39999999999999
 30
0.0
 11
32.499999999999972
 21
104.39999999999998
 31
0.0
  0
LINE
  8
LY_3
  6
CONTINUOUS
 62
               3
  5
87
 10
101.00000000000085
 20
120.19999694824219
 30
0.0
 11
76.399999618531126
 21
120.19999694824219
 31
0.0
  0
LINE
  8
LY_3
  6
CONTINUOUS
 62
               3
  5
88
 10
101.00000000000077
 20
111.69999694824219
 30
0.0
 11
76.399999618531069
 21
111.69999694824219
 31
0.0
  0
LINE
  8
LY_3
  6
CONTINUOUS
 62
               3
  5
89
 10
88.299999999999301
 20
101.84999999999999
 30
0.0
 11
76.399999618529563
 21
101.84999999999999
 31
0.0
  0
LINE
  8
LY_3
  6
CONTINUOUS
 62
               3
  5
8A
 10
89.799999999999301
 20
99.899999999999977
 30
0.0
 11
88.299999999999301
 21
99.899999999999977
 31
0.0
  0
LINE
  8
LY_3
  6
CONTINUOUS
 62
               3
  5
8B
 10
99.799999952315574
 20
101.84999847412109
 30
0.0
 11
89.799999999999301
 21
101.84999847412109
 31
0.0
  0
LINE
  8
LY_3
  6
CONTINUOUS
 62
               3
  5
8C
 10
89.800000000000693
 20
-99.899999999999991
 30
0.0
 11
88.300000000000693
 21
-99.899999999999991
 31
0.0
  0
LINE
  8
LY_3
  6
CONTINUOUS
 62
               3
  5
8D
 10
89.800000000000011
 20
-101.84999847412118
 30
0.0
 11
89.800000000000011
 21
101.84999847412101
 31
0.0
  0
LINE
  8
LY_3
  6
CONTINUOUS
 62
               3
  5
8E
 10
88.300000000000011
 20
-101.85000000000008
 30
0.0
 11
88.300000000000011
 21
101.84999999999991
 31
0.0
  0
LINE
  8
LY_3
  6
CONTINUOUS
 62
               3
  5
8F
 10
88.300000000000722
 20
-101.84999999999999
 30
0.0
 11
76.399999618530984
 21
-101.84999999999999
 31
0.0
  0
LINE
  8
LY_3
  6
CONTINUOUS
 62
               3
  5
90
 10
100.35542637420258
 20
108.62495474087191
 30
0.0
 11
99.558497913544755
 21
110.81449761304606
 31
0.0
  0
LINE
  8
LY_3
  6
CONTINUOUS
 62
               3
  5
91
 10
100.27017536960301
 20
108.49113980487382
 30
0.0
 11
99.799999851541088
 21
108.45000478081252
 31
0.0
  0
LINE
  8
LY_3
  6
CONTINUOUS
 62
               3
  5
92
 10
100.35542637420403
 20
-108.62495474087189
 30
0.0
 11
99.558497913546205
 21
-110.81449761304607
 31
0.0
  0
LINE
  8
LY_3
  6
CONTINUOUS
 62
               3
  5
93
 10
100.27017536960457
 20
-108.4911398048738
 30
0.0
 11
99.799999851542651
 21
-108.45000478081251
 31
0.0
  0
LINE
  8
LY_3
  6
CONTINUOUS
 62
               3
  5
94
 10
99.799999952316284
 20
-108.44999694824219
 30
0.0
 11
99.799999952316284
 21
108.44999694824219
 31
0.0
  0
LINE
  8
LY_3
  6
CONTINUOUS
 62
               3
  5
95
 10
100.39999997615817
 20
-108.50249481201172
 30
0.0
 11
100.39999997615817
 21
108.50248718261719
 31
0.0
  0
LINE
  8
LY_3
  6
CONTINUOUS
 62
               3
  5
96
 10
99.799999952316995
 20
-101.84999847412109
 30
0.0
 11
89.800000000000722
 21
-101.84999847412109
 31
0.0
  0
LINE
  8
LY_3
  6
CONTINUOUS
 62
               3
  5
97
 10
100.99999999999923
 20
111.15000152587891
 30
0.0
 11
99.793421506880946
 21
111.15000152587891
 31
0.0
  0
LINE
  8
LY_3
  6
CONTINUOUS
 62
               3
  5
98
 10
101.00000000000077
 20
-111.15000152587889
 30
0.0
 11
99.793421506882481
 21
-111.15000152587889
 31
0.0
  0
LINE
  8
LY_3
  6
CONTINUOUS
 62
               3
  5
99
 10
76.399994031547777
 20
125.59998643712908
 30
0.0
 11
77.399994183019459
 21
126.59998844306412
 31
0.0
  0
LINE
  8
LY_3
  6
CONTINUOUS
 62
               3
  5
9A
 10
99.999998921295628
 20
126.59999414126975
 30
0.0
 11
100.99999999999943
 21
125.59999306256597
 31
0.0
  0
LINE
  8
LY_3
  6
CONTINUOUS
 62
               3
  5
9B
 10
77.399998254244025
 20
-126.60000073396344
 30
0.0
 11
76.400001010914849
 21
-125.59999581989976
 31
0.0
  0
LINE
  8
LY_3
  6
CONTINUOUS
 62
               3
  5
9C
 10
99.999998921297362
 20
-126.5999941412696
 30
0.0
 11
101.00000000000114
 21
-125.5999930625658
 31
0.0
  0
LINE
  8
LY_3
  6
CENTER
 62
             110
  5
9D
 10
104.84999990463336
 20
-115.94999694824217
 30
0.0
 11
72.150000762940238
 21
-115.94999694824217
 31
0.0
  0
LINE
  8
LY_3
  6
CENTER
 62
             110
  5
9E
 10
104.84999990463177
 20
115.94999694824219
 30
0.0
 11
72.150000762938646
 21
115.94999694824219
 31
0.0
  0
LINE
  8
LY_3
  6
CONTINUOUS
 62
               3
  5
9F
 10
99.999999999999119
 20
126.59999847412109
 30
0.0
 11
77.39999771118076
 21
126.59999847412109
 31
0.0
  0
LINE
  8
LY_3
  6
CONTINUOUS
 62
               3
  5
A0
 10
99.999996781350063
 20
-126.59999847412109
 30
0.0
 11
77.399999618531155
 21
-126.59999847412109
 31
0.0
  0
LINE
  8
LY_3
  6
CONTINUOUS
 62
               3
  5
A1
 10
101.00000000000003
 20
-125.59999847412108
 30
0.0
 11
101.00000000000003
 21
125.59999847412109
 31
0.0
  0
ENDSEC
  0
EOF
