  0
SECTION
  2
HEADER
  9
$ACADVER
  1
AC1009
  9
$DWGCODEPAGE
  3
dos932
  9
$INSBASE
 10
0.0
 20
0.0
 30
0.0
  9
$EXTMIN
 10
-6.1000061035156214
 20
-75.800003051757813
 30
0.0
  9
$EXTMAX
 10
88.099998474121094
 20
75.800030579059651
 30
0.0
  9
$LIMMIN
 10
-6.1000061035156214
 20
-75.800003051757813
  9
$LIMMAX
 10
88.099998474121094
 20
75.800030579059651
  9
$ORTHOMODE
 70
               0
  9
$REGENMODE
 70
               1
  9
$FILLMODE
 70
               1
  9
$QTEXTMODE
 70
               0
  9
$MIRRTEXT
 70
               1
  9
$DRAGMODE
 70
               2
  9
$LTSCALE
 40
1.0
  9
$OSMODE
 70
               0
  9
$ATTMODE
 70
               1
  9
$TEXTSIZE
 40
3.2000000476837158
  9
$TRACEWID
 40
0.05
  9
$TEXTSTYLE
  7
MX_NOTE_STANDARD
  9
$CLAYER
  8
LY_3
  9
$CELTYPE
  6
CONTINUOUS
  9
$CECOLOR
 62
             256
  9
$DIMSCALE
 40
1.0
  9
$DIMASZ
 40
2.5
  9
$DIMEXO
 40
2.0
  9
$DIMDLI
 40
3.75
  9
$DIMRND
 40
0.0
  9
$DIMDLE
 40
0.0
  9
$DIMEXE
 40
1.0
  9
$DIMTP
 40
0.0
  9
$DIMTM
 40
0.0
  9
$DIMTXT
 40
4.1655998229980469
  9
$DIMCEN
 40
2.5
  9
$DIMTSZ
 40
0.0
  9
$DIMTOL
 70
               0
  9
$DIMLIM
 70
               0
  9
$DIMTIH
 70
               0
  9
$DIMTOH
 70
               0
  9
$DIMSE1
 70
               0
  9
$DIMSE2
 70
               0
  9
$DIMTAD
 70
               1
  9
$DIMZIN
 70
               8
  9
$DIMBLK
  1

  9
$DIMASO
 70
               1
  9
$DIMSHO
 70
               1
  9
$DIMPOST
  1

  9
$DIMAPOST
  1

  9
$DIMALT
 70
               0
  9
$DIMALTD
 70
               4
  9
$DIMALTF
 40
0.03937007874016
  9
$DIMLFAC
 40
1.0
  9
$DIMTOFL
 70
               1
  9
$DIMTVP
 40
0.0
  9
$DIMTIX
 70
               0
  9
$DIMSOXD
 70
               0
  9
$DIMSAH
 70
               1
  9
$DIMBLK1
  1
_OPEN30
  9
$DIMBLK2
  1
_OPEN30
  9
$DIMSTYLE
  2
MXDIMSTYLE
  9
$DIMCLRD
 70
               0
  9
$DIMCLRE
 70
               0
  9
$DIMCLRT
 70
               0
  9
$DIMTFAC
 40
1.0
  9
$DIMGAP
 40
1.0
  9
$LUNITS
 70
               2
  9
$LUPREC
 70
               4
  9
$AXISMODE
 70
               0
  9
$AXISUNIT
 10
0.0
 20
0.0
  9
$SKETCHINC
 40
0.1
  9
$FILLETRAD
 40
0.0
  9
$AUNITS
 70
               0
  9
$AUPREC
 70
               0
  9
$MENU
  1
acad
  9
$ELEVATION
 40
0.0
  9
$PELEVATION
 40
0.0
  9
$THICKNESS
 40
0.0
  9
$LIMCHECK
 70
               0
  9
$BLIPMODE
 70
               1
  9
$CHAMFERA
 40
0.0
  9
$CHAMFERB
 40
0.0
  9
$SKPOLY
 70
               0
  9
$TDCREATE
 40
2455163.518530093
  9
$TDUPDATE
 40
2455163.518530093
  9
$TDINDWG
 40
0.0000000000
  9
$TDUSRTIMER
 40
0.0000000000
  9
$USRTIMER
 70
               1
  9
$ANGBASE
 50
0.0
  9
$ANGDIR
 70
               0
  9
$PDMODE
 70
               0
  9
$PDSIZE
 40
0.0
  9
$PLINEWID
 40
0.0
  9
$COORDS
 70
               1
  9
$SPLFRAME
 70
               0
  9
$SPLINETYPE
 70
               6
  9
$SPLINESEGS
 70
               8
  9
$ATTDIA
 70
               0
  9
$ATTREQ
 70
               1
  9
$HANDLING
 70
               1
  9
$HANDSEED
  5
9E
  9
$SURFTAB1
 70
               6
  9
$SURFTAB2
 70
               6
  9
$SURFTYPE
 70
               6
  9
$SURFU
 70
               6
  9
$SURFV
 70
               6
  9
$UCSNAME
  2

  9
$UCSORG
 10
0.0
 20
0.0
 30
0.0
  9
$UCSXDIR
 10
1.0
 20
0.0
 30
0.0
  9
$UCSYDIR
 10
0.0
 20
1.0
 30
0.0
  9
$PUCSNAME
  2

  9
$PUCSORG
 10
0.0
 20
0.0
 30
0.0
  9
$PUCSXDIR
 10
1.0
 20
0.0
 30
0.0
  9
$PUCSYDIR
 10
0.0
 20
1.0
 30
0.0
  9
$USERI1
 70
               0
  9
$USERI2
 70
               0
  9
$USERI3
 70
               0
  9
$USERI4
 70
               0
  9
$USERI5
 70
               0
  9
$USERR1
 40
0.0
  9
$USERR2
 40
0.0
  9
$USERR3
 40
0.0
  9
$USERR4
 40
0.0
  9
$USERR5
 40
0.0
  9
$WORLDVIEW
 70
               1
  9
$SHADEDGE
 70
               3
  9
$SHADEDIF
 70
              70
  9
$TILEMODE
 70
               1
  9
$MAXACTVP
 70
              16
  9
$PINSBASE
 10
0.0
 20
0.0
 30
0.0
  9
$PLIMCHECK
 70
               0
  9
$PEXTMIN
 10
1.0000000000000000E+20
 20
1.0000000000000000E+20
 30
1.0000000000000000E+20
  9
$PEXTMAX
 10
-1.0000000000000000E+20
 20
-1.0000000000000000E+20
 30
-1.0000000000000000E+20
  9
$PLIMMIN
 10
0.0
 20
0.0
  9
$PLIMMAX
 10
12.0
 20
9.0
  9
$UNITMODE
 70
               0
  9
$VISRETAIN
 70
               0
  9
$PLINEGEN
 70
               1
  9
$PSLTSCALE
 70
               0
  9
$TREEDEPTH
 70
            3020
  0
ENDSEC
  0
SECTION
  2
TABLES
  0
TABLE
  2
VPORT
 70
               1
  0
VPORT
  2
*ACTIVE
 70
               0
 10
0.0
 20
0.0
 11
1.0
 21
1.0
 12
40.999996185302734
 22
0.0000137636509123
 13
0.0
 23
0.0
 14
1.0
 24
1.0
 15
0.0
 25
0.0
 16
0.0
 26
0.0
 36
1.0
 17
0.0
 27
0.0
 37
0.0
 40
153.11603396712562
 41
1.7320508075688772
 42
50.0
 43
0.0
 44
0.0
 50
0.0
 51
0.0
 71
               0
 72
             100
 73
               1
 74
               1
 75
               0
 76
               0
 77
               0
 78
               0
  0
ENDTAB
  0
TABLE
  2
LTYPE
 70
               3
  0
LTYPE
  2
CONTINUOUS
 70
              64
  3
Solid line
 72
              65
 73
               0
 40
0.0
  0
LTYPE
  2
CENTER
 70
              64
  3
Center ____ _ ____ _ ____ _ ____ _ ____ _ ____
 72
              65
 73
               4
 40
50.800000000000004
 49
31.75
 49
-6.3499999999999996
 49
6.3499999999999996
 49
-6.3499999999999996
  0
LTYPE
  2
PHANTOM
 70
              64
  3
Phantom ______  __  __  ______  __  __  ______
 72
              65
 73
               6
 40
63.500000000000007
 49
31.75
 49
-6.3499999999999996
 49
6.3499999999999996
 49
-6.3499999999999996
 49
6.3499999999999996
 49
-6.3499999999999996
  0
ENDTAB
  0
TABLE
  2
LAYER
 70
               3
  0
LAYER
  2
0
 70
               0
 62
               7
  6
CONTINUOUS
  0
LAYER
  2
DEFPOINTS
 70
               0
 62
               7
  6
CONTINUOUS
  0
LAYER
  2
LY_3
 70
               0
 62
               7
  6
CONTINUOUS
  0
ENDTAB
  0
TABLE
  2
STYLE
 70
               1
  0
STYLE
  2
MX_NOTE_STANDARD
 70
               0
 40
0.0
 41
1.0
 50
0.0
 71
               0
 42
3.2000000476837158
  3
txt.shx
  4
extfont.shx
  0
ENDTAB
  0
TABLE
  2
VIEW
 70
               0
  0
ENDTAB
  0
TABLE
  2
UCS
 70
               0
  0
ENDTAB
  0
TABLE
  2
APPID
 70
               1
  0
APPID
  2
ACAD
 70
               0
  0
ENDTAB
  0
TABLE
  2
DIMSTYLE
 70
               1
  0
DIMSTYLE
  2
MXDIMSTYLE
 70
               0
  3

  4

  5

  6
_OPEN30
  7
_OPEN30
 40
1.0
 41
2.5
 42
2.0
 43
3.75
 44
1.0
 45
0.0
 46
0.0
 47
0.0
 48
0.0
 71
               0
 72
               0
 73
               0
 74
               0
 75
               0
 76
               0
 77
               1
 78
               8
140
4.1655998229980469
141
2.5
142
0.0
143
0.03937007874016
144
1.0
145
0.0
146
1.0
147
1.0
170
               0
171
               4
172
               1
173
               1
174
               0
175
               0
176
               0
177
               0
178
               0
  0
ENDTAB
  0
ENDSEC
  0
SECTION
  2
BLOCKS
  0
BLOCK
  8
0
  6
BYBLOCK
 62
               0
  5
20
  2
_OPEN30
 70
               2
 10
0.0
 20
0.0
 30
0.0
  3
_OPEN30
  0
LINE
  8
0
  6
BYBLOCK
 62
               0
  5
21
 10
-1.0
 20
0.267949
 30
0.0
 11
0.0
 21
0.0
 31
0.0
  0
LINE
  8
0
  6
BYBLOCK
 62
               0
  5
22
 10
0.0
 20
0.0
 30
0.0
 11
-1.0
 21
-0.267949
 31
0.0
  0
LINE
  8
0
  6
BYBLOCK
 62
               0
  5
23
 10
0.0
 20
0.0
 30
0.0
 11
-1.0
 21
0.0
 31
0.0
  0
ENDBLK
  8
0
  6
BYBLOCK
 62
               0
  5
24
  0
ENDSEC
  0
SECTION
  2
ENTITIES
  0
ARC
  8
LY_3
  6
CONTINUOUS
 62
               3
  5
25
 10
1.225677490234375
 20
-60.099998474121094
 30
0.0
 40
0.25
 50
270.00001798608935
 51
20.000282871036397
  0
ARC
  8
LY_3
  6
CONTINUOUS
 62
               3
  5
26
 10
1.225677490234375
 20
60.099998474121094
 30
0.0
 40
0.25
 50
339.9997171289636
 51
89.999982013910653
  0
ARC
  8
LY_3
  6
CONTINUOUS
 62
               3
  5
27
 10
80.774322509765625
 20
-60.099998474121094
 30
0.0
 40
0.25
 50
159.9996811567849
 51
269.99994604173196
  0
ARC
  8
LY_3
  6
CONTINUOUS
 62
               3
  5
28
 10
80.774322509765625
 20
60.099998474121094
 30
0.0
 40
0.25
 50
89.999982013910653
 51
200.00024689885771
  0
LINE
  8
LY_3
  6
CONTINUOUS
 62
               3
  5
29
 10
62.199996948242187
 20
-75.0
 30
0.0
 11
62.199996948242187
 21
-50.799999999999997
 31
0.0
  0
LINE
  8
LY_3
  6
CONTINUOUS
 62
               3
  5
2A
 10
19.800003051757813
 20
-75.0
 30
0.0
 11
19.800003051757813
 21
-50.799999999999997
 31
0.0
  0
LINE
  8
LY_3
  6
CONTINUOUS
 62
               3
  5
2B
 10
62.199996948242187
 20
75.0
 30
0.0
 11
62.199996948242187
 21
50.799999999999997
 31
0.0
  0
LINE
  8
LY_3
  6
CONTINUOUS
 62
               3
  5
2C
 10
74.899993896484375
 20
-50.799999999999997
 30
0.0
 11
60.0
 21
-50.799999999999997
 31
0.0
  0
LINE
  8
LY_3
  6
CONTINUOUS
 62
               3
  5
2D
 10
7.100006103515625
 20
-50.799999999999997
 30
0.0
 11
22.0
 21
-50.799999999999997
 31
0.0
  0
LINE
  8
LY_3
  6
CONTINUOUS
 62
               3
  5
2E
 10
74.899993896484375
 20
50.799999999999997
 30
0.0
 11
60.0
 21
50.799999999999997
 31
0.0
  0
LINE
  8
LY_3
  6
CONTINUOUS
 62
               3
  5
2F
 10
57.599950625043952
 20
-54.5
 30
0.0
 11
57.0
 21
-54.5
 31
0.0
  0
LINE
  8
LY_3
  6
CONTINUOUS
 62
               3
  5
30
 10
58.500000000000021
 20
-52.000000000000014
 30
0.0
 11
56.999999890192392
 21
-53.500000000000014
 31
0.0
  0
LINE
  8
LY_3
  6
CONTINUOUS
 62
               3
  5
31
 10
60.0
 20
-54.5
 30
0.0
 11
60.0
 21
-50.799999999999997
 31
0.0
  0
LINE
  8
LY_3
  6
CONTINUOUS
 62
               3
  5
32
 10
58.5
 20
-47.800003051757813
 30
0.0
 11
74.899993896484375
 21
-47.800003051757813
 31
0.0
  0
LINE
  8
LY_3
  6
CONTINUOUS
 62
               3
  5
33
 10
58.599973840173405
 20
-53.499976784870604
 30
0.0
 11
57.599972761469616
 21
-54.499977863574394
 31
0.0
  0
LINE
  8
LY_3
  6
CONTINUOUS
 62
               3
  5
34
 10
59.600007287656894
 20
-54.500010232354143
 30
0.0
 11
58.600006208953104
 21
-53.500009153650353
 31
0.0
  0
LINE
  8
LY_3
  6
CONTINUOUS
 62
               3
  5
35
 10
60.0
 20
-54.5
 30
0.0
 11
59.599997055302779
 21
-54.5
 31
0.0
  0
LINE
  8
LY_3
  6
CONTINUOUS
 62
               3
  5
36
 10
24.400049374956048
 20
-54.5
 30
0.0
 11
25.0
 21
-54.5
 31
0.0
  0
LINE
  8
LY_3
  6
CONTINUOUS
 62
               3
  5
37
 10
23.499999999999993
 20
-52.0
 30
0.0
 11
25.000000109807623
 21
-53.5
 31
0.0
  0
LINE
  8
LY_3
  6
CONTINUOUS
 62
               3
  5
38
 10
22.0
 20
-54.5
 30
0.0
 11
22.0
 21
-50.799999999999997
 31
0.0
  0
LINE
  8
LY_3
  6
CONTINUOUS
 62
               3
  5
39
 10
23.5
 20
-47.800003051757813
 30
0.0
 11
7.100006103515625
 21
-47.800003051757813
 31
0.0
  0
LINE
  8
LY_3
  6
CONTINUOUS
 62
               3
  5
3A
 10
23.400026159826609
 20
-53.499976784870583
 30
0.0
 11
24.400027238530399
 21
-54.499977863574372
 31
0.0
  0
LINE
  8
LY_3
  6
CONTINUOUS
 62
               3
  5
3B
 10
22.39999271234311
 20
-54.500010232354128
 30
0.0
 11
23.399993791046899
 21
-53.500009153650339
 31
0.0
  0
LINE
  8
LY_3
  6
CONTINUOUS
 62
               3
  5
3C
 10
22.0
 20
-54.5
 30
0.0
 11
22.400002944697221
 21
-54.5
 31
0.0
  0
LINE
  8
LY_3
  6
CONTINUOUS
 62
               3
  5
3D
 10
57.599950625043952
 20
54.5
 30
0.0
 11
57.0
 21
54.5
 31
0.0
  0
LINE
  8
LY_3
  6
CONTINUOUS
 62
               3
  5
3E
 10
58.500000000000014
 20
52.000000000000014
 30
0.0
 11
56.999999890192385
 21
53.500000000000014
 31
0.0
  0
LINE
  8
LY_3
  6
CONTINUOUS
 62
               3
  5
3F
 10
58.5
 20
52.0
 30
0.0
 11
58.5
 21
-52.0
 31
0.0
  0
LINE
  8
LY_3
  6
CONTINUOUS
 62
               3
  5
40
 10
60.0
 20
54.5
 30
0.0
 11
60.0
 21
50.799999999999997
 31
0.0
  0
LINE
  8
LY_3
  6
CONTINUOUS
 62
               3
  5
41
 10
58.5
 20
47.800003051757813
 30
0.0
 11
74.899993896484375
 21
47.800003051757813
 31
0.0
  0
LINE
  8
LY_3
  6
CONTINUOUS
 62
               3
  5
42
 10
58.599973840173405
 20
53.499976784870597
 30
0.0
 11
57.599972761469616
 21
54.499977863574401
 31
0.0
  0
LINE
  8
LY_3
  6
CONTINUOUS
 62
               3
  5
43
 10
59.600007287656886
 20
54.500010232354157
 30
0.0
 11
58.600006208953097
 21
53.500009153650367
 31
0.0
  0
LINE
  8
LY_3
  6
CONTINUOUS
 62
               3
  5
44
 10
60.0
 20
54.5
 30
0.0
 11
59.599997055302779
 21
54.5
 31
0.0
  0
LINE
  8
LY_3
  6
CONTINUOUS
 62
               3
  5
45
 10
23.499999999999996
 20
52.0
 30
0.0
 11
25.000000109807626
 21
53.5
 31
0.0
  0
LINE
  8
LY_3
  6
CONTINUOUS
 62
               3
  5
46
 10
23.5
 20
52.0
 30
0.0
 11
23.5
 21
-52.0
 31
0.0
  0
LINE
  8
LY_3
  6
CONTINUOUS
 62
               3
  5
47
 10
22.0
 20
54.5
 30
0.0
 11
22.0
 21
50.799999999999997
 31
0.0
  0
LINE
  8
LY_3
  6
CONTINUOUS
 62
               3
  5
48
 10
7.100006103515625
 20
50.799999999999997
 30
0.0
 11
22.0
 21
50.799999999999997
 31
0.0
  0
LINE
  8
LY_3
  6
CENTER
 62
             110
  5
4A
 10
-4.9999999999999964
 20
0.0
 30
0.0
 11
87.0
 21
0.0
 31
0.0
  0
LINE
  8
LY_3
  6
CONTINUOUS
 62
               3
  5
4B
 10
53.0
 20
-52.5
 30
0.0
 11
53.0
 21
-54.5
 31
0.0
  0
LINE
  8
LY_3
  6
CONTINUOUS
 62
               3
  5
4C
 10
55.000000211759541
 20
-50.499992101038586
 30
0.0
 11
52.999998054351963
 21
-52.499994258446165
 31
0.0
  0
LINE
  8
LY_3
  6
CONTINUOUS
 62
               3
  5
4D
 10
55.0
 20
-50.5
 30
0.0
 11
55.0
 21
-39.5
 31
0.0
  0
LINE
  8
LY_3
  6
CONTINUOUS
 62
               3
  5
4E
 10
57.000000008943616
 20
-52.499991898222632
 30
0.0
 11
55.000003246332639
 21
-50.499995135611655
 31
0.0
  0
LINE
  8
LY_3
  6
CONTINUOUS
 62
               3
  5
4F
 10
53.0
 20
52.5
 30
0.0
 11
53.0
 21
54.5
 31
0.0
  0
LINE
  8
LY_3
  6
CONTINUOUS
 62
               3
  5
50
 10
54.999995154137714
 20
50.499997825344039
 30
0.0
 11
52.999992996730128
 21
52.499999982751618
 31
0.0
  0
LINE
  8
LY_3
  6
CONTINUOUS
 62
               3
  5
51
 10
55.0
 20
50.5
 30
0.0
 11
55.0
 21
39.5
 31
0.0
  0
LINE
  8
LY_3
  6
CONTINUOUS
 62
               3
  5
52
 10
56.999997311545329
 20
52.499999982751575
 30
0.0
 11
55.000000548934359
 21
50.500003220140613
 31
0.0
  0
LINE
  8
LY_3
  6
CONTINUOUS
 62
               3
  5
53
 10
29.0
 20
-52.5
 30
0.0
 11
29.0
 21
-54.5
 31
0.0
  0
LINE
  8
LY_3
  6
CONTINUOUS
 62
               3
  5
54
 10
27.00001299555182
 20
-50.499984346018408
 30
0.0
 11
29.000015152959399
 21
-52.499986503425987
 31
0.0
  0
LINE
  8
LY_3
  6
CONTINUOUS
 62
               3
  5
55
 10
27.0
 20
-50.5
 30
0.0
 11
27.0
 21
-39.5
 31
0.0
  0
LINE
  8
LY_3
  6
CONTINUOUS
 62
               3
  5
56
 10
25.000005443347618
 20
-52.500002687815879
 30
0.0
 11
26.999996811161978
 21
-50.500011320001519
 31
0.0
  0
LINE
  8
LY_3
  6
CONTINUOUS
 62
               3
  5
57
 10
27.0
 20
50.5
 30
0.0
 11
27.0
 21
39.5
 31
0.0
  0
LINE
  8
LY_3
  6
CONTINUOUS
 62
               3
  5
58
 10
29.0
 20
52.5
 30
0.0
 11
29.0
 21
54.5
 31
0.0
  0
LINE
  8
LY_3
  6
CONTINUOUS
 62
               3
  5
59
 10
27.000023785145071
 20
50.499984338352448
 30
0.0
 11
29.000015152959431
 21
52.499975706166794
 31
0.0
  0
LINE
  8
LY_3
  6
CONTINUOUS
 62
               3
  5
5A
 10
25.000016232940826
 20
52.500002680149933
 30
0.0
 11
27.000007600755193
 21
50.500011312335573
 31
0.0
  0
LINE
  8
LY_3
  6
PHANTOM
 62
             110
  5
5C
 10
29.0
 20
-54.5
 30
0.0
 11
53.0
 21
-54.5
 31
0.0
  0
LINE
  8
LY_3
  6
PHANTOM
 62
             110
  5
5D
 10
29.0
 20
54.5
 30
0.0
 11
53.0
 21
54.5
 31
0.0
  0
LINE
  8
LY_3
  6
PHANTOM
 62
             110
  5
5E
 10
27.0
 20
39.5
 30
0.0
 11
55.0
 21
39.5
 31
0.0
  0
LINE
  8
LY_3
  6
PHANTOM
 62
             110
  5
5F
 10
27.0
 20
-39.5
 30
0.0
 11
55.0
 21
-39.5
 31
0.0
  0
LINE
  8
LY_3
  6
CONTINUOUS
 62
               3
  5
60
 10
57.0
 20
54.5
 30
0.0
 11
57.0
 21
-54.5
 31
0.0
  0
LINE
  8
LY_3
  6
CONTINUOUS
 62
               3
  5
61
 10
25.0
 20
54.5
 30
0.0
 11
25.0
 21
-54.5
 31
0.0
  0
LINE
  8
LY_3
  6
CONTINUOUS
 62
               3
  5
62
 10
62.199996948242187
 20
51.0
 30
0.0
 11
74.900001525878906
 21
51.0
 31
0.0
  0
LINE
  8
LY_3
  6
CONTINUOUS
 62
               3
  5
63
 10
23.5
 20
47.800003051757813
 30
0.0
 11
7.100006103515625
 21
47.800003051757813
 31
0.0
  0
LINE
  8
LY_3
  6
CONTINUOUS
 62
               3
  5
64
 10
24.400049374956048
 20
54.5
 30
0.0
 11
25.0
 21
54.5
 31
0.0
  0
LINE
  8
LY_3
  6
CONTINUOUS
 62
               3
  5
65
 10
23.400026159826606
 20
53.499976784870569
 30
0.0
 11
24.400027238530395
 21
54.499977863574372
 31
0.0
  0
LINE
  8
LY_3
  6
CONTINUOUS
 62
               3
  5
66
 10
22.39999271234311
 20
54.500010232354128
 30
0.0
 11
23.399993791046899
 21
53.500009153650339
 31
0.0
  0
LINE
  8
LY_3
  6
CONTINUOUS
 62
               3
  5
67
 10
22.0
 20
54.5
 30
0.0
 11
22.400002944697221
 21
54.5
 31
0.0
  0
LINE
  8
LY_3
  6
CONTINUOUS
 62
               3
  5
68
 10
7.100006103515625
 20
51.0
 30
0.0
 11
19.800003051757813
 21
51.0
 31
0.0
  0
LINE
  8
LY_3
  6
CONTINUOUS
 62
               3
  5
69
 10
0.0
 20
-60.349998474121094
 30
0.0
 11
1.225677490234375
 21
-60.349998474121094
 31
0.0
  0
LINE
  8
LY_3
  6
CONTINUOUS
 62
               3
  5
6A
 10
0.0
 20
60.349998474121094
 30
0.0
 11
1.225677490234375
 21
60.349998474121094
 31
0.0
  0
LINE
  8
LY_3
  6
CONTINUOUS
 62
               3
  5
6B
 10
19.800003051757813
 20
75.0
 30
0.0
 11
19.800003051757813
 21
50.799999999999997
 31
0.0
  0
LINE
  8
LY_3
  6
CONTINUOUS
 62
               3
  5
6C
 10
7.100006103515625
 20
51.0
 30
0.0
 11
7.100006103515625
 21
-51.0
 31
0.0
  0
LINE
  8
LY_3
  6
CONTINUOUS
 62
               3
  5
6D
 10
5.0
 20
51.0
 30
0.0
 11
5.0
 21
-51.0
 31
0.0
  0
LINE
  8
LY_3
  6
CONTINUOUS
 62
               3
  5
6E
 10
1.1999969482421875
 20
57.597503662109375
 30
0.0
 11
1.1999969482421875
 21
-57.597507476806641
 31
0.0
  0
LINE
  8
LY_3
  6
CONTINUOUS
 62
               3
  5
6F
 10
0.0
 20
75.000007629394531
 30
0.0
 11
0.0
 21
-75.0
 31
0.0
  0
LINE
  8
LY_3
  6
CONTINUOUS
 62
               3
  5
70
 10
0.6000140446036326
 20
-57.650005731337586
 30
0.0
 11
1.2000169667206677
 21
-57.597511290037318
 31
0.0
  0
LINE
  8
LY_3
  6
CONTINUOUS
 62
               3
  5
71
 10
0.5999873252707886
 20
-57.650006693774394
 30
0.0
 11
1.4605923788893875
 21
-60.014501921281031
 31
0.0
  0
LINE
  8
LY_3
  6
CONTINUOUS
 62
               3
  5
72
 10
0.6000042546908659
 20
57.650005559563297
 30
0.0
 11
1.1999919760853146
 21
57.597512448178961
 31
0.0
  0
LINE
  8
LY_3
  6
CONTINUOUS
 62
               3
  5
73
 10
0.5999883087505999
 20
57.649991910422941
 30
0.0
 11
1.4605933623691989
 21
60.014487137929578
 31
0.0
  0
LINE
  8
LY_3
  6
CENTER
 62
             110
  5
74
 10
-6.1000061035156214
 20
-65.150001525878906
 30
0.0
 11
25.699993896484376
 21
-65.150001525878906
 31
0.0
  0
LINE
  8
LY_3
  6
CENTER
 62
             110
  5
75
 10
-6.1000061035156214
 20
65.150001525878906
 30
0.0
 11
25.699993896484376
 21
65.150001525878906
 31
0.0
  0
LINE
  8
LY_3
  6
CONTINUOUS
 62
               3
  5
76
 10
5.0
 20
-49.75
 30
0.0
 11
7.100006103515625
 21
-49.75
 31
0.0
  0
LINE
  8
LY_3
  6
CONTINUOUS
 62
               3
  5
77
 10
5.0
 20
49.75
 30
0.0
 11
7.100006103515625
 21
49.75
 31
0.0
  0
LINE
  8
LY_3
  6
CONTINUOUS
 62
               3
  5
78
 10
7.100006103515625
 20
-51.0
 30
0.0
 11
19.800003051757813
 21
-51.0
 31
0.0
  0
LINE
  8
LY_3
  6
CONTINUOUS
 62
               3
  5
79
 10
19.799978861528043
 20
-74.999988925385708
 30
0.0
 11
18.999983056197991
 21
-75.799981898467365
 31
0.0
  0
LINE
  8
LY_3
  6
CONTINUOUS
 62
               3
  5
7A
 10
0.0000223082824569
 20
-74.999962389699022
 30
0.0
 11
0.8000284311777541
 21
-75.79996662440324
 31
0.0
  0
LINE
  8
LY_3
  6
CONTINUOUS
 62
               3
  5
7B
 10
0.7999929600566169
 20
75.800030579059651
 30
0.0
 11
-0.0000087121232006
 21
75.000032683236498
 31
0.0
  0
LINE
  8
LY_3
  6
CONTINUOUS
 62
               3
  5
7C
 10
19.79999049407645
 20
74.999978128194158
 30
0.0
 11
18.999983899134083
 21
75.799981890849921
 31
0.0
  0
LINE
  8
LY_3
  6
CONTINUOUS
 62
               3
  5
7D
 10
0.0
 20
60.900001525878906
 30
0.0
 11
19.800003051757813
 21
60.900001525878906
 31
0.0
  0
LINE
  8
LY_3
  6
CONTINUOUS
 62
               3
  5
7E
 10
0.0
 20
69.400001525878906
 30
0.0
 11
19.800003051757813
 21
69.400001525878906
 31
0.0
  0
LINE
  8
LY_3
  6
CONTINUOUS
 62
               3
  5
7F
 10
1.1999969482421875
 20
51.0
 30
0.0
 11
5.0
 21
51.0
 31
0.0
  0
LINE
  8
LY_3
  6
CONTINUOUS
 62
               3
  5
80
 10
1.1999969482421875
 20
-51.0
 30
0.0
 11
5.0
 21
-51.0
 31
0.0
  0
LINE
  8
LY_3
  6
CONTINUOUS
 62
               3
  5
81
 10
0.8000030517578125
 20
-75.800003051757813
 30
0.0
 11
19.0
 21
-75.800003051757813
 31
0.0
  0
LINE
  8
LY_3
  6
CONTINUOUS
 62
               3
  5
82
 10
0.8000030517578125
 20
75.800003051757813
 30
0.0
 11
19.0
 21
75.800003051757813
 31
0.0
  0
LINE
  8
LY_3
  6
CONTINUOUS
 62
               3
  5
83
 10
82.0
 20
-60.349998474121094
 30
0.0
 11
80.774322509765625
 21
-60.349998474121094
 31
0.0
  0
LINE
  8
LY_3
  6
CONTINUOUS
 62
               3
  5
84
 10
82.0
 20
60.349998474121094
 30
0.0
 11
80.774322509765625
 21
60.349998474121094
 31
0.0
  0
LINE
  8
LY_3
  6
CONTINUOUS
 62
               3
  5
85
 10
74.900001525878906
 20
51.0
 30
0.0
 11
74.900001525878906
 21
-51.0
 31
0.0
  0
LINE
  8
LY_3
  6
CONTINUOUS
 62
               3
  5
86
 10
77.0
 20
51.0
 30
0.0
 11
77.0
 21
-51.0
 31
0.0
  0
LINE
  8
LY_3
  6
CONTINUOUS
 62
               3
  5
87
 10
80.799999237060547
 20
57.597503662109375
 30
0.0
 11
80.799999237060547
 21
-57.597507476806641
 31
0.0
  0
LINE
  8
LY_3
  6
CONTINUOUS
 62
               3
  5
88
 10
82.0
 20
75.000007629394531
 30
0.0
 11
82.0
 21
-75.0
 31
0.0
  0
LINE
  8
LY_3
  6
CONTINUOUS
 62
               3
  5
89
 10
81.40000417754041
 20
-57.650005966477764
 30
0.0
 11
80.800001255423368
 21
-57.597511525177502
 31
0.0
  0
LINE
  8
LY_3
  6
CONTINUOUS
 62
               3
  5
8A
 10
81.399995873336323
 20
-57.650001561451873
 30
0.0
 11
80.539390819717724
 21
-60.01449678895851
 31
0.0
  0
LINE
  8
LY_3
  6
CONTINUOUS
 62
               3
  5
8B
 10
81.400002400671724
 20
57.650006697356886
 30
0.0
 11
80.800003278735332
 21
57.597512588535608
 31
0.0
  0
LINE
  8
LY_3
  6
CONTINUOUS
 62
               3
  5
8C
 10
81.400002747745489
 20
57.650002831560968
 30
0.0
 11
80.53939769412689
 21
60.014498059067606
 31
0.0
  0
LINE
  8
LY_3
  6
CENTER
 62
             110
  5
8D
 10
88.099998474121094
 20
-65.150001525878906
 30
0.0
 11
56.099998474121094
 21
-65.150001525878906
 31
0.0
  0
LINE
  8
LY_3
  6
CENTER
 62
             110
  5
8E
 10
88.099998474121094
 20
65.150001525878906
 30
0.0
 11
56.099998474121094
 21
65.150001525878906
 31
0.0
  0
LINE
  8
LY_3
  6
CONTINUOUS
 62
               3
  5
8F
 10
77.0
 20
-49.75
 30
0.0
 11
74.900001525878906
 21
-49.75
 31
0.0
  0
LINE
  8
LY_3
  6
CONTINUOUS
 62
               3
  5
90
 10
77.0
 20
49.75
 30
0.0
 11
74.900001525878906
 21
49.75
 31
0.0
  0
LINE
  8
LY_3
  6
CONTINUOUS
 62
               3
  5
91
 10
74.900001525878906
 20
-51.0
 30
0.0
 11
62.199996948242187
 21
-51.0
 31
0.0
  0
LINE
  8
LY_3
  6
CONTINUOUS
 62
               3
  5
92
 10
62.200021195574209
 20
-74.999966418975347
 30
0.0
 11
63.000027790516569
 21
-75.79997018163111
 31
0.0
  0
LINE
  8
LY_3
  6
CONTINUOUS
 62
               3
  5
93
 10
81.999972354234799
 20
-74.999982788762836
 30
0.0
 11
81.199966231339502
 21
-75.799987023467054
 31
0.0
  0
LINE
  8
LY_3
  6
CONTINUOUS
 62
               3
  5
94
 10
81.200009794221586
 20
75.800025521435259
 30
0.0
 11
82.000011466401403
 21
75.000027625612105
 31
0.0
  0
LINE
  8
LY_3
  6
CONTINUOUS
 62
               3
  5
95
 10
62.20002305003166
 20
74.999963713954827
 30
0.0
 11
63.00002964497402
 21
75.799967476610618
 31
0.0
  0
LINE
  8
LY_3
  6
CONTINUOUS
 62
               3
  5
96
 10
82.0
 20
60.900001525878906
 30
0.0
 11
62.199996948242187
 21
60.900001525878906
 31
0.0
  0
LINE
  8
LY_3
  6
CONTINUOUS
 62
               3
  5
97
 10
82.0
 20
69.400001525878906
 30
0.0
 11
62.199996948242187
 21
69.400001525878906
 31
0.0
  0
LINE
  8
LY_3
  6
CONTINUOUS
 62
               3
  5
98
 10
80.799999237060547
 20
51.0
 30
0.0
 11
77.0
 21
51.0
 31
0.0
  0
LINE
  8
LY_3
  6
CONTINUOUS
 62
               3
  5
99
 10
80.799999237060547
 20
-51.0
 30
0.0
 11
77.0
 21
-51.0
 31
0.0
  0
LINE
  8
LY_3
  6
CONTINUOUS
 62
               3
  5
9A
 10
81.199996948242188
 20
-75.800003051757813
 30
0.0
 11
63.0
 21
-75.800003051757813
 31
0.0
  0
LINE
  8
LY_3
  6
CONTINUOUS
 62
               3
  5
9B
 10
81.200000762939453
 20
75.800003051757813
 30
0.0
 11
63.0
 21
75.800003051757813
 31
0.0
  0
ENDSEC
  0
EOF
