  0
SECTION
  2
HEADER
  9
$ACADVER
  1
AC1015
  9
$ACADMAINTVER
 70
     6
  9
$DWGCODEPAGE
  3
ANSI_932
  9
$INSBASE
 10
0.0
 20
0.0
 30
0.0
  9
$EXTMIN
 10
-160.0
 20
-56.750007
 30
0.0
  9
$EXTMAX
 10
160.0
 20
56.750022
 30
0.0
  9
$LIMMIN
 10
-160.0
 20
-56.750007
  9
$LIMMAX
 10
160.0
 20
56.750022
  9
$ORTHOMODE
 70
     0
  9
$REGENMODE
 70
     1
  9
$FILLMODE
 70
     1
  9
$QTEXTMODE
 70
     0
  9
$MIRRTEXT
 70
     1
  9
$LTSCALE
 40
1.0
  9
$ATTMODE
 70
     1
  9
$TEXTSIZE
 40
3.2
  9
$TRACEWID
 40
0.05
  9
$TEXTSTYLE
  7
MX_NOTE_STANDARD
  9
$CLAYER
  8
DEFPOINTS
  9
$CELTYPE
  6
CONTINUOUS
  9
$CECOLOR
 62
   256
  9
$CELTSCALE
 40
1.0
  9
$DISPSILH
 70
     0
  9
$DIMSCALE
 40
1.0
  9
$DIMASZ
 40
2.5
  9
$DIMEXO
 40
2.0
  9
$DIMDLI
 40
3.75
  9
$DIMRND
 40
0.0
  9
$DIMDLE
 40
0.0
  9
$DIMEXE
 40
1.0
  9
$DIMTP
 40
0.0
  9
$DIMTM
 40
0.0
  9
$DIMTXT
 40
4.1656
  9
$DIMCEN
 40
2.5
  9
$DIMTSZ
 40
0.0
  9
$DIMTOL
 70
     0
  9
$DIMLIM
 70
     0
  9
$DIMTIH
 70
     0
  9
$DIMTOH
 70
     0
  9
$DIMSE1
 70
     0
  9
$DIMSE2
 70
     0
  9
$DIMTAD
 70
     1
  9
$DIMZIN
 70
     8
  9
$DIMBLK
  1

  9
$DIMASO
 70
     1
  9
$DIMSHO
 70
     1
  9
$DIMPOST
  1

  9
$DIMAPOST
  1

  9
$DIMALT
 70
     0
  9
$DIMALTD
 70
     4
  9
$DIMALTF
 40
0.03937
  9
$DIMLFAC
 40
1.0
  9
$DIMTOFL
 70
     1
  9
$DIMTVP
 40
0.0
  9
$DIMTIX
 70
     0
  9
$DIMSOXD
 70
     0
  9
$DIMSAH
 70
     1
  9
$DIMBLK1
  1
_OPEN30
  9
$DIMBLK2
  1
_OPEN30
  9
$DIMSTYLE
  2
MXDIMSTYLE
  9
$DIMCLRD
 70
     0
  9
$DIMCLRE
 70
     0
  9
$DIMCLRT
 70
     0
  9
$DIMTFAC
 40
1.0
  9
$DIMGAP
 40
1.0
  9
$DIMJUST
 70
     0
  9
$DIMSD1
 70
     0
  9
$DIMSD2
 70
     0
  9
$DIMTOLJ
 70
     0
  9
$DIMTZIN
 70
     0
  9
$DIMALTZ
 70
     0
  9
$DIMALTTZ
 70
     0
  9
$DIMUPT
 70
     0
  9
$DIMDEC
 70
     2
  9
$DIMTDEC
 70
     2
  9
$DIMALTU
 70
     2
  9
$DIMALTTD
 70
     4
  9
$DIMTXSTY
  7
MX_NOTE_STANDARD
  9
$DIMAUNIT
 70
     0
  9
$DIMADEC
 70
     0
  9
$DIMALTRND
 40
0.0
  9
$DIMAZIN
 70
     0
  9
$DIMDSEP
 70
    46
  9
$DIMATFIT
 70
     3
  9
$DIMFRAC
 70
     0
  9
$DIMLDRBLK
  1
_OPEN30
  9
$DIMLUNIT
 70
     2
  9
$DIMLWD
 70
    -2
  9
$DIMLWE
 70
    -2
  9
$DIMTMOVE
 70
     0
  9
$LUNITS
 70
     2
  9
$LUPREC
 70
     4
  9
$SKETCHINC
 40
0.1
  9
$FILLETRAD
 40
0.0
  9
$AUNITS
 70
     0
  9
$AUPREC
 70
     0
  9
$MENU
  1
acad
  9
$ELEVATION
 40
0.0
  9
$PELEVATION
 40
0.0
  9
$THICKNESS
 40
0.0
  9
$LIMCHECK
 70
     0
  9
$CHAMFERA
 40
0.0
  9
$CHAMFERB
 40
0.0
  9
$CHAMFERC
 40
0.0
  9
$CHAMFERD
 40
0.0
  9
$SKPOLY
 70
     0
  9
$TDCREATE
 40
2456955.722442130
  9
$TDUCREATE
 40
0.000000000
  9
$TDUPDATE
 40
2456955.722442130
  9
$TDUUPDATE
 40
0.000000000
  9
$TDINDWG
 40
0.0000000000
  9
$TDUSRTIMER
 40
0.0000000000
  9
$USRTIMER
 70
     1
  9
$ANGBASE
 50
0.0
  9
$ANGDIR
 70
     0
  9
$PDMODE
 70
     0
  9
$PDSIZE
 40
0.0
  9
$PLINEWID
 40
0.0
  9
$SPLFRAME
 70
     0
  9
$SPLINETYPE
 70
     6
  9
$SPLINESEGS
 70
     8
  9
$HANDSEED
  5
52D
  9
$SURFTAB1
 70
     6
  9
$SURFTAB2
 70
     6
  9
$SURFTYPE
 70
     6
  9
$SURFU
 70
     6
  9
$SURFV
 70
     6
  9
$UCSBASE
  2

  9
$UCSNAME
  2

  9
$UCSORG
 10
0.0
 20
0.0
 30
0.0
  9
$UCSXDIR
 10
1.0
 20
0.0
 30
0.0
  9
$UCSYDIR
 10
0.0
 20
1.0
 30
0.0
  9
$UCSORTHOREF
  2

  9
$UCSORTHOVIEW
 70
     0
  9
$UCSORGTOP
 10
0.0
 20
0.0
 30
0.0
  9
$UCSORGBOTTOM
 10
0.0
 20
0.0
 30
0.0
  9
$UCSORGLEFT
 10
0.0
 20
0.0
 30
0.0
  9
$UCSORGRIGHT
 10
0.0
 20
0.0
 30
0.0
  9
$UCSORGFRONT
 10
0.0
 20
0.0
 30
0.0
  9
$UCSORGBACK
 10
0.0
 20
0.0
 30
0.0
  9
$PUCSBASE
  2

  9
$PUCSNAME
  2

  9
$PUCSORG
 10
0.0
 20
0.0
 30
0.0
  9
$PUCSXDIR
 10
1.0
 20
0.0
 30
0.0
  9
$PUCSYDIR
 10
0.0
 20
1.0
 30
0.0
  9
$PUCSORTHOREF
  2

  9
$PUCSORTHOVIEW
 70
     0
  9
$PUCSORGTOP
 10
0.0
 20
0.0
 30
0.0
  9
$PUCSORGBOTTOM
 10
0.0
 20
0.0
 30
0.0
  9
$PUCSORGLEFT
 10
0.0
 20
0.0
 30
0.0
  9
$PUCSORGRIGHT
 10
0.0
 20
0.0
 30
0.0
  9
$PUCSORGFRONT
 10
0.0
 20
0.0
 30
0.0
  9
$PUCSORGBACK
 10
0.0
 20
0.0
 30
0.0
  9
$USERI1
 70
     0
  9
$USERI2
 70
     0
  9
$USERI3
 70
     0
  9
$USERI4
 70
     0
  9
$USERI5
 70
     0
  9
$USERR1
 40
0.0
  9
$USERR2
 40
0.0
  9
$USERR3
 40
0.0
  9
$USERR4
 40
0.0
  9
$USERR5
 40
0.0
  9
$WORLDVIEW
 70
     1
  9
$SHADEDGE
 70
     3
  9
$SHADEDIF
 70
    70
  9
$TILEMODE
 70
     1
  9
$MAXACTVP
 70
    16
  9
$PINSBASE
 10
0.0
 20
0.0
 30
0.0
  9
$PLIMCHECK
 70
     0
  9
$PEXTMIN
 10
1.000000E+20
 20
1.000000E+20
 30
1.000000E+20
  9
$PEXTMAX
 10
-1.000000E+20
 20
-1.000000E+20
 30
-1.000000E+20
  9
$PLIMMIN
 10
0.0
 20
0.0
  9
$PLIMMAX
 10
12.0
 20
9.0
  9
$UNITMODE
 70
     0
  9
$VISRETAIN
 70
     0
  9
$PLINEGEN
 70
     1
  9
$PSLTSCALE
 70
     0
  9
$TREEDEPTH
 70
  3020
  9
$CMLSTYLE
  2
Standard
  9
$CMLJUST
 70
     0
  9
$CMLSCALE
 40
1.0
  9
$PROXYGRAPHICS
 70
     0
  9
$MEASUREMENT
 70
     1
  9
$CELWEIGHT
370
     0
  9
$ENDCAPS
280
     0
  9
$JOINSTYLE
280
     0
  9
$LWDISPLAY
290
     0
  9
$INSUNITS
 70
     0
  9
$HYPERLINKBASE
  1

  9
$STYLESHEET
  1

  9
$XEDIT
290
     1
  9
$CEPSNTYPE
380
     0
  9
$PSTYLEMODE
290
     1
  9
$FINGERPRINTGUID
  2

  9
$VERSIONGUID
  2

  9
$EXTNAMES
290
     1
  9
$PSVPSCALE
 40
0.0
  0
ENDSEC
  0
SECTION
  2
CLASSES
  0
CLASS
  1
LWPOLYLINE
  2
AcDbPolyline
  3
AutoCAD 2000
 90
        0
280
     0
281
     1
  0
CLASS
  1
IMAGE
  2
AcDbRasterImage
  3
ISM
 90
      127
280
     0
281
     1
  0
CLASS
  1
OLE2FRAME
  2
AcDbOle2Frame
  3
AutoCAD 2000
 90
        0
280
     0
281
     1
  0
CLASS
  1
HATCH
  2
AcDbHatch
  3
AutoCAD 2000
 90
        0
280
     0
281
     1
  0
CLASS
  1
DICTIONARYVAR
  2
AcDbDictionaryVar
  3
AutoCAD 2000
 90
        0
280
     0
281
     0
  0
CLASS
  1
RASTERVARIABLES
  2
AcDbRasterVariables
  3
ISM
 90
        0
280
     0
281
     0
  0
CLASS
  1
IMAGEDEF
  2
AcDbRasterImageDef
  3
ISM
 90
        0
280
     0
281
     0
  0
CLASS
  1
IMAGEDEF_REACTOR
  2
AcDbRasterImageDefReactor
  3
ISM
 90
        1
280
     0
281
     0
  0
CLASS
  1
IDBUFFER
  2
AcDbIdBuffer
  3
AutoCAD 2000
 90
        0
280
     0
281
     0
  0
CLASS
  1
SPATIAL_FILTER
  2
AcDbSpatialFilter
  3
AutoCAD 2000
 90
        0
280
     0
281
     0
  0
CLASS
  1
XRECORD
  2
AcDbXrecord
  3
AutoCAD 2000
 90
        0
280
     0
281
     0
  0
CLASS
  1
SORTENTSTABLE
  2
AcDbSortentsTable
  3
AutoCAD 2000
 90
        0
280
     0
281
     0
  0
CLASS
  1
LAYER_INDEX
  2
AcDbLayerIndex
  3
AutoCAD 2000
 90
        0
280
     0
281
     0
  0
CLASS
  1
SPATIAL_INDEX
  2
AcDbSpatialIndex
  3
AutoCAD 2000
 90
        0
280
     0
281
     0
  0
CLASS
  1
OBJECT_PTR
  2
CAseDLPNTableRecord
  3
"ASE-LPNTableRecord"
 90
        1
280
     0
281
     0
  0
CLASS
  1
LAYOUT
  2
AcDbLayout
  3
AutoCAD 2000
 90
        0
280
     0
281
     0
  0
CLASS
  1
PLOTSETTINGS
  2
AcDbPlotSettings
  3
AutoCAD 2000
 90
        0
280
     0
281
     0
  0
CLASS
  1
ACDBDICTIONARYWDFLT
  2
AcDbDictionaryWithDefault
  3
AutoCAD 2000
 90
        0
280
     0
281
     0
  0
CLASS
  1
ACDBPLACEHOLDER
  2
AcDbPlaceHolder
  3
AutoCAD 2000
 90
        0
280
     0
281
     0
  0
ENDSEC
  0
SECTION
  2
TABLES
  0
TABLE
  2
VPORT
  5
7
100
AcDbSymbolTable
 70
     1
  0
VPORT
  5
15
100
AcDbSymbolTableRecord
100
AcDbViewportTableRecord
  2
*ACTIVE
 70
     0
 10
0.0
 20
0.0
 11
1.0
 21
1.0
 12
0.0
 22
0.000008
 13
0.0
 23
0.0
 14
1.0
 24
1.0
 15
0.0
 25
0.0
 16
0.0
 26
0.0
 36
1.0
 17
0.0
 27
0.0
 37
0.0
 40
114.635029
 41
1.732051
 42
50.0
 43
0.0
 44
0.0
 50
0.0
 51
0.0
 71
     0
 72
   100
 73
     1
 74
     1
 75
     0
 76
     0
 77
     0
 78
     0
281
     0
 65
     0
110
0.0
120
0.0
130
0.0
111
1.0
121
0.0
131
0.0
112
0.0
122
1.0
132
0.0
345
0
346
0
 79
     0
146
0.0
  0
ENDTAB
  0
TABLE
  2
LTYPE
  5
4
100
AcDbSymbolTable
 70
     6
  0
LTYPE
  5
11
100
AcDbSymbolTableRecord
100
AcDbLinetypeTableRecord
  2
BYBLOCK
 70
    64
  3

 72
    65
 73
     0
 40
0.0
  0
LTYPE
  5
12
100
AcDbSymbolTableRecord
100
AcDbLinetypeTableRecord
  2
BYLAYER
 70
    64
  3

 72
    65
 73
     0
 40
0.0
  0
LTYPE
  5
13
100
AcDbSymbolTableRecord
100
AcDbLinetypeTableRecord
  2
CONTINUOUS
 70
    64
  3
Solid line
 72
    65
 73
     0
 40
0.0
  0
LTYPE
  5
45
100
AcDbSymbolTableRecord
100
AcDbLinetypeTableRecord
  2
NON_PLOTING
 70
     0
  3
Solid line
 72
    65
 73
     0
 40
0.0
  0
LTYPE
  5
147
100
AcDbSymbolTableRecord
100
AcDbLinetypeTableRecord
  2
CENTER
 70
    64
  3
Center ____ _ ____ _ ____ _ ____ _ ____ _ ____
 72
    65
 73
     4
 40
50.8
 49
31.75
 74
     0
 49
-6.35
 74
     0
 49
6.35
 74
     0
 49
-6.35
 74
     0
  0
LTYPE
  5
14A
100
AcDbSymbolTableRecord
100
AcDbLinetypeTableRecord
  2
PHANTOM
 70
    64
  3
Phantom ______  __  __  ______  __  __  ______
 72
    65
 73
     6
 40
63.5
 49
31.75
 74
     0
 49
-6.35
 74
     0
 49
6.35
 74
     0
 49
-6.35
 74
     0
 49
6.35
 74
     0
 49
-6.35
 74
     0
  0
ENDTAB
  0
TABLE
  2
LAYER
  5
2
100
AcDbSymbolTable
 70
     4
  0
LAYER
  5
14
100
AcDbSymbolTableRecord
100
AcDbLayerTableRecord
  2
0
 70
     0
 62
     7
  6
CONTINUOUS
290
     1
370
    -3
390
1D
  0
LAYER
  5
23
100
AcDbSymbolTableRecord
100
AcDbLayerTableRecord
  2
DEFPOINTS
 70
     0
 62
     7
  6
CONTINUOUS
290
     0
370
    -3
390
1D
  0
LAYER
  5
24
100
AcDbSymbolTableRecord
100
AcDbLayerTableRecord
  2
PV
 70
     0
 62
     7
  6
CONTINUOUS
290
     1
370
    -3
390
1D
  0
LAYER
  5
25
100
AcDbSymbolTableRecord
100
AcDbLayerTableRecord
  2
WV
 70
     0
 62
     7
  6
CONTINUOUS
290
     1
370
    -3
390
1D
  0
ENDTAB
  0
TABLE
  2
STYLE
  5
3
100
AcDbSymbolTable
 70
     1
  0
STYLE
  5
17
100
AcDbSymbolTableRecord
100
AcDbTextStyleTableRecord
  2
MX_NOTE_STANDARD
 70
     0
 40
0.0
 41
1.0
 50
0.0
 71
     0
 42
3.2
  3
txt.shx
  4
extfont.shx
  0
ENDTAB
  0
TABLE
  2
VIEW
  5
5
100
AcDbSymbolTable
 70
     0
  0
ENDTAB
  0
TABLE
  2
UCS
  5
6
100
AcDbSymbolTable
 70
     0
  0
ENDTAB
  0
TABLE
  2
APPID
  5
8
100
AcDbSymbolTable
 70
     1
  0
APPID
  5
16
100
AcDbSymbolTableRecord
100
AcDbRegAppTableRecord
  2
ACAD
 70
     0
  0
ENDTAB
  0
TABLE
  2
DIMSTYLE
  5
9
100
AcDbSymbolTable
 70
     1
100
AcDbDimStyleTable
 71
     0
  0
DIMSTYLE
105
18
100
AcDbSymbolTableRecord
100
AcDbDimStyleTableRecord
  2
MXDIMSTYLE
 70
     0
  3

  4

 40
1.0
 41
2.5
 42
2.0
 43
3.75
 44
1.0
 45
0.0
 46
0.0
 47
0.0
 48
0.0
 71
     0
 72
     0
 73
     0
 74
     0
 75
     0
 76
     0
 77
     1
 78
     8
 79
     0
140
4.1656
141
2.5
142
0.0
143
0.03937
144
1.0
145
0.0
146
1.0
147
1.0
148
0.0
170
     0
171
     4
172
     1
173
     1
174
     0
175
     0
176
     0
177
     0
178
     0
179
     0
271
     2
272
     2
273
     2
274
     4
275
     0
276
     0
277
     2
278
    46
279
     0
280
     0
281
     0
282
     0
283
     0
284
     0
285
     0
286
     0
288
     0
289
     3
340
17
341
2C
342
0
343
2C
344
2C
371
    -2
372
    -2
  0
ENDTAB
  0
TABLE
  2
BLOCK_RECORD
  5
1
100
AcDbSymbolTable
 70
     7
  0
BLOCK_RECORD
  5
A
100
AcDbSymbolTableRecord
100
AcDbBlockTableRecord
  2
*MODEL_SPACE
340
20
  0
BLOCK_RECORD
  5
B
100
AcDbSymbolTableRecord
100
AcDbBlockTableRecord
  2
*PAPER_SPACE
340
21
  0
BLOCK_RECORD
  5
26
100
AcDbSymbolTableRecord
100
AcDbBlockTableRecord
  2
MS_1
340
0
  0
BLOCK_RECORD
  5
27
100
AcDbSymbolTableRecord
100
AcDbBlockTableRecord
  2
MS_2
340
0
  0
BLOCK_RECORD
  5
28
100
AcDbSymbolTableRecord
100
AcDbBlockTableRecord
  2
VF2034
340
0
  0
BLOCK_RECORD
  5
29
100
AcDbSymbolTableRecord
100
AcDbBlockTableRecord
  2
VF2070
340
0
  0
BLOCK_RECORD
  5
2A
100
AcDbSymbolTableRecord
100
AcDbBlockTableRecord
  2
VF2114
340
0
  0
BLOCK_RECORD
  5
2B
100
AcDbSymbolTableRecord
100
AcDbBlockTableRecord
  2
VF2152
340
0
  0
BLOCK_RECORD
  5
2C
100
AcDbSymbolTableRecord
100
AcDbBlockTableRecord
  2
_OPEN30
340
0
  0
ENDTAB
  0
ENDSEC
  0
SECTION
  2
BLOCKS
  0
BLOCK
  5
D
100
AcDbEntity
  8
0
390
0
100
AcDbBlockBegin
  2
*MODEL_SPACE
 70
     0
 10
0.0
 20
0.0
 30
0.0
  3
*MODEL_SPACE
  1

  0
ENDBLK
  5
E
100
AcDbEntity
  8
0
390
0
100
AcDbBlockEnd
  0
BLOCK
  5
F
100
AcDbEntity
 67
     1
  8
0
390
0
100
AcDbBlockBegin
  2
*PAPER_SPACE
 70
     0
 10
0.0
 20
0.0
 30
0.0
  3
*PAPER_SPACE
  1

  0
ENDBLK
  5
10
100
AcDbEntity
 67
     1
  8
0
390
0
100
AcDbBlockEnd
  0
BLOCK
  5
32
100
AcDbEntity
  8
0
370
    -2
390
0
100
AcDbBlockBegin
  2
MS_1
 70
     0
 10
0.0
 20
0.0
 30
0.0
  3
MS_1
  1

  0
MTEXT
  5
33
100
AcDbEntity
  8
0
390
0
  6
CONTINUOUS
 62
   110
100
AcDbMText
 10
64.094444
 20
54.35
 30
0.0
 40
3.2
 41
0.0
 71
     1
 72
     1
  1
\W0.833000;\A1;かきくけこ
 73
     1
 44
0.9
  0
MTEXT
  5
34
100
AcDbEntity
  8
0
390
0
  6
CONTINUOUS
 62
   110
100
AcDbMText
 10
-5.905556
 20
54.35
 30
0.0
 40
3.2
 41
0.0
 71
     1
 72
     1
  1
\W0.833000;\A1;あいうえお
 73
     1
 44
0.9
  0
MTEXT
  5
35
100
AcDbEntity
  8
0
390
0
  6
CONTINUOUS
 62
   110
100
AcDbMText
 10
92.544444
 20
66.6
 30
0.0
 40
3.2
 41
0.0
 71
     1
 72
     1
  1
\W0.833000;\A1;変更理由
 73
     1
 44
0.9
  0
MTEXT
  5
36
100
AcDbEntity
  8
0
390
0
  6
CONTINUOUS
 62
   110
100
AcDbMText
 10
19.294444
 20
66.6
 30
0.0
 40
3.2
 41
0.0
 71
     1
 72
     1
  1
\W0.833000;\A1;変更内容
 73
     1
 44
0.9
  0
MTEXT
  5
37
100
AcDbEntity
  8
0
390
0
  6
CONTINUOUS
 62
   110
100
AcDbMText
 10
-27.105556
 20
66.6
 30
0.0
 40
3.2
 41
0.0
 71
     1
 72
     1
  1
\W0.833000;\A1;変更日
 73
     1
 44
0.9
  0
MTEXT
  5
38
100
AcDbEntity
  8
0
390
0
  6
CONTINUOUS
 62
   110
100
AcDbMText
 10
-56.705556
 20
66.6
 30
0.0
 40
3.2
 41
0.0
 71
     1
 72
     1
  1
\W0.833000;\A1;品　　名
 73
     1
 44
0.9
  0
MTEXT
  5
39
100
AcDbEntity
  8
0
390
0
  6
CONTINUOUS
 62
   110
100
AcDbMText
 10
-77.605556
 20
66.6
 30
0.0
 40
3.2
 41
0.0
 71
     1
 72
     1
  1
\W0.833000;\A1;品　番
 73
     1
 44
0.9
  0
MTEXT
  5
3A
100
AcDbEntity
  8
0
390
0
  6
CONTINUOUS
 62
   110
100
AcDbMText
 10
-106.705556
 20
66.6
 30
0.0
 40
3.2
 41
0.0
 71
     1
 72
     1
  1
\W0.833000;\A1;図　　番
 73
     1
 44
0.9
  0
MTEXT
  5
3B
100
AcDbEntity
  8
0
390
0
  6
CONTINUOUS
 62
   110
100
AcDbMText
 10
-128.416667
 20
66.6
 30
0.0
 40
3.2
 41
0.0
 71
     1
 72
     1
  1
\A1;NO
 73
     1
 44
0.9
  0
MTEXT
  5
3C
100
AcDbEntity
  8
0
390
0
  6
CONTINUOUS
 62
   110
100
AcDbMText
 10
-9.916666
 20
79.6
 30
0.0
 40
4.2
 41
0.0
 71
     1
 72
     1
  1
\W0.833000;\A1;図面改訂表
 73
     1
 44
0.9
  0
LINE
  5
3D
100
AcDbEntity
  8
0
390
0
  6
CONTINUOUS
 62
   254
100
AcDbLine
 10
60.25
 20
-85.0
 30
0.0
 11
60.25
 21
70.0
 31
0.0
  0
LINE
  5
3E
100
AcDbEntity
  8
0
390
0
  6
CONTINUOUS
 62
   254
100
AcDbLine
 10
-9.75
 20
-85.0
 30
0.0
 11
-9.75
 21
70.0
 31
0.0
  0
LINE
  5
3F
100
AcDbEntity
  8
0
390
0
  6
CONTINUOUS
 62
   254
100
AcDbLine
 10
-35.75
 20
-85.0
 30
0.0
 11
-35.75
 21
70.0
 31
0.0
  0
LINE
  5
40
100
AcDbEntity
  8
0
390
0
  6
CONTINUOUS
 62
   254
100
AcDbLine
 10
-65.75
 20
-85.0
 30
0.0
 11
-65.75
 21
70.0
 31
0.0
  0
LINE
  5
41
100
AcDbEntity
  8
0
390
0
  6
CONTINUOUS
 62
   254
100
AcDbLine
 10
-80.75
 20
-85.0
 30
0.0
 11
-80.75
 21
70.0
 31
0.0
  0
LINE
  5
42
100
AcDbEntity
  8
0
390
0
  6
CONTINUOUS
 62
   254
100
AcDbLine
 10
-120.75
 20
-85.0
 30
0.0
 11
-120.75
 21
70.0
 31
0.0
  0
LINE
  5
43
100
AcDbEntity
  8
0
390
0
  6
CONTINUOUS
 62
   254
100
AcDbLine
 10
-130.75
 20
60.0
 30
0.0
 11
130.75
 21
60.0
 31
0.0
  0
LINE
  5
44
100
AcDbEntity
  8
0
390
0
  6
CONTINUOUS
 62
   254
100
AcDbLine
 10
-130.75
 20
70.0
 30
0.0
 11
130.75
 21
70.0
 31
0.0
  0
LINE
  5
46
100
AcDbEntity
  8
DEFPOINTS
390
0
  6
NON_PLOTING
 62
    41
100
AcDbLine
 10
135.75
 20
-90.0
 30
0.0
 11
135.75
 21
90.0
 31
0.0
  0
LINE
  5
47
100
AcDbEntity
  8
DEFPOINTS
390
0
  6
NON_PLOTING
 62
    41
100
AcDbLine
 10
-135.75
 20
-90.0
 30
0.0
 11
135.75
 21
-90.0
 31
0.0
  0
LINE
  5
48
100
AcDbEntity
  8
DEFPOINTS
390
0
  6
NON_PLOTING
 62
    41
100
AcDbLine
 10
-135.75
 20
-90.0
 30
0.0
 11
-135.75
 21
90.0
 31
0.0
  0
LINE
  5
49
100
AcDbEntity
  8
DEFPOINTS
390
0
  6
NON_PLOTING
 62
    41
100
AcDbLine
 10
-135.75
 20
90.0
 30
0.0
 11
135.75
 21
90.0
 31
0.0
  0
LINE
  5
4A
100
AcDbEntity
  8
0
390
0
  6
CONTINUOUS
 62
   253
100
AcDbLine
 10
-130.75
 20
-85.0
 30
0.0
 11
-130.75
 21
85.0
 31
0.0
  0
LINE
  5
4B
100
AcDbEntity
  8
0
390
0
  6
CONTINUOUS
 62
   253
100
AcDbLine
 10
-130.75
 20
85.0
 30
0.0
 11
130.75
 21
85.0
 31
0.0
  0
LINE
  5
4C
100
AcDbEntity
  8
0
390
0
  6
CONTINUOUS
 62
   253
100
AcDbLine
 10
-130.75
 20
-85.0
 30
0.0
 11
130.75
 21
-85.0
 31
0.0
  0
LINE
  5
4D
100
AcDbEntity
  8
0
390
0
  6
CONTINUOUS
 62
   253
100
AcDbLine
 10
130.75
 20
-85.0
 30
0.0
 11
130.75
 21
85.0
 31
0.0
  0
POINT
  5
4E
100
AcDbEntity
  8
0
390
0
  6
CONTINUOUS
 62
   170
100
AcDbPoint
 10
65.25
 20
-77.75
 30
0.0
  0
POINT
  5
4F
100
AcDbEntity
  8
0
390
0
  6
CONTINUOUS
 62
   170
100
AcDbPoint
 10
65.25
 20
-63.25
 30
0.0
  0
POINT
  5
50
100
AcDbEntity
  8
0
390
0
  6
CONTINUOUS
 62
   170
100
AcDbPoint
 10
65.25
 20
-48.75
 30
0.0
  0
POINT
  5
51
100
AcDbEntity
  8
0
390
0
  6
CONTINUOUS
 62
   170
100
AcDbPoint
 10
65.25
 20
-34.25
 30
0.0
  0
POINT
  5
52
100
AcDbEntity
  8
0
390
0
  6
CONTINUOUS
 62
   170
100
AcDbPoint
 10
65.25
 20
-19.75
 30
0.0
  0
POINT
  5
53
100
AcDbEntity
  8
0
390
0
  6
CONTINUOUS
 62
   170
100
AcDbPoint
 10
65.25
 20
-5.25
 30
0.0
  0
POINT
  5
54
100
AcDbEntity
  8
0
390
0
  6
CONTINUOUS
 62
   170
100
AcDbPoint
 10
65.25
 20
9.25
 30
0.0
  0
POINT
  5
55
100
AcDbEntity
  8
0
390
0
  6
CONTINUOUS
 62
   170
100
AcDbPoint
 10
65.25
 20
23.75
 30
0.0
  0
POINT
  5
56
100
AcDbEntity
  8
0
390
0
  6
CONTINUOUS
 62
   170
100
AcDbPoint
 10
65.25
 20
38.25
 30
0.0
  0
POINT
  5
57
100
AcDbEntity
  8
0
390
0
  6
CONTINUOUS
 62
   170
100
AcDbPoint
 10
65.25
 20
52.75
 30
0.0
  0
POINT
  5
58
100
AcDbEntity
  8
0
390
0
  6
CONTINUOUS
 62
   170
100
AcDbPoint
 10
-4.75
 20
-77.75
 30
0.0
  0
POINT
  5
59
100
AcDbEntity
  8
0
390
0
  6
CONTINUOUS
 62
   170
100
AcDbPoint
 10
-4.75
 20
-63.25
 30
0.0
  0
POINT
  5
5A
100
AcDbEntity
  8
0
390
0
  6
CONTINUOUS
 62
   170
100
AcDbPoint
 10
-4.75
 20
-48.75
 30
0.0
  0
POINT
  5
5B
100
AcDbEntity
  8
0
390
0
  6
CONTINUOUS
 62
   170
100
AcDbPoint
 10
-4.75
 20
-34.25
 30
0.0
  0
POINT
  5
5C
100
AcDbEntity
  8
0
390
0
  6
CONTINUOUS
 62
   170
100
AcDbPoint
 10
-4.75
 20
-19.75
 30
0.0
  0
POINT
  5
5D
100
AcDbEntity
  8
0
390
0
  6
CONTINUOUS
 62
   170
100
AcDbPoint
 10
-4.75
 20
-5.25
 30
0.0
  0
POINT
  5
5E
100
AcDbEntity
  8
0
390
0
  6
CONTINUOUS
 62
   170
100
AcDbPoint
 10
-4.75
 20
9.25
 30
0.0
  0
POINT
  5
5F
100
AcDbEntity
  8
0
390
0
  6
CONTINUOUS
 62
   170
100
AcDbPoint
 10
-4.75
 20
23.75
 30
0.0
  0
POINT
  5
60
100
AcDbEntity
  8
0
390
0
  6
CONTINUOUS
 62
   170
100
AcDbPoint
 10
-4.75
 20
38.25
 30
0.0
  0
POINT
  5
61
100
AcDbEntity
  8
0
390
0
  6
CONTINUOUS
 62
   170
100
AcDbPoint
 10
-4.75
 20
52.75
 30
0.0
  0
POINT
  5
62
100
AcDbEntity
  8
0
390
0
  6
CONTINUOUS
 62
   170
100
AcDbPoint
 10
130.75
 20
-70.5
 30
0.0
  0
POINT
  5
63
100
AcDbEntity
  8
0
390
0
  6
CONTINUOUS
 62
   170
100
AcDbPoint
 10
130.75
 20
-56.0
 30
0.0
  0
POINT
  5
64
100
AcDbEntity
  8
0
390
0
  6
CONTINUOUS
 62
   170
100
AcDbPoint
 10
130.75
 20
-41.5
 30
0.0
  0
POINT
  5
65
100
AcDbEntity
  8
0
390
0
  6
CONTINUOUS
 62
   170
100
AcDbPoint
 10
130.75
 20
-27.0
 30
0.0
  0
POINT
  5
66
100
AcDbEntity
  8
0
390
0
  6
CONTINUOUS
 62
   170
100
AcDbPoint
 10
130.75
 20
-12.5
 30
0.0
  0
POINT
  5
67
100
AcDbEntity
  8
0
390
0
  6
CONTINUOUS
 62
   170
100
AcDbPoint
 10
130.75
 20
2.0
 30
0.0
  0
POINT
  5
68
100
AcDbEntity
  8
0
390
0
  6
CONTINUOUS
 62
   170
100
AcDbPoint
 10
130.75
 20
16.5
 30
0.0
  0
POINT
  5
69
100
AcDbEntity
  8
0
390
0
  6
CONTINUOUS
 62
   170
100
AcDbPoint
 10
130.75
 20
31.0
 30
0.0
  0
POINT
  5
6A
100
AcDbEntity
  8
0
390
0
  6
CONTINUOUS
 62
   170
100
AcDbPoint
 10
130.75
 20
45.5
 30
0.0
  0
POINT
  5
6B
100
AcDbEntity
  8
0
390
0
  6
CONTINUOUS
 62
   170
100
AcDbPoint
 10
-130.75
 20
-70.5
 30
0.0
  0
POINT
  5
6C
100
AcDbEntity
  8
0
390
0
  6
CONTINUOUS
 62
   170
100
AcDbPoint
 10
-130.75
 20
-56.0
 30
0.0
  0
POINT
  5
6D
100
AcDbEntity
  8
0
390
0
  6
CONTINUOUS
 62
   170
100
AcDbPoint
 10
-130.75
 20
-41.5
 30
0.0
  0
POINT
  5
6E
100
AcDbEntity
  8
0
390
0
  6
CONTINUOUS
 62
   170
100
AcDbPoint
 10
-130.75
 20
-27.0
 30
0.0
  0
POINT
  5
6F
100
AcDbEntity
  8
0
390
0
  6
CONTINUOUS
 62
   170
100
AcDbPoint
 10
-130.75
 20
-12.5
 30
0.0
  0
POINT
  5
70
100
AcDbEntity
  8
0
390
0
  6
CONTINUOUS
 62
   170
100
AcDbPoint
 10
-130.75
 20
2.0
 30
0.0
  0
POINT
  5
71
100
AcDbEntity
  8
0
390
0
  6
CONTINUOUS
 62
   170
100
AcDbPoint
 10
-130.75
 20
16.5
 30
0.0
  0
POINT
  5
72
100
AcDbEntity
  8
0
390
0
  6
CONTINUOUS
 62
   170
100
AcDbPoint
 10
-130.75
 20
31.0
 30
0.0
  0
POINT
  5
73
100
AcDbEntity
  8
0
390
0
  6
CONTINUOUS
 62
   170
100
AcDbPoint
 10
-130.75
 20
45.5
 30
0.0
  0
POINT
  5
74
100
AcDbEntity
  8
0
390
0
  6
CONTINUOUS
 62
   170
100
AcDbPoint
 10
-73.25
 20
-77.75
 30
0.0
  0
POINT
  5
75
100
AcDbEntity
  8
0
390
0
  6
CONTINUOUS
 62
   170
100
AcDbPoint
 10
-100.75
 20
-63.25
 30
0.0
  0
POINT
  5
76
100
AcDbEntity
  8
0
390
0
  6
CONTINUOUS
 62
   170
100
AcDbPoint
 10
-125.75
 20
-34.25
 30
0.0
  0
POINT
  5
77
100
AcDbEntity
  8
0
390
0
  6
CONTINUOUS
 62
   170
100
AcDbPoint
 10
-125.75
 20
9.25
 30
0.0
  0
POINT
  5
78
100
AcDbEntity
  8
0
390
0
  6
CONTINUOUS
 62
   170
100
AcDbPoint
 10
0.0
 20
77.5
 30
0.0
  0
POINT
  5
79
100
AcDbEntity
  8
0
390
0
  6
CONTINUOUS
 62
   170
100
AcDbPoint
 10
-125.75
 20
65.0
 30
0.0
  0
POINT
  5
7A
100
AcDbEntity
  8
0
390
0
  6
CONTINUOUS
 62
   170
100
AcDbPoint
 10
-100.75
 20
65.0
 30
0.0
  0
POINT
  5
7B
100
AcDbEntity
  8
0
390
0
  6
CONTINUOUS
 62
   170
100
AcDbPoint
 10
-73.25
 20
65.0
 30
0.0
  0
POINT
  5
7C
100
AcDbEntity
  8
0
390
0
  6
CONTINUOUS
 62
   170
100
AcDbPoint
 10
-50.75
 20
65.0
 30
0.0
  0
POINT
  5
7D
100
AcDbEntity
  8
0
390
0
  6
CONTINUOUS
 62
   170
100
AcDbPoint
 10
-22.75
 20
65.0
 30
0.0
  0
POINT
  5
7E
100
AcDbEntity
  8
0
390
0
  6
CONTINUOUS
 62
   170
100
AcDbPoint
 10
25.25
 20
65.0
 30
0.0
  0
POINT
  5
7F
100
AcDbEntity
  8
0
390
0
  6
CONTINUOUS
 62
   170
100
AcDbPoint
 10
98.5
 20
65.0
 30
0.0
  0
POINT
  5
80
100
AcDbEntity
  8
0
390
0
  6
CONTINUOUS
 62
   170
100
AcDbPoint
 10
-125.75
 20
52.75
 30
0.0
  0
POINT
  5
81
100
AcDbEntity
  8
0
390
0
  6
CONTINUOUS
 62
   170
100
AcDbPoint
 10
-125.75
 20
38.25
 30
0.0
  0
POINT
  5
82
100
AcDbEntity
  8
0
390
0
  6
CONTINUOUS
 62
   170
100
AcDbPoint
 10
-125.75
 20
23.75
 30
0.0
  0
POINT
  5
83
100
AcDbEntity
  8
0
390
0
  6
CONTINUOUS
 62
   170
100
AcDbPoint
 10
-125.75
 20
-5.25
 30
0.0
  0
POINT
  5
84
100
AcDbEntity
  8
0
390
0
  6
CONTINUOUS
 62
   170
100
AcDbPoint
 10
-125.75
 20
-19.75
 30
0.0
  0
POINT
  5
85
100
AcDbEntity
  8
0
390
0
  6
CONTINUOUS
 62
   170
100
AcDbPoint
 10
-125.75
 20
-48.75
 30
0.0
  0
POINT
  5
86
100
AcDbEntity
  8
0
390
0
  6
CONTINUOUS
 62
   170
100
AcDbPoint
 10
-125.75
 20
-63.25
 30
0.0
  0
POINT
  5
87
100
AcDbEntity
  8
0
390
0
  6
CONTINUOUS
 62
   170
100
AcDbPoint
 10
-125.75
 20
-77.75
 30
0.0
  0
POINT
  5
88
100
AcDbEntity
  8
0
390
0
  6
CONTINUOUS
 62
   170
100
AcDbPoint
 10
-100.75
 20
52.75
 30
0.0
  0
POINT
  5
89
100
AcDbEntity
  8
0
390
0
  6
CONTINUOUS
 62
   170
100
AcDbPoint
 10
-100.75
 20
38.25
 30
0.0
  0
POINT
  5
8A
100
AcDbEntity
  8
0
390
0
  6
CONTINUOUS
 62
   170
100
AcDbPoint
 10
-100.75
 20
23.75
 30
0.0
  0
POINT
  5
8B
100
AcDbEntity
  8
0
390
0
  6
CONTINUOUS
 62
   170
100
AcDbPoint
 10
-100.75
 20
9.25
 30
0.0
  0
POINT
  5
8C
100
AcDbEntity
  8
0
390
0
  6
CONTINUOUS
 62
   170
100
AcDbPoint
 10
-100.75
 20
-5.25
 30
0.0
  0
POINT
  5
8D
100
AcDbEntity
  8
0
390
0
  6
CONTINUOUS
 62
   170
100
AcDbPoint
 10
-100.75
 20
-19.75
 30
0.0
  0
POINT
  5
8E
100
AcDbEntity
  8
0
390
0
  6
CONTINUOUS
 62
   170
100
AcDbPoint
 10
-100.75
 20
-34.25
 30
0.0
  0
POINT
  5
8F
100
AcDbEntity
  8
0
390
0
  6
CONTINUOUS
 62
   170
100
AcDbPoint
 10
-100.75
 20
-48.75
 30
0.0
  0
POINT
  5
90
100
AcDbEntity
  8
0
390
0
  6
CONTINUOUS
 62
   170
100
AcDbPoint
 10
-100.75
 20
-63.25
 30
0.0
  0
POINT
  5
91
100
AcDbEntity
  8
0
390
0
  6
CONTINUOUS
 62
   170
100
AcDbPoint
 10
-100.75
 20
-77.75
 30
0.0
  0
POINT
  5
92
100
AcDbEntity
  8
0
390
0
  6
CONTINUOUS
 62
   170
100
AcDbPoint
 10
-73.25
 20
52.75
 30
0.0
  0
POINT
  5
93
100
AcDbEntity
  8
0
390
0
  6
CONTINUOUS
 62
   170
100
AcDbPoint
 10
-73.25
 20
23.75
 30
0.0
  0
POINT
  5
94
100
AcDbEntity
  8
0
390
0
  6
CONTINUOUS
 62
   170
100
AcDbPoint
 10
-73.25
 20
38.25
 30
0.0
  0
POINT
  5
95
100
AcDbEntity
  8
0
390
0
  6
CONTINUOUS
 62
   170
100
AcDbPoint
 10
-73.25
 20
9.25
 30
0.0
  0
POINT
  5
96
100
AcDbEntity
  8
0
390
0
  6
CONTINUOUS
 62
   170
100
AcDbPoint
 10
-73.25
 20
-5.25
 30
0.0
  0
POINT
  5
97
100
AcDbEntity
  8
0
390
0
  6
CONTINUOUS
 62
   170
100
AcDbPoint
 10
-73.25
 20
-19.75
 30
0.0
  0
POINT
  5
98
100
AcDbEntity
  8
0
390
0
  6
CONTINUOUS
 62
   170
100
AcDbPoint
 10
-73.25
 20
-34.25
 30
0.0
  0
POINT
  5
99
100
AcDbEntity
  8
0
390
0
  6
CONTINUOUS
 62
   170
100
AcDbPoint
 10
-73.25
 20
-48.75
 30
0.0
  0
POINT
  5
9A
100
AcDbEntity
  8
0
390
0
  6
CONTINUOUS
 62
   170
100
AcDbPoint
 10
-73.25
 20
-63.25
 30
0.0
  0
POINT
  5
9B
100
AcDbEntity
  8
0
390
0
  6
CONTINUOUS
 62
   170
100
AcDbPoint
 10
-73.25
 20
-77.75
 30
0.0
  0
POINT
  5
9C
100
AcDbEntity
  8
0
390
0
  6
CONTINUOUS
 62
   170
100
AcDbPoint
 10
-50.75
 20
52.75
 30
0.0
  0
POINT
  5
9D
100
AcDbEntity
  8
0
390
0
  6
CONTINUOUS
 62
   170
100
AcDbPoint
 10
-50.75
 20
38.25
 30
0.0
  0
POINT
  5
9E
100
AcDbEntity
  8
0
390
0
  6
CONTINUOUS
 62
   170
100
AcDbPoint
 10
-50.75
 20
23.75
 30
0.0
  0
POINT
  5
9F
100
AcDbEntity
  8
0
390
0
  6
CONTINUOUS
 62
   170
100
AcDbPoint
 10
-50.75
 20
9.25
 30
0.0
  0
POINT
  5
A0
100
AcDbEntity
  8
0
390
0
  6
CONTINUOUS
 62
   170
100
AcDbPoint
 10
-50.75
 20
-5.25
 30
0.0
  0
POINT
  5
A1
100
AcDbEntity
  8
0
390
0
  6
CONTINUOUS
 62
   170
100
AcDbPoint
 10
-50.75
 20
-19.75
 30
0.0
  0
POINT
  5
A2
100
AcDbEntity
  8
0
390
0
  6
CONTINUOUS
 62
   170
100
AcDbPoint
 10
-50.75
 20
-34.25
 30
0.0
  0
POINT
  5
A3
100
AcDbEntity
  8
0
390
0
  6
CONTINUOUS
 62
   170
100
AcDbPoint
 10
-50.75
 20
-48.75
 30
0.0
  0
POINT
  5
A4
100
AcDbEntity
  8
0
390
0
  6
CONTINUOUS
 62
   170
100
AcDbPoint
 10
-50.75
 20
-63.25
 30
0.0
  0
POINT
  5
A5
100
AcDbEntity
  8
0
390
0
  6
CONTINUOUS
 62
   170
100
AcDbPoint
 10
-50.75
 20
-77.75
 30
0.0
  0
POINT
  5
A6
100
AcDbEntity
  8
0
390
0
  6
CONTINUOUS
 62
   170
100
AcDbPoint
 10
-22.75
 20
52.75
 30
0.0
  0
POINT
  5
A7
100
AcDbEntity
  8
0
390
0
  6
CONTINUOUS
 62
   170
100
AcDbPoint
 10
-22.75
 20
38.25
 30
0.0
  0
POINT
  5
A8
100
AcDbEntity
  8
0
390
0
  6
CONTINUOUS
 62
   170
100
AcDbPoint
 10
-22.75
 20
23.75
 30
0.0
  0
POINT
  5
A9
100
AcDbEntity
  8
0
390
0
  6
CONTINUOUS
 62
   170
100
AcDbPoint
 10
-22.75
 20
9.25
 30
0.0
  0
POINT
  5
AA
100
AcDbEntity
  8
0
390
0
  6
CONTINUOUS
 62
   170
100
AcDbPoint
 10
-22.75
 20
-5.25
 30
0.0
  0
POINT
  5
AB
100
AcDbEntity
  8
0
390
0
  6
CONTINUOUS
 62
   170
100
AcDbPoint
 10
-22.75
 20
-19.75
 30
0.0
  0
POINT
  5
AC
100
AcDbEntity
  8
0
390
0
  6
CONTINUOUS
 62
   170
100
AcDbPoint
 10
-22.75
 20
-34.25
 30
0.0
  0
POINT
  5
AD
100
AcDbEntity
  8
0
390
0
  6
CONTINUOUS
 62
   170
100
AcDbPoint
 10
-22.75
 20
-48.75
 30
0.0
  0
POINT
  5
AE
100
AcDbEntity
  8
0
390
0
  6
CONTINUOUS
 62
   170
100
AcDbPoint
 10
-22.75
 20
-63.25
 30
0.0
  0
POINT
  5
AF
100
AcDbEntity
  8
0
390
0
  6
CONTINUOUS
 62
   170
100
AcDbPoint
 10
-22.75
 20
-77.75
 30
0.0
  0
ENDBLK
  5
B0
100
AcDbEntity
  8
0
370
    -2
390
0
100
AcDbBlockEnd
  0
BLOCK
  5
B1
100
AcDbEntity
  8
0
370
    -2
390
0
100
AcDbBlockBegin
  2
MS_2
 70
     0
 10
0.0
 20
0.0
 30
0.0
  3
MS_2
  1

  0
POINT
  5
B2
100
AcDbEntity
  8
0
390
0
  6
CONTINUOUS
 62
   170
100
AcDbPoint
 10
0.0
 20
0.0
 30
0.0
  0
POINT
  5
B3
100
AcDbEntity
  8
0
390
0
  6
CONTINUOUS
 62
   170
100
AcDbPoint
 10
0.0
 20
-7.0
 30
0.0
  0
LINE
  5
B4
100
AcDbEntity
  8
0
390
0
  6
CONTINUOUS
 62
   255
100
AcDbLine
 10
22.5
 20
3.5
 30
0.0
 11
22.5
 21
-3.5
 31
0.0
  0
LINE
  5
B5
100
AcDbEntity
  8
0
390
0
  6
CONTINUOUS
 62
   140
100
AcDbLine
 10
-22.5
 20
-10.5
 30
0.0
 11
22.5
 21
-10.5
 31
0.0
  0
LINE
  5
B6
100
AcDbEntity
  8
0
390
0
  6
CONTINUOUS
 62
   255
100
AcDbLine
 10
-22.5
 20
3.5
 30
0.0
 11
-22.5
 21
-3.5
 31
0.0
  0
LINE
  5
B7
100
AcDbEntity
  8
0
390
0
  6
CONTINUOUS
 62
   140
100
AcDbLine
 10
-22.5
 20
-3.5
 30
0.0
 11
22.5
 21
-3.5
 31
0.0
  0
LINE
  5
B8
100
AcDbEntity
  8
0
390
0
  6
CONTINUOUS
 62
   255
100
AcDbLine
 10
-22.5
 20
3.5
 30
0.0
 11
22.5
 21
3.5
 31
0.0
  0
LINE
  5
B9
100
AcDbEntity
  8
0
390
0
  6
CONTINUOUS
 62
   140
100
AcDbLine
 10
-22.5
 20
-3.5
 30
0.0
 11
-22.5
 21
-10.5
 31
0.0
  0
LINE
  5
BA
100
AcDbEntity
  8
0
390
0
  6
CONTINUOUS
 62
   140
100
AcDbLine
 10
22.5
 20
-3.5
 30
0.0
 11
22.5
 21
-10.5
 31
0.0
  0
MTEXT
  5
BB
100
AcDbEntity
  8
0
390
0
  6
CONTINUOUS
 62
   110
100
AcDbMText
 10
-17.066667
 20
1.6
 30
0.0
 40
3.2
 41
0.0
 71
     1
 72
     1
  1
\A1;----------*
 73
     1
 44
0.9
  0
MTEXT
  5
BC
100
AcDbEntity
  8
0
390
0
  6
CONTINUOUS
 62
   110
100
AcDbMText
 10
-9.155556
 20
-5.4
 30
0.0
 40
3.2
 41
0.0
 71
     1
 72
     1
  1
\W0.833000;\A1;製品関連図面
 73
     1
 44
0.9
  0
ENDBLK
  5
BD
100
AcDbEntity
  8
0
370
    -2
390
0
100
AcDbBlockEnd
  0
BLOCK
  5
BE
100
AcDbEntity
  8
0
370
    -2
390
0
100
AcDbBlockBegin
  2
VF2034
 70
     0
 10
0.0
 20
0.0
 30
0.0
  3
VF2034
  1

  0
LINE
  5
BF
100
AcDbEntity
  8
0
390
0
  6
CONTINUOUS
 62
   110
100
AcDbLine
 10
-92.800002
 20
32.0
 30
0.0
 11
-90.030002
 21
32.0
 31
0.0
  0
LINE
  5
C0
100
AcDbEntity
  8
0
390
0
  6
CONTINUOUS
 62
   110
100
AcDbLine
 10
-92.800002
 20
32.0
 30
0.0
 11
-90.030002
 21
32.742219
 31
0.0
  0
LINE
  5
C1
100
AcDbEntity
  8
0
390
0
  6
CONTINUOUS
 62
   110
100
AcDbLine
 10
-90.030002
 20
31.257781
 30
0.0
 11
-92.800002
 21
32.0
 31
0.0
  0
LINE
  5
C2
100
AcDbEntity
  8
0
390
0
  6
CONTINUOUS
 62
   110
100
AcDbLine
 10
-100.0
 20
32.0
 30
0.0
 11
-102.77
 21
32.0
 31
0.0
  0
LINE
  5
C3
100
AcDbEntity
  8
0
390
0
  6
CONTINUOUS
 62
   110
100
AcDbLine
 10
-100.0
 20
32.0
 30
0.0
 11
-102.77
 21
31.257781
 31
0.0
  0
LINE
  5
C4
100
AcDbEntity
  8
0
390
0
  6
CONTINUOUS
 62
   110
100
AcDbLine
 10
-102.77
 20
32.742219
 30
0.0
 11
-100.0
 21
32.0
 31
0.0
  0
MTEXT
  5
C5
100
AcDbEntity
  8
0
390
0
  6
CONTINUOUS
 62
   110
100
AcDbMText
 10
-108.0
 20
34.6
 30
0.0
 40
3.2
 41
0.0
 71
     5
 72
     1
  1
\T1.285714;\W1.011111;\A1;7.2
 73
     1
 44
0.9
  0
LINE
  5
C6
100
AcDbEntity
  8
0
390
0
  6
CONTINUOUS
 62
   110
100
AcDbLine
 10
-92.800002
 20
32.0
 30
0.0
 11
-88.800002
 21
32.0
 31
0.0
  0
LINE
  5
C7
100
AcDbEntity
  8
0
390
0
  6
CONTINUOUS
 62
   110
100
AcDbLine
 10
-100.0
 20
32.0
 30
0.0
 11
-104.0
 21
32.0
 31
0.0
  0
LINE
  5
C8
100
AcDbEntity
  8
0
390
0
  6
CONTINUOUS
 62
   110
100
AcDbLine
 10
-92.800002
 20
18.1
 30
0.0
 11
-92.800002
 21
34.286003
 31
0.0
  0
LINE
  5
C9
100
AcDbEntity
  8
0
390
0
  6
CONTINUOUS
 62
   110
100
AcDbLine
 10
-100.0
 20
18.1
 30
0.0
 11
-100.0
 21
34.286003
 31
0.0
  0
LINE
  5
CA
100
AcDbEntity
  8
0
390
0
  6
CONTINUOUS
 62
   110
100
AcDbLine
 10
-112.8
 20
32.0
 30
0.0
 11
-100.0
 21
32.0
 31
0.0
  0
LINE
  5
CB
100
AcDbEntity
  8
0
390
0
  6
CONTINUOUS
 62
   110
100
AcDbLine
 10
-100.0
 20
32.0
 30
0.0
 11
-92.800002
 21
32.0
 31
0.0
  0
LINE
  5
CC
100
AcDbEntity
  8
0
390
0
  6
CONTINUOUS
 62
   110
100
AcDbLine
 10
-50.000001
 20
40.0
 30
0.0
 11
-52.770001
 21
40.0
 31
0.0
  0
LINE
  5
CD
100
AcDbEntity
  8
0
390
0
  6
CONTINUOUS
 62
   110
100
AcDbLine
 10
-50.000001
 20
40.0
 30
0.0
 11
-52.770001
 21
39.257781
 31
0.0
  0
LINE
  5
CE
100
AcDbEntity
  8
0
390
0
  6
CONTINUOUS
 62
   110
100
AcDbLine
 10
-52.770001
 20
40.742219
 30
0.0
 11
-50.000001
 21
40.0
 31
0.0
  0
LINE
  5
CF
100
AcDbEntity
  8
0
390
0
  6
CONTINUOUS
 62
   110
100
AcDbLine
 10
-100.0
 20
40.0
 30
0.0
 11
-97.23
 21
40.0
 31
0.0
  0
LINE
  5
D0
100
AcDbEntity
  8
0
390
0
  6
CONTINUOUS
 62
   110
100
AcDbLine
 10
-100.0
 20
40.0
 30
0.0
 11
-97.23
 21
40.742219
 31
0.0
  0
LINE
  5
D1
100
AcDbEntity
  8
0
390
0
  6
CONTINUOUS
 62
   110
100
AcDbLine
 10
-97.23
 20
39.257781
 30
0.0
 11
-100.0
 21
40.0
 31
0.0
  0
MTEXT
  5
D2
100
AcDbEntity
  8
0
390
0
  6
CONTINUOUS
 62
   110
100
AcDbMText
 10
-75.0
 20
42.6
 30
0.0
 40
3.2
 41
0.0
 71
     5
 72
     1
  1
\W1.100000;\A1;50
 73
     1
 44
0.9
  0
LINE
  5
D3
100
AcDbEntity
  8
0
390
0
  6
CONTINUOUS
 62
   110
100
AcDbLine
 10
-50.000001
 20
20.25
 30
0.0
 11
-50.000001
 21
42.286
 31
0.0
  0
LINE
  5
D4
100
AcDbEntity
  8
0
390
0
  6
CONTINUOUS
 62
   110
100
AcDbLine
 10
-100.0
 20
40.0
 30
0.0
 11
-50.000001
 21
40.0
 31
0.0
  0
LINE
  5
D5
100
AcDbEntity
  8
0
390
0
  6
CONTINUOUS
 62
   110
100
AcDbLine
 10
50.000001
 20
40.0
 30
0.0
 11
47.230001
 21
40.0
 31
0.0
  0
LINE
  5
D6
100
AcDbEntity
  8
0
390
0
  6
CONTINUOUS
 62
   110
100
AcDbLine
 10
50.000001
 20
40.0
 30
0.0
 11
47.230001
 21
39.257781
 31
0.0
  0
LINE
  5
D7
100
AcDbEntity
  8
0
390
0
  6
CONTINUOUS
 62
   110
100
AcDbLine
 10
47.230001
 20
40.742219
 30
0.0
 11
50.000001
 21
40.0
 31
0.0
  0
LINE
  5
D8
100
AcDbEntity
  8
0
390
0
  6
CONTINUOUS
 62
   110
100
AcDbLine
 10
-50.000001
 20
40.0
 30
0.0
 11
-47.230001
 21
40.0
 31
0.0
  0
LINE
  5
D9
100
AcDbEntity
  8
0
390
0
  6
CONTINUOUS
 62
   110
100
AcDbLine
 10
-50.000001
 20
40.0
 30
0.0
 11
-47.230001
 21
40.742219
 31
0.0
  0
LINE
  5
DA
100
AcDbEntity
  8
0
390
0
  6
CONTINUOUS
 62
   110
100
AcDbLine
 10
-47.230001
 20
39.257781
 30
0.0
 11
-50.000001
 21
40.0
 31
0.0
  0
MTEXT
  5
DB
100
AcDbEntity
  8
0
390
0
  6
CONTINUOUS
 62
   110
100
AcDbMText
 10
-0.000001
 20
42.6
 30
0.0
 40
3.2
 41
0.0
 71
     5
 72
     1
  1
\W1.250000;\A1;(400)
 73
     1
 44
0.9
  0
LINE
  5
DC
100
AcDbEntity
  8
0
390
0
  6
CONTINUOUS
 62
   110
100
AcDbLine
 10
50.000001
 20
20.25
 30
0.0
 11
50.000001
 21
42.286
 31
0.0
  0
LINE
  5
DD
100
AcDbEntity
  8
0
390
0
  6
CONTINUOUS
 62
   110
100
AcDbLine
 10
-50.000001
 20
40.0
 30
0.0
 11
50.000001
 21
40.0
 31
0.0
  0
LINE
  5
DE
100
AcDbEntity
  8
0
390
0
  6
CONTINUOUS
 62
   110
100
AcDbLine
 10
-100.0
 20
48.0
 30
0.0
 11
-97.23
 21
48.0
 31
0.0
  0
LINE
  5
DF
100
AcDbEntity
  8
0
390
0
  6
CONTINUOUS
 62
   110
100
AcDbLine
 10
-100.0
 20
48.0
 30
0.0
 11
-97.23
 21
48.742219
 31
0.0
  0
LINE
  5
E0
100
AcDbEntity
  8
0
390
0
  6
CONTINUOUS
 62
   110
100
AcDbLine
 10
-97.23
 20
47.257781
 30
0.0
 11
-100.0
 21
48.0
 31
0.0
  0
LINE
  5
E1
100
AcDbEntity
  8
0
390
0
  6
CONTINUOUS
 62
   110
100
AcDbLine
 10
100.0
 20
48.0
 30
0.0
 11
97.23
 21
48.0
 31
0.0
  0
LINE
  5
E2
100
AcDbEntity
  8
0
390
0
  6
CONTINUOUS
 62
   110
100
AcDbLine
 10
100.0
 20
48.0
 30
0.0
 11
97.23
 21
47.257781
 31
0.0
  0
LINE
  5
E3
100
AcDbEntity
  8
0
390
0
  6
CONTINUOUS
 62
   110
100
AcDbLine
 10
97.23
 20
48.742219
 30
0.0
 11
100.0
 21
48.0
 31
0.0
  0
MTEXT
  5
E4
100
AcDbEntity
  8
0
390
0
  6
CONTINUOUS
 62
   110
100
AcDbMText
 10
0.0
 20
50.6
 30
0.0
 40
3.2
 41
0.0
 71
     5
 72
     1
  1
\A1;500±5%
 73
     1
 44
0.9
  0
LINE
  5
E5
100
AcDbEntity
  8
0
390
0
  6
CONTINUOUS
 62
   110
100
AcDbLine
 10
-100.0
 20
18.1
 30
0.0
 11
-100.0
 21
50.286
 31
0.0
  0
LINE
  5
E6
100
AcDbEntity
  8
0
390
0
  6
CONTINUOUS
 62
   110
100
AcDbLine
 10
100.0
 20
18.1
 30
0.0
 11
100.0
 21
50.286
 31
0.0
  0
LINE
  5
E7
100
AcDbEntity
  8
0
390
0
  6
CONTINUOUS
 62
   110
100
AcDbLine
 10
100.0
 20
48.0
 30
0.0
 11
-100.0
 21
48.0
 31
0.0
  0
LINE
  5
E8
100
AcDbEntity
  8
0
390
0
  6
CONTINUOUS
 62
   110
100
AcDbLine
 10
92.8
 20
32.0
 30
0.0
 11
90.03
 21
32.0
 31
0.0
  0
LINE
  5
E9
100
AcDbEntity
  8
0
390
0
  6
CONTINUOUS
 62
   110
100
AcDbLine
 10
92.8
 20
32.0
 30
0.0
 11
90.03
 21
31.257781
 31
0.0
  0
LINE
  5
EA
100
AcDbEntity
  8
0
390
0
  6
CONTINUOUS
 62
   110
100
AcDbLine
 10
90.03
 20
32.742219
 30
0.0
 11
92.8
 21
32.0
 31
0.0
  0
LINE
  5
EB
100
AcDbEntity
  8
0
390
0
  6
CONTINUOUS
 62
   110
100
AcDbLine
 10
100.0
 20
32.0
 30
0.0
 11
102.77
 21
32.0
 31
0.0
  0
LINE
  5
EC
100
AcDbEntity
  8
0
390
0
  6
CONTINUOUS
 62
   110
100
AcDbLine
 10
100.0
 20
32.0
 30
0.0
 11
102.77
 21
32.742219
 31
0.0
  0
LINE
  5
ED
100
AcDbEntity
  8
0
390
0
  6
CONTINUOUS
 62
   110
100
AcDbLine
 10
102.77
 20
31.257781
 30
0.0
 11
100.0
 21
32.0
 31
0.0
  0
MTEXT
  5
EE
100
AcDbEntity
  8
0
390
0
  6
CONTINUOUS
 62
   110
100
AcDbMText
 10
108.0
 20
34.6
 30
0.0
 40
3.2
 41
0.0
 71
     5
 72
     1
  1
\T1.285714;\W1.011111;\A1;7.2
 73
     1
 44
0.9
  0
LINE
  5
EF
100
AcDbEntity
  8
0
390
0
  6
CONTINUOUS
 62
   110
100
AcDbLine
 10
92.8
 20
32.0
 30
0.0
 11
88.8
 21
32.0
 31
0.0
  0
LINE
  5
F0
100
AcDbEntity
  8
0
390
0
  6
CONTINUOUS
 62
   110
100
AcDbLine
 10
100.0
 20
32.0
 30
0.0
 11
104.0
 21
32.0
 31
0.0
  0
LINE
  5
F1
100
AcDbEntity
  8
0
390
0
  6
CONTINUOUS
 62
   110
100
AcDbLine
 10
92.8
 20
18.099998
 30
0.0
 11
92.8
 21
34.286
 31
0.0
  0
LINE
  5
F2
100
AcDbEntity
  8
0
390
0
  6
CONTINUOUS
 62
   110
100
AcDbLine
 10
100.0
 20
18.1
 30
0.0
 11
100.0
 21
34.286
 31
0.0
  0
LINE
  5
F3
100
AcDbEntity
  8
0
390
0
  6
CONTINUOUS
 62
   110
100
AcDbLine
 10
112.8
 20
32.0
 30
0.0
 11
100.0
 21
32.0
 31
0.0
  0
LINE
  5
F4
100
AcDbEntity
  8
0
390
0
  6
CONTINUOUS
 62
   110
100
AcDbLine
 10
100.0
 20
32.0
 30
0.0
 11
92.8
 21
32.0
 31
0.0
  0
LINE
  5
F5
100
AcDbEntity
  8
0
390
0
  6
CONTINUOUS
 62
   110
100
AcDbLine
 10
-120.0
 20
-16.9
 30
0.0
 11
-120.0
 21
-14.13
 31
0.0
  0
LINE
  5
F6
100
AcDbEntity
  8
0
390
0
  6
CONTINUOUS
 62
   110
100
AcDbLine
 10
-120.0
 20
-16.9
 30
0.0
 11
-120.742219
 21
-14.13
 31
0.0
  0
LINE
  5
F7
100
AcDbEntity
  8
0
390
0
  6
CONTINUOUS
 62
   110
100
AcDbLine
 10
-119.257781
 20
-14.13
 30
0.0
 11
-120.0
 21
-16.9
 31
0.0
  0
LINE
  5
F8
100
AcDbEntity
  8
0
390
0
  6
CONTINUOUS
 62
   110
100
AcDbLine
 10
-120.0
 20
16.9
 30
0.0
 11
-120.0
 21
14.13
 31
0.0
  0
LINE
  5
F9
100
AcDbEntity
  8
0
390
0
  6
CONTINUOUS
 62
   110
100
AcDbLine
 10
-120.0
 20
16.9
 30
0.0
 11
-119.257781
 21
14.13
 31
0.0
  0
LINE
  5
FA
100
AcDbEntity
  8
0
390
0
  6
CONTINUOUS
 62
   110
100
AcDbLine
 10
-120.742219
 20
14.13
 30
0.0
 11
-120.0
 21
16.9
 31
0.0
  0
MTEXT
  5
FB
100
AcDbEntity
  8
0
390
0
  6
CONTINUOUS
 62
   110
100
AcDbMText
 10
-122.6
 20
0.0
 30
0.0
 40
3.2
 41
0.0
 71
     5
 72
     1
  1
\W1.100000;\A1;\U+220533.8
 11
0.0
 21
1.0
 31
0.0
 73
     1
 44
0.9
  0
LINE
  5
FC
100
AcDbEntity
  8
0
390
0
  6
CONTINUOUS
 62
   110
100
AcDbLine
 10
-101.200003
 20
-16.9
 30
0.0
 11
-122.286
 21
-16.9
 31
0.0
  0
LINE
  5
FD
100
AcDbEntity
  8
0
390
0
  6
CONTINUOUS
 62
   110
100
AcDbLine
 10
-101.200003
 20
16.9
 30
0.0
 11
-122.286
 21
16.9
 31
0.0
  0
LINE
  5
FE
100
AcDbEntity
  8
0
390
0
  6
CONTINUOUS
 62
   110
100
AcDbLine
 10
-120.0
 20
16.9
 30
0.0
 11
-120.0
 21
-16.9
 31
0.0
  0
LINE
  5
FF
100
AcDbEntity
  8
0
390
0
  6
CONTINUOUS
 62
   110
100
AcDbLine
 10
-112.0
 20
-13.5
 30
0.0
 11
-112.0
 21
-10.73
 31
0.0
  0
LINE
  5
100
100
AcDbEntity
  8
0
390
0
  6
CONTINUOUS
 62
   110
100
AcDbLine
 10
-112.0
 20
-13.5
 30
0.0
 11
-112.742219
 21
-10.73
 31
0.0
  0
LINE
  5
101
100
AcDbEntity
  8
0
390
0
  6
CONTINUOUS
 62
   110
100
AcDbLine
 10
-111.257781
 20
-10.73
 30
0.0
 11
-112.0
 21
-13.5
 31
0.0
  0
LINE
  5
102
100
AcDbEntity
  8
0
390
0
  6
CONTINUOUS
 62
   110
100
AcDbLine
 10
-112.0
 20
13.5
 30
0.0
 11
-112.0
 21
10.73
 31
0.0
  0
LINE
  5
103
100
AcDbEntity
  8
0
390
0
  6
CONTINUOUS
 62
   110
100
AcDbLine
 10
-112.0
 20
13.5
 30
0.0
 11
-111.257781
 21
10.73
 31
0.0
  0
LINE
  5
104
100
AcDbEntity
  8
0
390
0
  6
CONTINUOUS
 62
   110
100
AcDbLine
 10
-112.742219
 20
10.73
 30
0.0
 11
-112.0
 21
13.5
 31
0.0
  0
MTEXT
  5
105
100
AcDbEntity
  8
0
390
0
  6
CONTINUOUS
 62
   110
100
AcDbMText
 10
-114.6
 20
0.0
 30
0.0
 40
3.2
 41
0.0
 71
     5
 72
     1
  1
\A1;PCD27
 11
0.0
 21
1.0
 31
0.0
 73
     1
 44
0.9
  0
LINE
  5
106
100
AcDbEntity
  8
0
390
0
  6
CONTINUOUS
 62
   110
100
AcDbLine
 10
-105.0
 20
-13.5
 30
0.0
 11
-114.286
 21
-13.5
 31
0.0
  0
LINE
  5
107
100
AcDbEntity
  8
0
390
0
  6
CONTINUOUS
 62
   110
100
AcDbLine
 10
-105.0
 20
13.5
 30
0.0
 11
-114.286
 21
13.5
 31
0.0
  0
LINE
  5
108
100
AcDbEntity
  8
0
390
0
  6
CONTINUOUS
 62
   110
100
AcDbLine
 10
-112.0
 20
13.5
 30
0.0
 11
-112.0
 21
-13.5
 31
0.0
  0
LINE
  5
109
100
AcDbEntity
  8
0
390
0
  6
CONTINUOUS
 62
   110
100
AcDbLine
 10
-72.0
 20
9.0
 30
0.0
 11
-72.0
 21
6.23
 31
0.0
  0
LINE
  5
10A
100
AcDbEntity
  8
0
390
0
  6
CONTINUOUS
 62
   110
100
AcDbLine
 10
-72.0
 20
9.0
 30
0.0
 11
-71.257781
 21
6.23
 31
0.0
  0
LINE
  5
10B
100
AcDbEntity
  8
0
390
0
  6
CONTINUOUS
 62
   110
100
AcDbLine
 10
-72.742219
 20
6.23
 30
0.0
 11
-72.0
 21
9.0
 31
0.0
  0
LINE
  5
10C
100
AcDbEntity
  8
0
390
0
  6
CONTINUOUS
 62
   110
100
AcDbLine
 10
-72.0
 20
-9.0
 30
0.0
 11
-72.0
 21
-6.23
 31
0.0
  0
LINE
  5
10D
100
AcDbEntity
  8
0
390
0
  6
CONTINUOUS
 62
   110
100
AcDbLine
 10
-72.0
 20
-9.0
 30
0.0
 11
-72.742219
 21
-6.23
 31
0.0
  0
LINE
  5
10E
100
AcDbEntity
  8
0
390
0
  6
CONTINUOUS
 62
   110
100
AcDbLine
 10
-71.257781
 20
-6.23
 30
0.0
 11
-72.0
 21
-9.0
 31
0.0
  0
MTEXT
  5
10F
100
AcDbEntity
  8
0
390
0
  6
CONTINUOUS
 62
   110
100
AcDbMText
 10
-74.6
 20
0.0
 30
0.0
 40
3.2
 41
0.0
 71
     5
 72
     1
  1
\W1.050000;\A1;\U+220518
 11
0.0
 21
1.0
 31
0.0
 73
     1
 44
0.9
  0
LINE
  5
110
100
AcDbEntity
  8
0
390
0
  6
CONTINUOUS
 62
   110
100
AcDbLine
 10
-72.0
 20
-9.0
 30
0.0
 11
-72.0
 21
9.0
 31
0.0
  0
LINE
  5
111
100
AcDbEntity
  8
0
390
0
  6
CONTINUOUS
 62
   110
100
AcDbLine
 10
-16.0
 20
-17.0
 30
0.0
 11
-16.0
 21
-14.23
 31
0.0
  0
LINE
  5
112
100
AcDbEntity
  8
0
390
0
  6
CONTINUOUS
 62
   110
100
AcDbLine
 10
-16.0
 20
-17.0
 30
0.0
 11
-16.742219
 21
-14.23
 31
0.0
  0
LINE
  5
113
100
AcDbEntity
  8
0
390
0
  6
CONTINUOUS
 62
   110
100
AcDbLine
 10
-15.257781
 20
-14.23
 30
0.0
 11
-16.0
 21
-17.0
 31
0.0
  0
LINE
  5
114
100
AcDbEntity
  8
0
390
0
  6
CONTINUOUS
 62
   110
100
AcDbLine
 10
-16.0
 20
17.0
 30
0.0
 11
-16.0
 21
14.23
 31
0.0
  0
LINE
  5
115
100
AcDbEntity
  8
0
390
0
  6
CONTINUOUS
 62
   110
100
AcDbLine
 10
-16.0
 20
17.0
 30
0.0
 11
-15.257781
 21
14.23
 31
0.0
  0
LINE
  5
116
100
AcDbEntity
  8
0
390
0
  6
CONTINUOUS
 62
   110
100
AcDbLine
 10
-16.742219
 20
14.23
 30
0.0
 11
-16.0
 21
17.0
 31
0.0
  0
MTEXT
  5
117
100
AcDbEntity
  8
0
390
0
  6
CONTINUOUS
 62
   110
100
AcDbMText
 10
-18.6
 20
0.0
 30
0.0
 40
3.2
 41
0.0
 71
     5
 72
     1
  1
\W0.950000;\A1;\U+220534
 11
0.0
 21
1.0
 31
0.0
 73
     1
 44
0.9
  0
LINE
  5
118
100
AcDbEntity
  8
0
390
0
  6
CONTINUOUS
 62
   110
100
AcDbLine
 10
-16.0
 20
17.0
 30
0.0
 11
-16.0
 21
-17.0
 31
0.0
  0
LINE
  5
119
100
AcDbEntity
  8
0
390
0
  6
CONTINUOUS
 62
   110
100
AcDbLine
 10
-24.0
 20
12.75
 30
0.0
 11
-24.0
 21
9.98
 31
0.0
  0
LINE
  5
11A
100
AcDbEntity
  8
0
390
0
  6
CONTINUOUS
 62
   110
100
AcDbLine
 10
-24.0
 20
12.75
 30
0.0
 11
-23.257781
 21
9.98
 31
0.0
  0
LINE
  5
11B
100
AcDbEntity
  8
0
390
0
  6
CONTINUOUS
 62
   110
100
AcDbLine
 10
-24.742219
 20
9.98
 30
0.0
 11
-24.0
 21
12.75
 31
0.0
  0
LINE
  5
11C
100
AcDbEntity
  8
0
390
0
  6
CONTINUOUS
 62
   110
100
AcDbLine
 10
-24.0
 20
-12.75
 30
0.0
 11
-24.0
 21
-9.98
 31
0.0
  0
LINE
  5
11D
100
AcDbEntity
  8
0
390
0
  6
CONTINUOUS
 62
   110
100
AcDbLine
 10
-24.0
 20
-12.75
 30
0.0
 11
-24.742219
 21
-9.98
 31
0.0
  0
LINE
  5
11E
100
AcDbEntity
  8
0
390
0
  6
CONTINUOUS
 62
   110
100
AcDbLine
 10
-23.257781
 20
-9.98
 30
0.0
 11
-24.0
 21
-12.75
 31
0.0
  0
MTEXT
  5
11F
100
AcDbEntity
  8
0
390
0
  6
CONTINUOUS
 62
   110
100
AcDbMText
 10
-26.6
 20
0.0
 30
0.0
 40
3.2
 41
0.0
 71
     5
 72
     1
  1
\W1.100000;\A1;\U+220525.5
 11
0.0
 21
1.0
 31
0.0
 73
     1
 44
0.9
  0
LINE
  5
120
100
AcDbEntity
  8
0
390
0
  6
CONTINUOUS
 62
   110
100
AcDbLine
 10
-24.0
 20
-12.75
 30
0.0
 11
-24.0
 21
12.75
 31
0.0
  0
LINE
  5
121
100
AcDbEntity
  8
0
390
0
  6
CONTINUOUS
 62
   110
100
AcDbLine
 10
100.0
 20
40.0
 30
0.0
 11
97.23
 21
40.0
 31
0.0
  0
LINE
  5
122
100
AcDbEntity
  8
0
390
0
  6
CONTINUOUS
 62
   110
100
AcDbLine
 10
100.0
 20
40.0
 30
0.0
 11
97.23
 21
39.257781
 31
0.0
  0
LINE
  5
123
100
AcDbEntity
  8
0
390
0
  6
CONTINUOUS
 62
   110
100
AcDbLine
 10
97.23
 20
40.742219
 30
0.0
 11
100.0
 21
40.0
 31
0.0
  0
LINE
  5
124
100
AcDbEntity
  8
0
390
0
  6
CONTINUOUS
 62
   110
100
AcDbLine
 10
50.000001
 20
40.0
 30
0.0
 11
52.770001
 21
40.0
 31
0.0
  0
LINE
  5
125
100
AcDbEntity
  8
0
390
0
  6
CONTINUOUS
 62
   110
100
AcDbLine
 10
50.000001
 20
40.0
 30
0.0
 11
52.770001
 21
40.742219
 31
0.0
  0
LINE
  5
126
100
AcDbEntity
  8
0
390
0
  6
CONTINUOUS
 62
   110
100
AcDbLine
 10
52.770001
 20
39.257781
 30
0.0
 11
50.000001
 21
40.0
 31
0.0
  0
MTEXT
  5
127
100
AcDbEntity
  8
0
390
0
  6
CONTINUOUS
 62
   110
100
AcDbMText
 10
75.000001
 20
42.6
 30
0.0
 40
3.2
 41
0.0
 71
     5
 72
     1
  1
\W1.100000;\A1;50
 73
     1
 44
0.9
  0
LINE
  5
128
100
AcDbEntity
  8
0
390
0
  6
CONTINUOUS
 62
   110
100
AcDbLine
 10
50.000001
 20
40.0
 30
0.0
 11
100.0
 21
40.0
 31
0.0
  0
ARC
  5
129
100
AcDbEntity
  8
0
390
0
  6
CONTINUOUS
 62
     3
100
AcDbCircle
 10
39.875001
 20
-13.875
 30
0.0
 40
1.125
100
AcDbArc
 50
0.0
 51
180.0
  0
ARC
  5
12A
100
AcDbEntity
  8
0
390
0
  6
CONTINUOUS
 62
     3
100
AcDbCircle
 10
42.125001
 20
-15.875
 30
0.0
 40
1.125
100
AcDbArc
 50
180.0
 51
0.0
  0
ARC
  5
12B
100
AcDbEntity
  8
0
390
0
  6
CONTINUOUS
 62
     3
100
AcDbCircle
 10
44.375001
 20
-13.875
 30
0.0
 40
1.125
100
AcDbArc
 50
0.0
 51
180.0
  0
ARC
  5
12C
100
AcDbEntity
  8
0
390
0
  6
CONTINUOUS
 62
     3
100
AcDbCircle
 10
46.625001
 20
-15.875
 30
0.0
 40
1.125
100
AcDbArc
 50
180.0
 51
0.0
  0
ARC
  5
12D
100
AcDbEntity
  8
0
390
0
  6
CONTINUOUS
 62
     3
100
AcDbCircle
 10
48.875001
 20
-13.875
 30
0.0
 40
1.125
100
AcDbArc
 50
0.0
 51
180.0
  0
ARC
  5
12E
100
AcDbEntity
  8
0
390
0
  6
CONTINUOUS
 62
     3
100
AcDbCircle
 10
-37.625001
 20
-15.875
 30
0.0
 40
1.125
100
AcDbArc
 50
180.0
 51
0.0
  0
ARC
  5
12F
100
AcDbEntity
  8
0
390
0
  6
CONTINUOUS
 62
     3
100
AcDbCircle
 10
-39.875001
 20
-13.875
 30
0.0
 40
1.125
100
AcDbArc
 50
0.0
 51
180.0
  0
ARC
  5
130
100
AcDbEntity
  8
0
390
0
  6
CONTINUOUS
 62
     3
100
AcDbCircle
 10
-42.125001
 20
-15.875
 30
0.0
 40
1.125
100
AcDbArc
 50
180.0
 51
0.0
  0
ARC
  5
131
100
AcDbEntity
  8
0
390
0
  6
CONTINUOUS
 62
     3
100
AcDbCircle
 10
-44.375001
 20
-13.875
 30
0.0
 40
1.125
100
AcDbArc
 50
0.0
 51
180.0
  0
ARC
  5
132
100
AcDbEntity
  8
0
390
0
  6
CONTINUOUS
 62
     3
100
AcDbCircle
 10
-46.625001
 20
-15.875
 30
0.0
 40
1.125
100
AcDbArc
 50
180.0
 51
0.0
  0
ARC
  5
133
100
AcDbEntity
  8
0
390
0
  6
CONTINUOUS
 62
     3
100
AcDbCircle
 10
-48.875001
 20
-13.875
 30
0.0
 40
1.125
100
AcDbArc
 50
0.0
 51
180.0
  0
ARC
  5
134
100
AcDbEntity
  8
0
390
0
  6
CONTINUOUS
 62
     3
100
AcDbCircle
 10
37.625001
 20
-15.875
 30
0.0
 40
1.125
100
AcDbArc
 50
180.0
 51
0.0
  0
ARC
  5
135
100
AcDbEntity
  8
0
390
0
  6
CONTINUOUS
 62
     3
100
AcDbCircle
 10
37.625001
 20
15.875
 30
0.0
 40
1.125
100
AcDbArc
 50
0.0
 51
180.0
  0
ARC
  5
136
100
AcDbEntity
  8
0
390
0
  6
CONTINUOUS
 62
     3
100
AcDbCircle
 10
39.875001
 20
13.875
 30
0.0
 40
1.125
100
AcDbArc
 50
180.0
 51
0.0
  0
ARC
  5
137
100
AcDbEntity
  8
0
390
0
  6
CONTINUOUS
 62
     3
100
AcDbCircle
 10
42.125001
 20
15.875
 30
0.0
 40
1.125
100
AcDbArc
 50
0.0
 51
180.0
  0
ARC
  5
138
100
AcDbEntity
  8
0
390
0
  6
CONTINUOUS
 62
     3
100
AcDbCircle
 10
44.375001
 20
13.875
 30
0.0
 40
1.125
100
AcDbArc
 50
180.0
 51
0.0
  0
ARC
  5
139
100
AcDbEntity
  8
0
390
0
  6
CONTINUOUS
 62
     3
100
AcDbCircle
 10
46.625001
 20
15.875
 30
0.0
 40
1.125
100
AcDbArc
 50
0.0
 51
180.0
  0
ARC
  5
13A
100
AcDbEntity
  8
0
390
0
  6
CONTINUOUS
 62
     3
100
AcDbCircle
 10
48.875001
 20
13.875
 30
0.0
 40
1.125
100
AcDbArc
 50
180.0
 51
0.0
  0
ARC
  5
13B
100
AcDbEntity
  8
0
390
0
  6
CONTINUOUS
 62
     3
100
AcDbCircle
 10
-37.625001
 20
15.875
 30
0.0
 40
1.125
100
AcDbArc
 50
0.0
 51
180.0
  0
ARC
  5
13C
100
AcDbEntity
  8
0
390
0
  6
CONTINUOUS
 62
     3
100
AcDbCircle
 10
-39.875001
 20
13.875
 30
0.0
 40
1.125
100
AcDbArc
 50
180.0
 51
0.0
  0
ARC
  5
13D
100
AcDbEntity
  8
0
390
0
  6
CONTINUOUS
 62
     3
100
AcDbCircle
 10
-42.125001
 20
15.875
 30
0.0
 40
1.125
100
AcDbArc
 50
0.0
 51
180.0
  0
ARC
  5
13E
100
AcDbEntity
  8
0
390
0
  6
CONTINUOUS
 62
     3
100
AcDbCircle
 10
-44.375001
 20
13.875
 30
0.0
 40
1.125
100
AcDbArc
 50
180.0
 51
0.0
  0
ARC
  5
13F
100
AcDbEntity
  8
0
390
0
  6
CONTINUOUS
 62
     3
100
AcDbCircle
 10
-46.625001
 20
15.875
 30
0.0
 40
1.125
100
AcDbArc
 50
0.0
 51
180.0
  0
ARC
  5
140
100
AcDbEntity
  8
0
390
0
  6
CONTINUOUS
 62
     3
100
AcDbCircle
 10
-48.875001
 20
13.875
 30
0.0
 40
1.125
100
AcDbArc
 50
180.0
 51
0.0
  0
ARC
  5
141
100
AcDbEntity
  8
0
390
0
  6
CONTINUOUS
 62
     3
100
AcDbCircle
 10
55.000001
 20
11.0
 30
0.0
 40
2.0
100
AcDbArc
 50
180.0
 51
270.0
  0
ARC
  5
142
100
AcDbEntity
  8
0
390
0
  6
CONTINUOUS
 62
     3
100
AcDbCircle
 10
55.000001
 20
-11.0
 30
0.0
 40
2.0
100
AcDbArc
 50
90.0
 51
180.0
  0
ARC
  5
143
100
AcDbEntity
  8
0
390
0
  6
CONTINUOUS
 62
     3
100
AcDbCircle
 10
-55.000001
 20
-11.0
 30
0.0
 40
2.0
100
AcDbArc
 50
0.0
 51
90.0
  0
ARC
  5
144
100
AcDbEntity
  8
0
390
0
  6
CONTINUOUS
 62
     3
100
AcDbCircle
 10
-55.000001
 20
11.0
 30
0.0
 40
2.0
100
AcDbArc
 50
270.0
 51
0.0
  0
ARC
  5
145
100
AcDbEntity
  8
0
390
0
  6
CONTINUOUS
 62
     3
100
AcDbCircle
 10
-99.192883
 20
10.45
 30
0.0
 40
0.25
100
AcDbArc
 50
339.999886
 51
89.999946
  0
ARC
  5
146
100
AcDbEntity
  8
0
390
0
  6
CONTINUOUS
 62
     3
100
AcDbCircle
 10
-99.192883
 20
-10.45
 30
0.0
 40
0.25
100
AcDbArc
 50
269.999982
 51
20.000042
  0
LINE
  5
148
100
AcDbEntity
  8
0
390
0
  6
CENTER
 62
   110
100
AcDbLine
 10
-70.0
 20
0.0
 30
0.0
 11
-32.0
 21
0.0
 31
0.0
  0
LINE
  5
149
100
AcDbEntity
  8
0
390
0
  6
CENTER
 62
   110
100
AcDbLine
 10
-14.0
 20
0.0
 30
0.0
 11
105.0
 21
0.0
 31
0.0
  0
LINE
  5
14B
100
AcDbEntity
  8
0
390
0
  6
PHANTOM
 62
   110
100
AcDbLine
 10
4.520699
 20
17.0
 30
0.0
 11
37.625001
 21
17.0
 31
0.0
  0
LINE
  5
14C
100
AcDbEntity
  8
0
390
0
  6
PHANTOM
 62
   110
100
AcDbLine
 10
3.771309
 20
12.75
 30
0.0
 11
39.875001
 21
12.75
 31
0.0
  0
LINE
  5
14D
100
AcDbEntity
  8
0
390
0
  6
PHANTOM
 62
   110
100
AcDbLine
 10
-0.725029
 20
-12.75
 30
0.0
 11
39.875001
 21
-12.75
 31
0.0
  0
LINE
  5
14E
100
AcDbEntity
  8
0
390
0
  6
PHANTOM
 62
   110
100
AcDbLine
 10
-1.474419
 20
-17.0
 30
0.0
 11
37.625001
 21
-17.0
 31
0.0
  0
LINE
  5
14F
100
AcDbEntity
  8
0
390
0
  6
CENTER
 62
   110
100
AcDbLine
 10
-2.0034
 20
-20.0
 30
0.0
 11
5.04968
 21
20.0
 31
0.0
  0
LINE
  5
150
100
AcDbEntity
  8
0
390
0
  6
CENTER
 62
   110
100
AcDbLine
 10
-5.04968
 20
-20.0
 30
0.0
 11
2.0034
 21
20.0
 31
0.0
  0
LINE
  5
151
100
AcDbEntity
  8
0
390
0
  6
CONTINUOUS
 62
     3
100
AcDbLine
 10
36.500001
 20
-15.875
 30
0.0
 11
36.500001
 21
-13.875
 31
0.0
  0
LINE
  5
152
100
AcDbEntity
  8
0
390
0
  6
CONTINUOUS
 62
     3
100
AcDbLine
 10
38.750001
 20
-15.875
 30
0.0
 11
38.750001
 21
-13.875
 31
0.0
  0
LINE
  5
153
100
AcDbEntity
  8
0
390
0
  6
CONTINUOUS
 62
     3
100
AcDbLine
 10
41.000001
 20
-15.875
 30
0.0
 11
41.000001
 21
-13.875
 31
0.0
  0
LINE
  5
154
100
AcDbEntity
  8
0
390
0
  6
CONTINUOUS
 62
     3
100
AcDbLine
 10
43.250001
 20
-15.875
 30
0.0
 11
43.250001
 21
-13.875
 31
0.0
  0
LINE
  5
155
100
AcDbEntity
  8
0
390
0
  6
CONTINUOUS
 62
     3
100
AcDbLine
 10
45.500001
 20
-15.875
 30
0.0
 11
45.500001
 21
-13.875
 31
0.0
  0
LINE
  5
156
100
AcDbEntity
  8
0
390
0
  6
CONTINUOUS
 62
     3
100
AcDbLine
 10
47.750001
 20
-15.875
 30
0.0
 11
47.750001
 21
-13.875
 31
0.0
  0
LINE
  5
157
100
AcDbEntity
  8
0
390
0
  6
PHANTOM
 62
   110
100
AcDbLine
 10
-37.625001
 20
-17.0
 30
0.0
 11
-4.520699
 21
-17.0
 31
0.0
  0
LINE
  5
158
100
AcDbEntity
  8
0
390
0
  6
PHANTOM
 62
   110
100
AcDbLine
 10
-39.875001
 20
-12.75
 30
0.0
 11
-3.771309
 21
-12.75
 31
0.0
  0
LINE
  5
159
100
AcDbEntity
  8
0
390
0
  6
CONTINUOUS
 62
     3
100
AcDbLine
 10
-36.500001
 20
-15.875
 30
0.0
 11
-36.500001
 21
-13.875
 31
0.0
  0
LINE
  5
15A
100
AcDbEntity
  8
0
390
0
  6
CONTINUOUS
 62
     3
100
AcDbLine
 10
-38.750001
 20
-15.875
 30
0.0
 11
-38.750001
 21
-13.875
 31
0.0
  0
LINE
  5
15B
100
AcDbEntity
  8
0
390
0
  6
CONTINUOUS
 62
     3
100
AcDbLine
 10
-41.000001
 20
-15.875
 30
0.0
 11
-41.000001
 21
-13.875
 31
0.0
  0
LINE
  5
15C
100
AcDbEntity
  8
0
390
0
  6
CONTINUOUS
 62
     3
100
AcDbLine
 10
-43.250001
 20
-15.875
 30
0.0
 11
-43.250001
 21
-13.875
 31
0.0
  0
LINE
  5
15D
100
AcDbEntity
  8
0
390
0
  6
CONTINUOUS
 62
     3
100
AcDbLine
 10
-45.500001
 20
-15.875
 30
0.0
 11
-45.500001
 21
-13.875
 31
0.0
  0
LINE
  5
15E
100
AcDbEntity
  8
0
390
0
  6
CONTINUOUS
 62
     3
100
AcDbLine
 10
-47.750001
 20
-15.875
 30
0.0
 11
-47.750001
 21
-13.875
 31
0.0
  0
LINE
  5
15F
100
AcDbEntity
  8
0
390
0
  6
CONTINUOUS
 62
     3
100
AcDbLine
 10
36.500001
 20
15.875
 30
0.0
 11
36.500001
 21
13.875
 31
0.0
  0
LINE
  5
160
100
AcDbEntity
  8
0
390
0
  6
CONTINUOUS
 62
     3
100
AcDbLine
 10
38.750001
 20
15.875
 30
0.0
 11
38.750001
 21
13.875
 31
0.0
  0
LINE
  5
161
100
AcDbEntity
  8
0
390
0
  6
CONTINUOUS
 62
     3
100
AcDbLine
 10
41.000001
 20
15.875
 30
0.0
 11
41.000001
 21
13.875
 31
0.0
  0
LINE
  5
162
100
AcDbEntity
  8
0
390
0
  6
CONTINUOUS
 62
     3
100
AcDbLine
 10
43.250001
 20
15.875
 30
0.0
 11
43.250001
 21
13.875
 31
0.0
  0
LINE
  5
163
100
AcDbEntity
  8
0
390
0
  6
CONTINUOUS
 62
     3
100
AcDbLine
 10
45.500001
 20
15.875
 30
0.0
 11
45.500001
 21
13.875
 31
0.0
  0
LINE
  5
164
100
AcDbEntity
  8
0
390
0
  6
CONTINUOUS
 62
     3
100
AcDbLine
 10
47.750001
 20
15.875
 30
0.0
 11
47.750001
 21
13.875
 31
0.0
  0
LINE
  5
165
100
AcDbEntity
  8
0
390
0
  6
PHANTOM
 62
   110
100
AcDbLine
 10
-37.625001
 20
17.0
 30
0.0
 11
1.474419
 21
17.0
 31
0.0
  0
LINE
  5
166
100
AcDbEntity
  8
0
390
0
  6
PHANTOM
 62
   110
100
AcDbLine
 10
-39.875001
 20
12.75
 30
0.0
 11
0.725029
 21
12.75
 31
0.0
  0
LINE
  5
167
100
AcDbEntity
  8
0
390
0
  6
CONTINUOUS
 62
     3
100
AcDbLine
 10
-36.500001
 20
15.875
 30
0.0
 11
-36.500001
 21
13.875
 31
0.0
  0
LINE
  5
168
100
AcDbEntity
  8
0
390
0
  6
CONTINUOUS
 62
     3
100
AcDbLine
 10
-38.750001
 20
15.875
 30
0.0
 11
-38.750001
 21
13.875
 31
0.0
  0
LINE
  5
169
100
AcDbEntity
  8
0
390
0
  6
CONTINUOUS
 62
     3
100
AcDbLine
 10
-41.000001
 20
15.875
 30
0.0
 11
-41.000001
 21
13.875
 31
0.0
  0
LINE
  5
16A
100
AcDbEntity
  8
0
390
0
  6
CONTINUOUS
 62
     3
100
AcDbLine
 10
-43.250001
 20
15.875
 30
0.0
 11
-43.250001
 21
13.875
 31
0.0
  0
LINE
  5
16B
100
AcDbEntity
  8
0
390
0
  6
CONTINUOUS
 62
     3
100
AcDbLine
 10
-45.500001
 20
15.875
 30
0.0
 11
-45.500001
 21
13.875
 31
0.0
  0
LINE
  5
16C
100
AcDbEntity
  8
0
390
0
  6
CONTINUOUS
 62
     3
100
AcDbLine
 10
-47.750001
 20
15.875
 30
0.0
 11
-47.750001
 21
13.875
 31
0.0
  0
LINE
  5
16D
100
AcDbEntity
  8
0
390
0
  6
CONTINUOUS
 62
     3
100
AcDbLine
 10
50.600001
 20
-18.25
 30
0.0
 11
53.000001
 21
-14.093078
 31
0.0
  0
LINE
  5
16E
100
AcDbEntity
  8
0
390
0
  6
CONTINUOUS
 62
     3
100
AcDbLine
 10
53.000001
 20
-11.0
 30
0.0
 11
53.000001
 21
-14.093078
 31
0.0
  0
LINE
  5
16F
100
AcDbEntity
  8
0
390
0
  6
CONTINUOUS
 62
     3
100
AcDbLine
 10
50.600001
 20
-18.25
 30
0.0
 11
50.000001
 21
-18.25
 31
0.0
  0
LINE
  5
170
100
AcDbEntity
  8
0
390
0
  6
CONTINUOUS
 62
     3
100
AcDbLine
 10
88.800001
 20
-8.0
 30
0.0
 11
50.000001
 21
-8.0
 31
0.0
  0
LINE
  5
171
100
AcDbEntity
  8
0
390
0
  6
CONTINUOUS
 62
     3
100
AcDbLine
 10
88.800001
 20
-9.0
 30
0.0
 11
55.000001
 21
-9.0
 31
0.0
  0
LINE
  5
172
100
AcDbEntity
  8
0
390
0
  6
CONTINUOUS
 62
     3
100
AcDbLine
 10
50.000001
 20
18.25
 30
0.0
 11
50.000001
 21
-18.25
 31
0.0
  0
LINE
  5
173
100
AcDbEntity
  8
0
390
0
  6
CONTINUOUS
 62
     3
100
AcDbLine
 10
50.600001
 20
18.25
 30
0.0
 11
53.000001
 21
14.093078
 31
0.0
  0
LINE
  5
174
100
AcDbEntity
  8
0
390
0
  6
CONTINUOUS
 62
     3
100
AcDbLine
 10
53.000001
 20
11.0
 30
0.0
 11
53.000001
 21
14.093078
 31
0.0
  0
LINE
  5
175
100
AcDbEntity
  8
0
390
0
  6
CONTINUOUS
 62
     3
100
AcDbLine
 10
50.600001
 20
18.25
 30
0.0
 11
50.000001
 21
18.25
 31
0.0
  0
LINE
  5
176
100
AcDbEntity
  8
0
390
0
  6
CONTINUOUS
 62
     3
100
AcDbLine
 10
88.800001
 20
8.0
 30
0.0
 11
50.000001
 21
8.0
 31
0.0
  0
LINE
  5
177
100
AcDbEntity
  8
0
390
0
  6
CONTINUOUS
 62
     3
100
AcDbLine
 10
88.800001
 20
9.0
 30
0.0
 11
55.000001
 21
9.0
 31
0.0
  0
LINE
  5
178
100
AcDbEntity
  8
0
390
0
  6
CONTINUOUS
 62
     3
100
AcDbLine
 10
-50.600001
 20
-18.25
 30
0.0
 11
-53.000001
 21
-14.093078
 31
0.0
  0
LINE
  5
179
100
AcDbEntity
  8
0
390
0
  6
CONTINUOUS
 62
     3
100
AcDbLine
 10
-53.000001
 20
-11.0
 30
0.0
 11
-53.000001
 21
-14.093078
 31
0.0
  0
LINE
  5
17A
100
AcDbEntity
  8
0
390
0
  6
CONTINUOUS
 62
     3
100
AcDbLine
 10
-50.600001
 20
-18.25
 30
0.0
 11
-50.000001
 21
-18.25
 31
0.0
  0
LINE
  5
17B
100
AcDbEntity
  8
0
390
0
  6
CONTINUOUS
 62
     3
100
AcDbLine
 10
-88.800001
 20
-8.0
 30
0.0
 11
-50.000001
 21
-8.0
 31
0.0
  0
LINE
  5
17C
100
AcDbEntity
  8
0
390
0
  6
CONTINUOUS
 62
     3
100
AcDbLine
 10
-88.800001
 20
-9.0
 30
0.0
 11
-55.000001
 21
-9.0
 31
0.0
  0
LINE
  5
17D
100
AcDbEntity
  8
0
390
0
  6
CONTINUOUS
 62
     3
100
AcDbLine
 10
-50.000001
 20
18.25
 30
0.0
 11
-50.000001
 21
-18.25
 31
0.0
  0
LINE
  5
17E
100
AcDbEntity
  8
0
390
0
  6
CONTINUOUS
 62
     3
100
AcDbLine
 10
-50.600001
 20
18.25
 30
0.0
 11
-53.000001
 21
14.093078
 31
0.0
  0
LINE
  5
17F
100
AcDbEntity
  8
0
390
0
  6
CONTINUOUS
 62
     3
100
AcDbLine
 10
-53.000001
 20
11.0
 30
0.0
 11
-53.000001
 21
14.093078
 31
0.0
  0
LINE
  5
180
100
AcDbEntity
  8
0
390
0
  6
CONTINUOUS
 62
     3
100
AcDbLine
 10
-50.600001
 20
18.25
 30
0.0
 11
-50.000001
 21
18.25
 31
0.0
  0
LINE
  5
181
100
AcDbEntity
  8
0
390
0
  6
CONTINUOUS
 62
     3
100
AcDbLine
 10
-88.800001
 20
8.0
 30
0.0
 11
-50.000001
 21
8.0
 31
0.0
  0
LINE
  5
182
100
AcDbEntity
  8
0
390
0
  6
CONTINUOUS
 62
     3
100
AcDbLine
 10
-88.800001
 20
9.0
 30
0.0
 11
-55.000001
 21
9.0
 31
0.0
  0
LINE
  5
183
100
AcDbEntity
  8
0
390
0
  6
CONTINUOUS
 62
     3
100
AcDbLine
 10
98.8
 20
7.4
 30
0.0
 11
88.8
 21
7.4
 31
0.0
  0
LINE
  5
184
100
AcDbEntity
  8
0
390
0
  6
CONTINUOUS
 62
     3
100
AcDbLine
 10
98.8
 20
-7.4
 30
0.0
 11
88.8
 21
-7.4
 31
0.0
  0
LINE
  5
185
100
AcDbEntity
  8
0
390
0
  6
CONTINUOUS
 62
     3
100
AcDbLine
 10
92.8
 20
-9.0
 30
0.0
 11
92.8
 21
-16.1
 31
0.0
  0
LINE
  5
186
100
AcDbEntity
  8
0
390
0
  6
CONTINUOUS
 62
     3
100
AcDbLine
 10
88.8
 20
9.0
 30
0.0
 11
88.8
 21
-9.0
 31
0.0
  0
LINE
  5
187
100
AcDbEntity
  8
0
390
0
  6
CONTINUOUS
 62
     3
100
AcDbLine
 10
92.8
 20
16.099998
 30
0.0
 11
92.8
 21
9.0
 31
0.0
  0
LINE
  5
188
100
AcDbEntity
  8
0
390
0
  6
CONTINUOUS
 62
     3
100
AcDbLine
 10
98.8
 20
9.097507
 30
0.0
 11
98.8
 21
-9.097507
 31
0.0
  0
LINE
  5
189
100
AcDbEntity
  8
0
390
0
  6
CONTINUOUS
 62
     3
100
AcDbLine
 10
100.0
 20
16.1
 30
0.0
 11
100.0
 21
-16.1
 31
0.0
  0
LINE
  5
18A
100
AcDbEntity
  8
0
390
0
  6
CENTER
 62
   110
100
AcDbLine
 10
103.0
 20
-13.5
 30
0.0
 11
89.8
 21
-13.5
 31
0.0
  0
LINE
  5
18B
100
AcDbEntity
  8
0
390
0
  6
CENTER
 62
   110
100
AcDbLine
 10
103.0
 20
13.5
 30
0.0
 11
89.8
 21
13.5
 31
0.0
  0
LINE
  5
18C
100
AcDbEntity
  8
0
390
0
  6
CONTINUOUS
 62
     3
100
AcDbLine
 10
99.4
 20
-9.150002
 30
0.0
 11
98.8
 21
-9.097508
 31
0.0
  0
LINE
  5
18D
100
AcDbEntity
  8
0
390
0
  6
CONTINUOUS
 62
     3
100
AcDbLine
 10
99.4
 20
-9.149999
 30
0.0
 11
98.835845
 21
-10.7
 31
0.0
  0
LINE
  5
18E
100
AcDbEntity
  8
0
390
0
  6
CONTINUOUS
 62
     3
100
AcDbLine
 10
99.4
 20
9.150002
 30
0.0
 11
98.8
 21
9.097508
 31
0.0
  0
LINE
  5
18F
100
AcDbEntity
  8
0
390
0
  6
CONTINUOUS
 62
     3
100
AcDbLine
 10
99.4
 20
9.149999
 30
0.0
 11
98.835845
 21
10.7
 31
0.0
  0
LINE
  5
190
100
AcDbEntity
  8
0
390
0
  6
CONTINUOUS
 62
     3
100
AcDbLine
 10
94.2
 20
-9.0
 30
0.0
 11
94.2
 21
-10.7
 31
0.0
  0
LINE
  5
191
100
AcDbEntity
  8
0
390
0
  6
CONTINUOUS
 62
     3
100
AcDbLine
 10
94.2
 20
-9.5
 30
0.0
 11
92.8
 21
-9.5
 31
0.0
  0
LINE
  5
192
100
AcDbEntity
  8
0
390
0
  6
CONTINUOUS
 62
     3
100
AcDbLine
 10
94.2
 20
9.5
 30
0.0
 11
92.8
 21
9.5
 31
0.0
  0
LINE
  5
193
100
AcDbEntity
  8
0
390
0
  6
CONTINUOUS
 62
     3
100
AcDbLine
 10
94.2
 20
10.7
 30
0.0
 11
94.2
 21
9.0
 31
0.0
  0
LINE
  5
194
100
AcDbEntity
  8
0
390
0
  6
CONTINUOUS
 62
     3
100
AcDbLine
 10
94.2
 20
-9.0
 30
0.0
 11
88.8
 21
-9.0
 31
0.0
  0
LINE
  5
195
100
AcDbEntity
  8
0
390
0
  6
CONTINUOUS
 62
     3
100
AcDbLine
 10
94.2
 20
9.0
 30
0.0
 11
88.8
 21
9.0
 31
0.0
  0
LINE
  5
196
100
AcDbEntity
  8
0
390
0
  6
CONTINUOUS
 62
     3
100
AcDbLine
 10
92.8
 20
-16.1
 30
0.0
 11
93.6
 21
-16.900001
 31
0.0
  0
LINE
  5
197
100
AcDbEntity
  8
0
390
0
  6
CONTINUOUS
 62
     3
100
AcDbLine
 10
100.000011
 20
-16.10001
 30
0.0
 11
99.200013
 21
-16.900009
 31
0.0
  0
LINE
  5
198
100
AcDbEntity
  8
0
390
0
  6
CONTINUOUS
 62
     3
100
AcDbLine
 10
100.000011
 20
16.10001
 30
0.0
 11
99.200013
 21
16.900009
 31
0.0
  0
LINE
  5
199
100
AcDbEntity
  8
0
390
0
  6
CONTINUOUS
 62
     3
100
AcDbLine
 10
93.599997
 20
16.900008
 30
0.0
 11
92.799996
 21
16.100007
 31
0.0
  0
LINE
  5
19A
100
AcDbEntity
  8
0
390
0
  6
CONTINUOUS
 62
     3
100
AcDbLine
 10
100.0
 20
11.3
 30
0.0
 11
92.8
 21
11.3
 31
0.0
  0
LINE
  5
19B
100
AcDbEntity
  8
0
390
0
  6
CONTINUOUS
 62
     3
100
AcDbLine
 10
100.0
 20
15.7
 30
0.0
 11
92.8
 21
15.7
 31
0.0
  0
LINE
  5
19C
100
AcDbEntity
  8
0
390
0
  6
CONTINUOUS
 62
     3
100
AcDbLine
 10
100.0
 20
-11.3
 30
0.0
 11
92.8
 21
-11.3
 31
0.0
  0
LINE
  5
19D
100
AcDbEntity
  8
0
390
0
  6
CONTINUOUS
 62
     3
100
AcDbLine
 10
100.0
 20
-15.7
 30
0.0
 11
92.8
 21
-15.7
 31
0.0
  0
LINE
  5
19E
100
AcDbEntity
  8
0
390
0
  6
CONTINUOUS
 62
     3
100
AcDbLine
 10
99.400001
 20
9.15
 30
0.0
 11
99.400001
 21
-9.15
 31
0.0
  0
LINE
  5
19F
100
AcDbEntity
  8
0
390
0
  6
CONTINUOUS
 62
     3
100
AcDbLine
 10
100.0
 20
-10.7
 30
0.0
 11
94.2
 21
-10.7
 31
0.0
  0
LINE
  5
1A0
100
AcDbEntity
  8
0
390
0
  6
CONTINUOUS
 62
     3
100
AcDbLine
 10
100.0
 20
10.7
 30
0.0
 11
94.2
 21
10.7
 31
0.0
  0
LINE
  5
1A1
100
AcDbEntity
  8
0
390
0
  6
CONTINUOUS
 62
     3
100
AcDbLine
 10
99.200002
 20
16.9
 30
0.0
 11
93.6
 21
16.9
 31
0.0
  0
LINE
  5
1A2
100
AcDbEntity
  8
0
390
0
  6
CONTINUOUS
 62
     3
100
AcDbLine
 10
99.200002
 20
-16.9
 30
0.0
 11
93.6
 21
-16.9
 31
0.0
  0
LINE
  5
1A3
100
AcDbEntity
  8
0
390
0
  6
CONTINUOUS
 62
     3
100
AcDbLine
 10
-99.400002
 20
-9.149996
 30
0.0
 11
-99.400002
 21
9.149996
 31
0.0
  0
LINE
  5
1A4
100
AcDbEntity
  8
0
390
0
  6
CONTINUOUS
 62
     3
100
AcDbLine
 10
-98.800001
 20
-7.4
 30
0.0
 11
-88.800001
 21
-7.4
 31
0.0
  0
LINE
  5
1A5
100
AcDbEntity
  8
0
390
0
  6
CONTINUOUS
 62
     3
100
AcDbLine
 10
-98.800001
 20
7.4
 30
0.0
 11
-88.800001
 21
7.4
 31
0.0
  0
LINE
  5
1A6
100
AcDbEntity
  8
0
390
0
  6
CONTINUOUS
 62
     3
100
AcDbLine
 10
-92.800002
 20
-16.099998
 30
0.0
 11
-92.800002
 21
-9.0
 31
0.0
  0
LINE
  5
1A7
100
AcDbEntity
  8
0
390
0
  6
CONTINUOUS
 62
     3
100
AcDbLine
 10
-88.800001
 20
-9.0
 30
0.0
 11
-88.800001
 21
9.0
 31
0.0
  0
LINE
  5
1A8
100
AcDbEntity
  8
0
390
0
  6
CONTINUOUS
 62
     3
100
AcDbLine
 10
-98.800001
 20
-9.097507
 30
0.0
 11
-98.800001
 21
9.097507
 31
0.0
  0
LINE
  5
1A9
100
AcDbEntity
  8
0
390
0
  6
CONTINUOUS
 62
     3
100
AcDbLine
 10
-100.0
 20
-16.1
 30
0.0
 11
-100.0
 21
16.1
 31
0.0
  0
LINE
  5
1AA
100
AcDbEntity
  8
0
390
0
  6
CONTINUOUS
 62
     3
100
AcDbLine
 10
-99.399999
 20
9.150007
 30
0.0
 11
-98.8
 21
9.097514
 31
0.0
  0
LINE
  5
1AB
100
AcDbEntity
  8
0
390
0
  6
CONTINUOUS
 62
     3
100
AcDbLine
 10
-99.4
 20
9.15
 30
0.0
 11
-98.957961
 21
10.364494
 31
0.0
  0
LINE
  5
1AC
100
AcDbEntity
  8
0
390
0
  6
CONTINUOUS
 62
     3
100
AcDbLine
 10
-99.399999
 20
-9.150007
 30
0.0
 11
-98.8
 21
-9.097514
 31
0.0
  0
LINE
  5
1AD
100
AcDbEntity
  8
0
390
0
  6
CONTINUOUS
 62
     3
100
AcDbLine
 10
-99.4
 20
-9.15
 30
0.0
 11
-98.957961
 21
-10.364494
 31
0.0
  0
LINE
  5
1AE
100
AcDbEntity
  8
0
390
0
  6
CENTER
 62
   110
100
AcDbLine
 10
-103.0
 20
13.5
 30
0.0
 11
-89.800002
 21
13.5
 31
0.0
  0
LINE
  5
1AF
100
AcDbEntity
  8
0
390
0
  6
CENTER
 62
   110
100
AcDbLine
 10
-103.0
 20
-13.5
 30
0.0
 11
-89.800002
 21
-13.5
 31
0.0
  0
LINE
  5
1B0
100
AcDbEntity
  8
0
390
0
  6
CONTINUOUS
 62
     3
100
AcDbLine
 10
-92.800002
 20
9.0
 30
0.0
 11
-88.800001
 21
9.0
 31
0.0
  0
LINE
  5
1B1
100
AcDbEntity
  8
0
390
0
  6
CONTINUOUS
 62
     3
100
AcDbLine
 10
-92.800002
 20
-9.0
 30
0.0
 11
-88.800001
 21
-9.0
 31
0.0
  0
LINE
  5
1B2
100
AcDbEntity
  8
0
390
0
  6
CONTINUOUS
 62
     3
100
AcDbLine
 10
-92.800002
 20
9.0
 30
0.0
 11
-92.800002
 21
16.1
 31
0.0
  0
LINE
  5
1B3
100
AcDbEntity
  8
0
390
0
  6
CONTINUOUS
 62
     3
100
AcDbLine
 10
-92.800004
 20
16.099996
 30
0.0
 11
-93.600005
 21
16.899994
 31
0.0
  0
LINE
  5
1B4
100
AcDbEntity
  8
0
390
0
  6
CONTINUOUS
 62
     3
100
AcDbLine
 10
-100.000022
 20
16.100018
 30
0.0
 11
-99.200023
 21
16.900018
 31
0.0
  0
LINE
  5
1B5
100
AcDbEntity
  8
0
390
0
  6
CONTINUOUS
 62
     3
100
AcDbLine
 10
-100.000022
 20
-16.100018
 30
0.0
 11
-99.200023
 21
-16.900018
 31
0.0
  0
LINE
  5
1B6
100
AcDbEntity
  8
0
390
0
  6
CONTINUOUS
 62
     3
100
AcDbLine
 10
-93.599989
 20
-16.900017
 30
0.0
 11
-92.799987
 21
-16.100014
 31
0.0
  0
LINE
  5
1B7
100
AcDbEntity
  8
0
390
0
  6
CONTINUOUS
 62
     3
100
AcDbLine
 10
-100.0
 20
-11.3
 30
0.0
 11
-92.800002
 21
-11.3
 31
0.0
  0
LINE
  5
1B8
100
AcDbEntity
  8
0
390
0
  6
CONTINUOUS
 62
     3
100
AcDbLine
 10
-100.0
 20
-15.7
 30
0.0
 11
-92.800002
 21
-15.7
 31
0.0
  0
LINE
  5
1B9
100
AcDbEntity
  8
0
390
0
  6
CONTINUOUS
 62
     3
100
AcDbLine
 10
-100.0
 20
11.3
 30
0.0
 11
-92.800002
 21
11.3
 31
0.0
  0
LINE
  5
1BA
100
AcDbEntity
  8
0
390
0
  6
CONTINUOUS
 62
     3
100
AcDbLine
 10
-100.0
 20
15.7
 30
0.0
 11
-92.800002
 21
15.7
 31
0.0
  0
LINE
  5
1BB
100
AcDbEntity
  8
0
390
0
  6
CONTINUOUS
 62
     3
100
AcDbLine
 10
-100.0
 20
10.7
 30
0.0
 11
-99.192883
 21
10.7
 31
0.0
  0
LINE
  5
1BC
100
AcDbEntity
  8
0
390
0
  6
CONTINUOUS
 62
     3
100
AcDbLine
 10
-100.0
 20
-10.7
 30
0.0
 11
-99.192883
 21
-10.7
 31
0.0
  0
LINE
  5
1BD
100
AcDbEntity
  8
0
390
0
  6
CONTINUOUS
 62
     3
100
AcDbLine
 10
-99.200003
 20
-16.9
 30
0.0
 11
-93.600001
 21
-16.9
 31
0.0
  0
LINE
  5
1BE
100
AcDbEntity
  8
0
390
0
  6
CONTINUOUS
 62
     3
100
AcDbLine
 10
-99.200003
 20
16.9
 30
0.0
 11
-93.600001
 21
16.9
 31
0.0
  0
LINE
  5
1BF
100
AcDbEntity
  8
0
390
0
  6
CENTER
 62
   110
100
AcDbLine
 10
-105.0
 20
0.0
 30
0.0
 11
-80.0
 21
0.0
 31
0.0
  0
ENDBLK
  5
1C0
100
AcDbEntity
  8
0
370
    -2
390
0
100
AcDbBlockEnd
  0
BLOCK
  5
1C1
100
AcDbEntity
  8
0
370
    -2
390
0
100
AcDbBlockBegin
  2
VF2070
 70
     0
 10
0.0
 20
0.0
 30
0.0
  3
VF2070
  1

  0
LINE
  5
1C2
100
AcDbEntity
  8
0
390
0
  6
CONTINUOUS
 62
   110
100
AcDbLine
 10
-87.300001
 20
48.0
 30
0.0
 11
-90.070001
 21
48.0
 31
0.0
  0
LINE
  5
1C3
100
AcDbEntity
  8
0
390
0
  6
CONTINUOUS
 62
   110
100
AcDbLine
 10
-87.300001
 20
48.0
 30
0.0
 11
-90.070001
 21
47.257781
 31
0.0
  0
LINE
  5
1C4
100
AcDbEntity
  8
0
390
0
  6
CONTINUOUS
 62
   110
100
AcDbLine
 10
-90.070001
 20
48.742219
 30
0.0
 11
-87.300001
 21
48.0
 31
0.0
  0
LINE
  5
1C5
100
AcDbEntity
  8
0
390
0
  6
CONTINUOUS
 62
   110
100
AcDbLine
 10
-100.0
 20
48.0
 30
0.0
 11
-97.23
 21
48.0
 31
0.0
  0
LINE
  5
1C6
100
AcDbEntity
  8
0
390
0
  6
CONTINUOUS
 62
   110
100
AcDbLine
 10
-100.0
 20
48.0
 30
0.0
 11
-97.23
 21
48.742219
 31
0.0
  0
LINE
  5
1C7
100
AcDbEntity
  8
0
390
0
  6
CONTINUOUS
 62
   110
100
AcDbLine
 10
-97.23
 20
47.257781
 30
0.0
 11
-100.0
 21
48.0
 31
0.0
  0
MTEXT
  5
1C8
100
AcDbEntity
  8
0
390
0
  6
CONTINUOUS
 62
   110
100
AcDbMText
 10
-93.650001
 20
50.6
 30
0.0
 40
3.2
 41
0.0
 71
     5
 72
     1
  1
\T1.333334;\W1.012500;\A1;12.7
 73
     1
 44
0.9
  0
LINE
  5
1C9
100
AcDbEntity
  8
0
390
0
  6
CONTINUOUS
 62
   110
100
AcDbLine
 10
-87.300001
 20
35.850002
 30
0.0
 11
-87.300001
 21
50.286003
 31
0.0
  0
LINE
  5
1CA
100
AcDbEntity
  8
0
390
0
  6
CONTINUOUS
 62
   110
100
AcDbLine
 10
-100.0
 20
35.850002
 30
0.0
 11
-100.0
 21
50.286003
 31
0.0
  0
LINE
  5
1CB
100
AcDbEntity
  8
0
390
0
  6
CONTINUOUS
 62
   110
100
AcDbLine
 10
-100.0
 20
48.0
 30
0.0
 11
-87.300001
 21
48.0
 31
0.0
  0
LINE
  5
1CC
100
AcDbEntity
  8
0
390
0
  6
CONTINUOUS
 62
   110
100
AcDbLine
 10
100.0
 20
48.0
 30
0.0
 11
97.23
 21
48.0
 31
0.0
  0
LINE
  5
1CD
100
AcDbEntity
  8
0
390
0
  6
CONTINUOUS
 62
   110
100
AcDbLine
 10
100.0
 20
48.0
 30
0.0
 11
97.23
 21
47.257781
 31
0.0
  0
LINE
  5
1CE
100
AcDbEntity
  8
0
390
0
  6
CONTINUOUS
 62
   110
100
AcDbLine
 10
97.23
 20
48.742219
 30
0.0
 11
100.0
 21
48.0
 31
0.0
  0
LINE
  5
1CF
100
AcDbEntity
  8
0
390
0
  6
CONTINUOUS
 62
   110
100
AcDbLine
 10
87.3
 20
48.0
 30
0.0
 11
90.07
 21
48.0
 31
0.0
  0
LINE
  5
1D0
100
AcDbEntity
  8
0
390
0
  6
CONTINUOUS
 62
   110
100
AcDbLine
 10
87.3
 20
48.0
 30
0.0
 11
90.07
 21
48.742219
 31
0.0
  0
LINE
  5
1D1
100
AcDbEntity
  8
0
390
0
  6
CONTINUOUS
 62
   110
100
AcDbLine
 10
90.07
 20
47.257781
 30
0.0
 11
87.3
 21
48.0
 31
0.0
  0
MTEXT
  5
1D2
100
AcDbEntity
  8
0
390
0
  6
CONTINUOUS
 62
   110
100
AcDbMText
 10
93.65
 20
50.6
 30
0.0
 40
3.2
 41
0.0
 71
     5
 72
     1
  1
\T1.333334;\W1.012500;\A1;12.7
 73
     1
 44
0.9
  0
LINE
  5
1D3
100
AcDbEntity
  8
0
390
0
  6
CONTINUOUS
 62
   110
100
AcDbLine
 10
100.0
 20
35.850002
 30
0.0
 11
100.0
 21
50.286003
 31
0.0
  0
LINE
  5
1D4
100
AcDbEntity
  8
0
390
0
  6
CONTINUOUS
 62
   110
100
AcDbLine
 10
87.3
 20
35.850002
 30
0.0
 11
87.3
 21
50.286003
 31
0.0
  0
LINE
  5
1D5
100
AcDbEntity
  8
0
390
0
  6
CONTINUOUS
 62
   110
100
AcDbLine
 10
87.3
 20
48.0
 30
0.0
 11
100.0
 21
48.0
 31
0.0
  0
LINE
  5
1D6
100
AcDbEntity
  8
0
390
0
  6
CONTINUOUS
 62
   110
100
AcDbLine
 10
-50.000001
 20
56.0
 30
0.0
 11
-52.770001
 21
56.0
 31
0.0
  0
LINE
  5
1D7
100
AcDbEntity
  8
0
390
0
  6
CONTINUOUS
 62
   110
100
AcDbLine
 10
-50.000001
 20
56.0
 30
0.0
 11
-52.770001
 21
55.257781
 31
0.0
  0
LINE
  5
1D8
100
AcDbEntity
  8
0
390
0
  6
CONTINUOUS
 62
   110
100
AcDbLine
 10
-52.770001
 20
56.742219
 30
0.0
 11
-50.000001
 21
56.0
 31
0.0
  0
LINE
  5
1D9
100
AcDbEntity
  8
0
390
0
  6
CONTINUOUS
 62
   110
100
AcDbLine
 10
-100.0
 20
56.0
 30
0.0
 11
-97.23
 21
56.0
 31
0.0
  0
LINE
  5
1DA
100
AcDbEntity
  8
0
390
0
  6
CONTINUOUS
 62
   110
100
AcDbLine
 10
-100.0
 20
56.0
 30
0.0
 11
-97.23
 21
56.742219
 31
0.0
  0
LINE
  5
1DB
100
AcDbEntity
  8
0
390
0
  6
CONTINUOUS
 62
   110
100
AcDbLine
 10
-97.23
 20
55.257781
 30
0.0
 11
-100.0
 21
56.0
 31
0.0
  0
MTEXT
  5
1DC
100
AcDbEntity
  8
0
390
0
  6
CONTINUOUS
 62
   110
100
AcDbMText
 10
-75.0
 20
58.6
 30
0.0
 40
3.2
 41
0.0
 71
     5
 72
     1
  1
\W1.100000;\A1;50
 73
     1
 44
0.9
  0
LINE
  5
1DD
100
AcDbEntity
  8
0
390
0
  6
CONTINUOUS
 62
   110
100
AcDbLine
 10
-50.000001
 20
28.25
 30
0.0
 11
-50.000001
 21
58.286
 31
0.0
  0
LINE
  5
1DE
100
AcDbEntity
  8
0
390
0
  6
CONTINUOUS
 62
   110
100
AcDbLine
 10
-100.0
 20
56.0
 30
0.0
 11
-50.000001
 21
56.0
 31
0.0
  0
LINE
  5
1DF
100
AcDbEntity
  8
0
390
0
  6
CONTINUOUS
 62
   110
100
AcDbLine
 10
50.000001
 20
56.0
 30
0.0
 11
47.230001
 21
56.0
 31
0.0
  0
LINE
  5
1E0
100
AcDbEntity
  8
0
390
0
  6
CONTINUOUS
 62
   110
100
AcDbLine
 10
50.000001
 20
56.0
 30
0.0
 11
47.230001
 21
55.257781
 31
0.0
  0
LINE
  5
1E1
100
AcDbEntity
  8
0
390
0
  6
CONTINUOUS
 62
   110
100
AcDbLine
 10
47.230001
 20
56.742219
 30
0.0
 11
50.000001
 21
56.0
 31
0.0
  0
LINE
  5
1E2
100
AcDbEntity
  8
0
390
0
  6
CONTINUOUS
 62
   110
100
AcDbLine
 10
-50.000001
 20
56.0
 30
0.0
 11
-47.230001
 21
56.0
 31
0.0
  0
LINE
  5
1E3
100
AcDbEntity
  8
0
390
0
  6
CONTINUOUS
 62
   110
100
AcDbLine
 10
-50.000001
 20
56.0
 30
0.0
 11
-47.230001
 21
56.742219
 31
0.0
  0
LINE
  5
1E4
100
AcDbEntity
  8
0
390
0
  6
CONTINUOUS
 62
   110
100
AcDbLine
 10
-47.230001
 20
55.257781
 30
0.0
 11
-50.000001
 21
56.0
 31
0.0
  0
MTEXT
  5
1E5
100
AcDbEntity
  8
0
390
0
  6
CONTINUOUS
 62
   110
100
AcDbMText
 10
-0.000001
 20
58.6
 30
0.0
 40
3.2
 41
0.0
 71
     5
 72
     1
  1
\W1.250000;\A1;(400)
 73
     1
 44
0.9
  0
LINE
  5
1E6
100
AcDbEntity
  8
0
390
0
  6
CONTINUOUS
 62
   110
100
AcDbLine
 10
50.000001
 20
28.25
 30
0.0
 11
50.000001
 21
58.286
 31
0.0
  0
LINE
  5
1E7
100
AcDbEntity
  8
0
390
0
  6
CONTINUOUS
 62
   110
100
AcDbLine
 10
-50.000001
 20
56.0
 30
0.0
 11
50.000001
 21
56.0
 31
0.0
  0
LINE
  5
1E8
100
AcDbEntity
  8
0
390
0
  6
CONTINUOUS
 62
   110
100
AcDbLine
 10
-100.0
 20
64.0
 30
0.0
 11
-97.23
 21
64.0
 31
0.0
  0
LINE
  5
1E9
100
AcDbEntity
  8
0
390
0
  6
CONTINUOUS
 62
   110
100
AcDbLine
 10
-100.0
 20
64.0
 30
0.0
 11
-97.23
 21
64.742219
 31
0.0
  0
LINE
  5
1EA
100
AcDbEntity
  8
0
390
0
  6
CONTINUOUS
 62
   110
100
AcDbLine
 10
-97.23
 20
63.257781
 30
0.0
 11
-100.0
 21
64.0
 31
0.0
  0
LINE
  5
1EB
100
AcDbEntity
  8
0
390
0
  6
CONTINUOUS
 62
   110
100
AcDbLine
 10
100.0
 20
64.0
 30
0.0
 11
97.23
 21
64.0
 31
0.0
  0
LINE
  5
1EC
100
AcDbEntity
  8
0
390
0
  6
CONTINUOUS
 62
   110
100
AcDbLine
 10
100.0
 20
64.0
 30
0.0
 11
97.23
 21
63.257781
 31
0.0
  0
LINE
  5
1ED
100
AcDbEntity
  8
0
390
0
  6
CONTINUOUS
 62
   110
100
AcDbLine
 10
97.23
 20
64.742219
 30
0.0
 11
100.0
 21
64.0
 31
0.0
  0
MTEXT
  5
1EE
100
AcDbEntity
  8
0
390
0
  6
CONTINUOUS
 62
   110
100
AcDbMText
 10
0.0
 20
66.6
 30
0.0
 40
3.2
 41
0.0
 71
     5
 72
     1
  1
\A1;500±5%
 73
     1
 44
0.9
  0
LINE
  5
1EF
100
AcDbEntity
  8
0
390
0
  6
CONTINUOUS
 62
   110
100
AcDbLine
 10
-100.0
 20
35.850002
 30
0.0
 11
-100.0
 21
66.286
 31
0.0
  0
LINE
  5
1F0
100
AcDbEntity
  8
0
390
0
  6
CONTINUOUS
 62
   110
100
AcDbLine
 10
100.0
 20
35.850002
 30
0.0
 11
100.0
 21
66.286
 31
0.0
  0
LINE
  5
1F1
100
AcDbEntity
  8
0
390
0
  6
CONTINUOUS
 62
   110
100
AcDbLine
 10
100.0
 20
64.0
 30
0.0
 11
-100.0
 21
64.0
 31
0.0
  0
LINE
  5
1F2
100
AcDbEntity
  8
0
390
0
  6
CONTINUOUS
 62
   110
100
AcDbLine
 10
-120.0
 20
-34.650002
 30
0.0
 11
-120.0
 21
-31.880002
 31
0.0
  0
LINE
  5
1F3
100
AcDbEntity
  8
0
390
0
  6
CONTINUOUS
 62
   110
100
AcDbLine
 10
-120.0
 20
-34.650002
 30
0.0
 11
-120.742219
 21
-31.880002
 31
0.0
  0
LINE
  5
1F4
100
AcDbEntity
  8
0
390
0
  6
CONTINUOUS
 62
   110
100
AcDbLine
 10
-119.257781
 20
-31.880002
 30
0.0
 11
-120.0
 21
-34.650002
 31
0.0
  0
LINE
  5
1F5
100
AcDbEntity
  8
0
390
0
  6
CONTINUOUS
 62
   110
100
AcDbLine
 10
-120.0
 20
34.650002
 30
0.0
 11
-120.0
 21
31.880002
 31
0.0
  0
LINE
  5
1F6
100
AcDbEntity
  8
0
390
0
  6
CONTINUOUS
 62
   110
100
AcDbLine
 10
-120.0
 20
34.650002
 30
0.0
 11
-119.257781
 21
31.880002
 31
0.0
  0
LINE
  5
1F7
100
AcDbEntity
  8
0
390
0
  6
CONTINUOUS
 62
   110
100
AcDbLine
 10
-120.742219
 20
31.880002
 30
0.0
 11
-120.0
 21
34.650002
 31
0.0
  0
MTEXT
  5
1F8
100
AcDbEntity
  8
0
390
0
  6
CONTINUOUS
 62
   110
100
AcDbMText
 10
-122.6
 20
0.0
 30
0.0
 40
3.2
 41
0.0
 71
     5
 72
     1
  1
\W1.100000;\A1;\U+220569.3
 11
0.0
 21
1.0
 31
0.0
 73
     1
 44
0.9
  0
LINE
  5
1F9
100
AcDbEntity
  8
0
390
0
  6
CONTINUOUS
 62
   110
100
AcDbLine
 10
-101.200001
 20
-34.650002
 30
0.0
 11
-122.286
 21
-34.650002
 31
0.0
  0
LINE
  5
1FA
100
AcDbEntity
  8
0
390
0
  6
CONTINUOUS
 62
   110
100
AcDbLine
 10
-101.200003
 20
34.650002
 30
0.0
 11
-122.286
 21
34.650002
 31
0.0
  0
LINE
  5
1FB
100
AcDbEntity
  8
0
390
0
  6
CONTINUOUS
 62
   110
100
AcDbLine
 10
-120.0
 20
34.650002
 30
0.0
 11
-120.0
 21
-34.650002
 31
0.0
  0
LINE
  5
1FC
100
AcDbEntity
  8
0
390
0
  6
CONTINUOUS
 62
   110
100
AcDbLine
 10
-112.0
 20
29.35
 30
0.0
 11
-112.0
 21
26.58
 31
0.0
  0
LINE
  5
1FD
100
AcDbEntity
  8
0
390
0
  6
CONTINUOUS
 62
   110
100
AcDbLine
 10
-112.0
 20
29.35
 30
0.0
 11
-111.257781
 21
26.58
 31
0.0
  0
LINE
  5
1FE
100
AcDbEntity
  8
0
390
0
  6
CONTINUOUS
 62
   110
100
AcDbLine
 10
-112.742219
 20
26.58
 30
0.0
 11
-112.0
 21
29.35
 31
0.0
  0
LINE
  5
1FF
100
AcDbEntity
  8
0
390
0
  6
CONTINUOUS
 62
   110
100
AcDbLine
 10
-112.0
 20
-29.35
 30
0.0
 11
-112.0
 21
-26.58
 31
0.0
  0
LINE
  5
200
100
AcDbEntity
  8
0
390
0
  6
CONTINUOUS
 62
   110
100
AcDbLine
 10
-112.0
 20
-29.35
 30
0.0
 11
-112.742219
 21
-26.58
 31
0.0
  0
LINE
  5
201
100
AcDbEntity
  8
0
390
0
  6
CONTINUOUS
 62
   110
100
AcDbLine
 10
-111.257781
 20
-26.58
 30
0.0
 11
-112.0
 21
-29.35
 31
0.0
  0
MTEXT
  5
202
100
AcDbEntity
  8
0
390
0
  6
CONTINUOUS
 62
   110
100
AcDbMText
 10
-114.6
 20
0.0
 30
0.0
 40
3.2
 41
0.0
 71
     5
 72
     1
  1
\W1.100000;\A1;PCD58.7
 11
0.0
 21
1.0
 31
0.0
 73
     1
 44
0.9
  0
LINE
  5
203
100
AcDbEntity
  8
0
390
0
  6
CONTINUOUS
 62
   110
100
AcDbLine
 10
-105.0
 20
29.35
 30
0.0
 11
-114.286003
 21
29.35
 31
0.0
  0
LINE
  5
204
100
AcDbEntity
  8
0
390
0
  6
CONTINUOUS
 62
   110
100
AcDbLine
 10
-105.0
 20
-29.35
 30
0.0
 11
-114.286003
 21
-29.35
 31
0.0
  0
LINE
  5
205
100
AcDbEntity
  8
0
390
0
  6
CONTINUOUS
 62
   110
100
AcDbLine
 10
-112.0
 20
-29.35
 30
0.0
 11
-112.0
 21
29.35
 31
0.0
  0
LINE
  5
206
100
AcDbEntity
  8
0
390
0
  6
CONTINUOUS
 62
   110
100
AcDbLine
 10
-16.0
 20
25.0
 30
0.0
 11
-16.0
 21
22.23
 31
0.0
  0
LINE
  5
207
100
AcDbEntity
  8
0
390
0
  6
CONTINUOUS
 62
   110
100
AcDbLine
 10
-16.0
 20
25.0
 30
0.0
 11
-15.257781
 21
22.23
 31
0.0
  0
LINE
  5
208
100
AcDbEntity
  8
0
390
0
  6
CONTINUOUS
 62
   110
100
AcDbLine
 10
-16.742219
 20
22.23
 30
0.0
 11
-16.0
 21
25.0
 31
0.0
  0
LINE
  5
209
100
AcDbEntity
  8
0
390
0
  6
CONTINUOUS
 62
   110
100
AcDbLine
 10
-16.0
 20
-25.0
 30
0.0
 11
-16.0
 21
-22.23
 31
0.0
  0
LINE
  5
20A
100
AcDbEntity
  8
0
390
0
  6
CONTINUOUS
 62
   110
100
AcDbLine
 10
-16.0
 20
-25.0
 30
0.0
 11
-16.742219
 21
-22.23
 31
0.0
  0
LINE
  5
20B
100
AcDbEntity
  8
0
390
0
  6
CONTINUOUS
 62
   110
100
AcDbLine
 10
-15.257781
 20
-22.23
 30
0.0
 11
-16.0
 21
-25.0
 31
0.0
  0
MTEXT
  5
20C
100
AcDbEntity
  8
0
390
0
  6
CONTINUOUS
 62
   110
100
AcDbMText
 10
-18.6
 20
0.0
 30
0.0
 40
3.2
 41
0.0
 71
     5
 72
     1
  1
\A1;\U+220550
 11
0.0
 21
1.0
 31
0.0
 73
     1
 44
0.9
  0
LINE
  5
20D
100
AcDbEntity
  8
0
390
0
  6
CONTINUOUS
 62
   110
100
AcDbLine
 10
-16.0
 20
-25.0
 30
0.0
 11
-16.0
 21
25.0
 31
0.0
  0
LINE
  5
20E
100
AcDbEntity
  8
0
390
0
  6
CONTINUOUS
 62
   110
100
AcDbLine
 10
-24.0
 20
19.0
 30
0.0
 11
-24.0
 21
16.23
 31
0.0
  0
LINE
  5
20F
100
AcDbEntity
  8
0
390
0
  6
CONTINUOUS
 62
   110
100
AcDbLine
 10
-24.0
 20
19.0
 30
0.0
 11
-23.257781
 21
16.23
 31
0.0
  0
LINE
  5
210
100
AcDbEntity
  8
0
390
0
  6
CONTINUOUS
 62
   110
100
AcDbLine
 10
-24.742219
 20
16.23
 30
0.0
 11
-24.0
 21
19.0
 31
0.0
  0
LINE
  5
211
100
AcDbEntity
  8
0
390
0
  6
CONTINUOUS
 62
   110
100
AcDbLine
 10
-24.0
 20
-19.0
 30
0.0
 11
-24.0
 21
-16.23
 31
0.0
  0
LINE
  5
212
100
AcDbEntity
  8
0
390
0
  6
CONTINUOUS
 62
   110
100
AcDbLine
 10
-24.0
 20
-19.0
 30
0.0
 11
-24.742219
 21
-16.23
 31
0.0
  0
LINE
  5
213
100
AcDbEntity
  8
0
390
0
  6
CONTINUOUS
 62
   110
100
AcDbLine
 10
-23.257781
 20
-16.23
 30
0.0
 11
-24.0
 21
-19.0
 31
0.0
  0
MTEXT
  5
214
100
AcDbEntity
  8
0
390
0
  6
CONTINUOUS
 62
   110
100
AcDbMText
 10
-26.6
 20
0.0
 30
0.0
 40
3.2
 41
0.0
 71
     5
 72
     1
  1
\W0.950000;\A1;\U+220538
 11
0.0
 21
1.0
 31
0.0
 73
     1
 44
0.9
  0
LINE
  5
215
100
AcDbEntity
  8
0
390
0
  6
CONTINUOUS
 62
   110
100
AcDbLine
 10
-24.0
 20
-19.0
 30
0.0
 11
-24.0
 21
19.0
 31
0.0
  0
LINE
  5
216
100
AcDbEntity
  8
0
390
0
  6
CONTINUOUS
 62
   110
100
AcDbLine
 10
-72.0
 20
19.0
 30
0.0
 11
-72.0
 21
16.23
 31
0.0
  0
LINE
  5
217
100
AcDbEntity
  8
0
390
0
  6
CONTINUOUS
 62
   110
100
AcDbLine
 10
-72.0
 20
19.0
 30
0.0
 11
-71.257781
 21
16.23
 31
0.0
  0
LINE
  5
218
100
AcDbEntity
  8
0
390
0
  6
CONTINUOUS
 62
   110
100
AcDbLine
 10
-72.742219
 20
16.23
 30
0.0
 11
-72.0
 21
19.0
 31
0.0
  0
LINE
  5
219
100
AcDbEntity
  8
0
390
0
  6
CONTINUOUS
 62
   110
100
AcDbLine
 10
-72.0
 20
-19.0
 30
0.0
 11
-72.0
 21
-16.23
 31
0.0
  0
LINE
  5
21A
100
AcDbEntity
  8
0
390
0
  6
CONTINUOUS
 62
   110
100
AcDbLine
 10
-72.0
 20
-19.0
 30
0.0
 11
-72.742219
 21
-16.23
 31
0.0
  0
LINE
  5
21B
100
AcDbEntity
  8
0
390
0
  6
CONTINUOUS
 62
   110
100
AcDbLine
 10
-71.257781
 20
-16.23
 30
0.0
 11
-72.0
 21
-19.0
 31
0.0
  0
MTEXT
  5
21C
100
AcDbEntity
  8
0
390
0
  6
CONTINUOUS
 62
   110
100
AcDbMText
 10
-74.6
 20
0.0
 30
0.0
 40
3.2
 41
0.0
 71
     5
 72
     1
  1
\W0.950000;\A1;\U+220538
 11
0.0
 21
1.0
 31
0.0
 73
     1
 44
0.9
  0
LINE
  5
21D
100
AcDbEntity
  8
0
390
0
  6
CONTINUOUS
 62
   110
100
AcDbLine
 10
-72.0
 20
-19.0
 30
0.0
 11
-72.0
 21
19.0
 31
0.0
  0
LINE
  5
21E
100
AcDbEntity
  8
0
390
0
  6
CONTINUOUS
 62
   110
100
AcDbLine
 10
100.0
 20
56.0
 30
0.0
 11
97.23
 21
56.0
 31
0.0
  0
LINE
  5
21F
100
AcDbEntity
  8
0
390
0
  6
CONTINUOUS
 62
   110
100
AcDbLine
 10
100.0
 20
56.0
 30
0.0
 11
97.23
 21
55.257781
 31
0.0
  0
LINE
  5
220
100
AcDbEntity
  8
0
390
0
  6
CONTINUOUS
 62
   110
100
AcDbLine
 10
97.23
 20
56.742219
 30
0.0
 11
100.0
 21
56.0
 31
0.0
  0
LINE
  5
221
100
AcDbEntity
  8
0
390
0
  6
CONTINUOUS
 62
   110
100
AcDbLine
 10
50.000001
 20
56.0
 30
0.0
 11
52.770001
 21
56.0
 31
0.0
  0
LINE
  5
222
100
AcDbEntity
  8
0
390
0
  6
CONTINUOUS
 62
   110
100
AcDbLine
 10
50.000001
 20
56.0
 30
0.0
 11
52.770001
 21
56.742219
 31
0.0
  0
LINE
  5
223
100
AcDbEntity
  8
0
390
0
  6
CONTINUOUS
 62
   110
100
AcDbLine
 10
52.770001
 20
55.257781
 30
0.0
 11
50.000001
 21
56.0
 31
0.0
  0
MTEXT
  5
224
100
AcDbEntity
  8
0
390
0
  6
CONTINUOUS
 62
   110
100
AcDbMText
 10
75.000001
 20
58.6
 30
0.0
 40
3.2
 41
0.0
 71
     5
 72
     1
  1
\W1.100000;\A1;50
 73
     1
 44
0.9
  0
LINE
  5
225
100
AcDbEntity
  8
0
390
0
  6
CONTINUOUS
 62
   110
100
AcDbLine
 10
50.000001
 20
56.0
 30
0.0
 11
100.0
 21
56.0
 31
0.0
  0
ARC
  5
226
100
AcDbEntity
  8
0
390
0
  6
CONTINUOUS
 62
     3
100
AcDbCircle
 10
36.950001
 20
-20.45
 30
0.0
 40
1.45
100
AcDbArc
 50
0.0
 51
180.0
  0
ARC
  5
227
100
AcDbEntity
  8
0
390
0
  6
CONTINUOUS
 62
     3
100
AcDbCircle
 10
39.850001
 20
-23.55
 30
0.0
 40
1.45
100
AcDbArc
 50
180.0
 51
0.0
  0
ARC
  5
228
100
AcDbEntity
  8
0
390
0
  6
CONTINUOUS
 62
     3
100
AcDbCircle
 10
42.750001
 20
-20.45
 30
0.0
 40
1.45
100
AcDbArc
 50
0.0
 51
180.0
  0
ARC
  5
229
100
AcDbEntity
  8
0
390
0
  6
CONTINUOUS
 62
     3
100
AcDbCircle
 10
45.650001
 20
-23.55
 30
0.0
 40
1.45
100
AcDbArc
 50
180.0
 51
0.0
  0
ARC
  5
22A
100
AcDbEntity
  8
0
390
0
  6
CONTINUOUS
 62
     3
100
AcDbCircle
 10
48.550001
 20
-20.45
 30
0.0
 40
1.45
100
AcDbArc
 50
0.0
 51
180.0
  0
ARC
  5
22B
100
AcDbEntity
  8
0
390
0
  6
CONTINUOUS
 62
     3
100
AcDbCircle
 10
-34.050001
 20
-23.55
 30
0.0
 40
1.45
100
AcDbArc
 50
180.0
 51
0.0
  0
ARC
  5
22C
100
AcDbEntity
  8
0
390
0
  6
CONTINUOUS
 62
     3
100
AcDbCircle
 10
-36.950001
 20
-20.45
 30
0.0
 40
1.45
100
AcDbArc
 50
0.0
 51
180.0
  0
ARC
  5
22D
100
AcDbEntity
  8
0
390
0
  6
CONTINUOUS
 62
     3
100
AcDbCircle
 10
-39.850001
 20
-23.55
 30
0.0
 40
1.45
100
AcDbArc
 50
180.0
 51
0.0
  0
ARC
  5
22E
100
AcDbEntity
  8
0
390
0
  6
CONTINUOUS
 62
     3
100
AcDbCircle
 10
-42.750001
 20
-20.45
 30
0.0
 40
1.45
100
AcDbArc
 50
0.0
 51
180.0
  0
ARC
  5
22F
100
AcDbEntity
  8
0
390
0
  6
CONTINUOUS
 62
     3
100
AcDbCircle
 10
-45.650001
 20
-23.55
 30
0.0
 40
1.45
100
AcDbArc
 50
180.0
 51
0.0
  0
ARC
  5
230
100
AcDbEntity
  8
0
390
0
  6
CONTINUOUS
 62
     3
100
AcDbCircle
 10
-48.550001
 20
-20.45
 30
0.0
 40
1.45
100
AcDbArc
 50
0.0
 51
180.0
  0
ARC
  5
231
100
AcDbEntity
  8
0
390
0
  6
CONTINUOUS
 62
     3
100
AcDbCircle
 10
34.050001
 20
-23.55
 30
0.0
 40
1.45
100
AcDbArc
 50
180.0
 51
0.0
  0
ARC
  5
232
100
AcDbEntity
  8
0
390
0
  6
CONTINUOUS
 62
     3
100
AcDbCircle
 10
34.050001
 20
23.55
 30
0.0
 40
1.45
100
AcDbArc
 50
0.0
 51
180.0
  0
ARC
  5
233
100
AcDbEntity
  8
0
390
0
  6
CONTINUOUS
 62
     3
100
AcDbCircle
 10
36.950001
 20
20.45
 30
0.0
 40
1.45
100
AcDbArc
 50
180.0
 51
0.0
  0
ARC
  5
234
100
AcDbEntity
  8
0
390
0
  6
CONTINUOUS
 62
     3
100
AcDbCircle
 10
39.850001
 20
23.55
 30
0.0
 40
1.45
100
AcDbArc
 50
0.0
 51
180.0
  0
ARC
  5
235
100
AcDbEntity
  8
0
390
0
  6
CONTINUOUS
 62
     3
100
AcDbCircle
 10
42.750001
 20
20.45
 30
0.0
 40
1.45
100
AcDbArc
 50
180.0
 51
0.0
  0
ARC
  5
236
100
AcDbEntity
  8
0
390
0
  6
CONTINUOUS
 62
     3
100
AcDbCircle
 10
45.650001
 20
23.55
 30
0.0
 40
1.45
100
AcDbArc
 50
0.0
 51
180.0
  0
ARC
  5
237
100
AcDbEntity
  8
0
390
0
  6
CONTINUOUS
 62
     3
100
AcDbCircle
 10
48.550001
 20
20.45
 30
0.0
 40
1.45
100
AcDbArc
 50
180.0
 51
0.0
  0
ARC
  5
238
100
AcDbEntity
  8
0
390
0
  6
CONTINUOUS
 62
     3
100
AcDbCircle
 10
-34.050001
 20
23.55
 30
0.0
 40
1.45
100
AcDbArc
 50
0.0
 51
180.0
  0
ARC
  5
239
100
AcDbEntity
  8
0
390
0
  6
CONTINUOUS
 62
     3
100
AcDbCircle
 10
-36.950001
 20
20.45
 30
0.0
 40
1.45
100
AcDbArc
 50
180.0
 51
0.0
  0
ARC
  5
23A
100
AcDbEntity
  8
0
390
0
  6
CONTINUOUS
 62
     3
100
AcDbCircle
 10
-39.850001
 20
23.55
 30
0.0
 40
1.45
100
AcDbArc
 50
0.0
 51
180.0
  0
ARC
  5
23B
100
AcDbEntity
  8
0
390
0
  6
CONTINUOUS
 62
     3
100
AcDbCircle
 10
-42.750001
 20
20.45
 30
0.0
 40
1.45
100
AcDbArc
 50
180.0
 51
0.0
  0
ARC
  5
23C
100
AcDbEntity
  8
0
390
0
  6
CONTINUOUS
 62
     3
100
AcDbCircle
 10
-45.650001
 20
23.55
 30
0.0
 40
1.45
100
AcDbArc
 50
0.0
 51
180.0
  0
ARC
  5
23D
100
AcDbEntity
  8
0
390
0
  6
CONTINUOUS
 62
     3
100
AcDbCircle
 10
-48.550001
 20
20.45
 30
0.0
 40
1.45
100
AcDbArc
 50
180.0
 51
0.0
  0
ARC
  5
23E
100
AcDbEntity
  8
0
390
0
  6
CONTINUOUS
 62
     3
100
AcDbCircle
 10
55.000001
 20
21.0
 30
0.0
 40
2.0
100
AcDbArc
 50
180.0
 51
270.0
  0
ARC
  5
23F
100
AcDbEntity
  8
0
390
0
  6
CONTINUOUS
 62
     3
100
AcDbCircle
 10
55.000001
 20
-21.0
 30
0.0
 40
2.0
100
AcDbArc
 50
90.0
 51
180.0
  0
ARC
  5
240
100
AcDbEntity
  8
0
390
0
  6
CONTINUOUS
 62
     3
100
AcDbCircle
 10
-55.000001
 20
-21.0
 30
0.0
 40
2.0
100
AcDbArc
 50
0.0
 51
90.0
  0
ARC
  5
241
100
AcDbEntity
  8
0
390
0
  6
CONTINUOUS
 62
     3
100
AcDbCircle
 10
-55.000001
 20
21.0
 30
0.0
 40
2.0
100
AcDbArc
 50
270.0
 51
0.0
  0
ARC
  5
242
100
AcDbEntity
  8
0
390
0
  6
CONTINUOUS
 62
     3
100
AcDbCircle
 10
-98.592333
 20
23.9
 30
0.0
 40
0.25
100
AcDbArc
 50
340.000077
 51
89.999946
  0
ARC
  5
243
100
AcDbEntity
  8
0
390
0
  6
CONTINUOUS
 62
     3
100
AcDbCircle
 10
-98.592333
 20
-23.9
 30
0.0
 40
0.25
100
AcDbArc
 50
269.999982
 51
19.999851
  0
LINE
  5
244
100
AcDbEntity
  8
0
390
0
  6
CONTINUOUS
 62
     3
100
AcDbLine
 10
96.2
 20
19.15
 30
0.0
 11
96.2
 21
-19.15
 31
0.0
  0
LINE
  5
245
100
AcDbEntity
  8
0
390
0
  6
CONTINUOUS
 62
     3
100
AcDbLine
 10
-96.2
 20
-19.15
 30
0.0
 11
-96.2
 21
19.15
 31
0.0
  0
LINE
  5
246
100
AcDbEntity
  8
0
390
0
  6
CONTINUOUS
 62
     3
100
AcDbLine
 10
87.3
 20
-20.0
 30
0.0
 11
92.38
 21
-20.0
 31
0.0
  0
LINE
  5
247
100
AcDbEntity
  8
0
390
0
  6
CONTINUOUS
 62
     3
100
AcDbLine
 10
87.3
 20
20.0
 30
0.0
 11
92.38
 21
20.0
 31
0.0
  0
LINE
  5
248
100
AcDbEntity
  8
0
390
0
  6
CENTER
 62
   110
100
AcDbLine
 10
-14.0
 20
0.0
 30
0.0
 11
105.0
 21
0.0
 31
0.0
  0
LINE
  5
249
100
AcDbEntity
  8
0
390
0
  6
CENTER
 62
   110
100
AcDbLine
 10
-70.0
 20
0.0
 30
0.0
 11
-32.0
 21
0.0
 31
0.0
  0
LINE
  5
24A
100
AcDbEntity
  8
0
390
0
  6
PHANTOM
 62
   110
100
AcDbLine
 10
-2.885035
 20
-25.0
 30
0.0
 11
34.050001
 21
-25.0
 31
0.0
  0
LINE
  5
24B
100
AcDbEntity
  8
0
390
0
  6
PHANTOM
 62
   110
100
AcDbLine
 10
-1.827073
 20
-19.0
 30
0.0
 11
36.950001
 21
-19.0
 31
0.0
  0
LINE
  5
24C
100
AcDbEntity
  8
0
390
0
  6
PHANTOM
 62
   110
100
AcDbLine
 10
4.873353
 20
19.0
 30
0.0
 11
36.950001
 21
19.0
 31
0.0
  0
LINE
  5
24D
100
AcDbEntity
  8
0
390
0
  6
PHANTOM
 62
   110
100
AcDbLine
 10
5.931314
 20
25.0
 30
0.0
 11
34.050001
 21
25.0
 31
0.0
  0
LINE
  5
24E
100
AcDbEntity
  8
0
390
0
  6
CENTER
 62
   110
100
AcDbLine
 10
-3.414016
 20
-28.0
 30
0.0
 11
6.460295
 21
28.0
 31
0.0
  0
LINE
  5
24F
100
AcDbEntity
  8
0
390
0
  6
CENTER
 62
   110
100
AcDbLine
 10
-6.460295
 20
-28.0
 30
0.0
 11
3.414016
 21
28.0
 31
0.0
  0
LINE
  5
250
100
AcDbEntity
  8
0
390
0
  6
CONTINUOUS
 62
     3
100
AcDbLine
 10
32.600001
 20
-23.55
 30
0.0
 11
32.600001
 21
-20.45
 31
0.0
  0
LINE
  5
251
100
AcDbEntity
  8
0
390
0
  6
CONTINUOUS
 62
     3
100
AcDbLine
 10
35.500001
 20
-23.55
 30
0.0
 11
35.500001
 21
-20.45
 31
0.0
  0
LINE
  5
252
100
AcDbEntity
  8
0
390
0
  6
CONTINUOUS
 62
     3
100
AcDbLine
 10
38.400001
 20
-23.55
 30
0.0
 11
38.400001
 21
-20.45
 31
0.0
  0
LINE
  5
253
100
AcDbEntity
  8
0
390
0
  6
CONTINUOUS
 62
     3
100
AcDbLine
 10
41.300001
 20
-23.55
 30
0.0
 11
41.300001
 21
-20.45
 31
0.0
  0
LINE
  5
254
100
AcDbEntity
  8
0
390
0
  6
CONTINUOUS
 62
     3
100
AcDbLine
 10
44.200001
 20
-23.55
 30
0.0
 11
44.200001
 21
-20.45
 31
0.0
  0
LINE
  5
255
100
AcDbEntity
  8
0
390
0
  6
CONTINUOUS
 62
     3
100
AcDbLine
 10
47.100001
 20
-23.55
 30
0.0
 11
47.100001
 21
-20.45
 31
0.0
  0
LINE
  5
256
100
AcDbEntity
  8
0
390
0
  6
PHANTOM
 62
   110
100
AcDbLine
 10
-34.050001
 20
-25.0
 30
0.0
 11
-5.931314
 21
-25.0
 31
0.0
  0
LINE
  5
257
100
AcDbEntity
  8
0
390
0
  6
PHANTOM
 62
   110
100
AcDbLine
 10
-36.950001
 20
-19.0
 30
0.0
 11
-4.873353
 21
-19.0
 31
0.0
  0
LINE
  5
258
100
AcDbEntity
  8
0
390
0
  6
CONTINUOUS
 62
     3
100
AcDbLine
 10
-32.600001
 20
-23.55
 30
0.0
 11
-32.600001
 21
-20.45
 31
0.0
  0
LINE
  5
259
100
AcDbEntity
  8
0
390
0
  6
CONTINUOUS
 62
     3
100
AcDbLine
 10
-35.500001
 20
-23.55
 30
0.0
 11
-35.500001
 21
-20.45
 31
0.0
  0
LINE
  5
25A
100
AcDbEntity
  8
0
390
0
  6
CONTINUOUS
 62
     3
100
AcDbLine
 10
-38.400001
 20
-23.55
 30
0.0
 11
-38.400001
 21
-20.45
 31
0.0
  0
LINE
  5
25B
100
AcDbEntity
  8
0
390
0
  6
CONTINUOUS
 62
     3
100
AcDbLine
 10
-41.300001
 20
-23.55
 30
0.0
 11
-41.300001
 21
-20.45
 31
0.0
  0
LINE
  5
25C
100
AcDbEntity
  8
0
390
0
  6
CONTINUOUS
 62
     3
100
AcDbLine
 10
-44.200001
 20
-23.55
 30
0.0
 11
-44.200001
 21
-20.45
 31
0.0
  0
LINE
  5
25D
100
AcDbEntity
  8
0
390
0
  6
CONTINUOUS
 62
     3
100
AcDbLine
 10
-47.100001
 20
-23.55
 30
0.0
 11
-47.100001
 21
-20.45
 31
0.0
  0
LINE
  5
25E
100
AcDbEntity
  8
0
390
0
  6
CONTINUOUS
 62
     3
100
AcDbLine
 10
32.600001
 20
23.55
 30
0.0
 11
32.600001
 21
20.45
 31
0.0
  0
LINE
  5
25F
100
AcDbEntity
  8
0
390
0
  6
CONTINUOUS
 62
     3
100
AcDbLine
 10
35.500001
 20
23.55
 30
0.0
 11
35.500001
 21
20.45
 31
0.0
  0
LINE
  5
260
100
AcDbEntity
  8
0
390
0
  6
CONTINUOUS
 62
     3
100
AcDbLine
 10
38.400001
 20
23.55
 30
0.0
 11
38.400001
 21
20.45
 31
0.0
  0
LINE
  5
261
100
AcDbEntity
  8
0
390
0
  6
CONTINUOUS
 62
     3
100
AcDbLine
 10
41.300001
 20
23.55
 30
0.0
 11
41.300001
 21
20.45
 31
0.0
  0
LINE
  5
262
100
AcDbEntity
  8
0
390
0
  6
CONTINUOUS
 62
     3
100
AcDbLine
 10
44.200001
 20
23.55
 30
0.0
 11
44.200001
 21
20.45
 31
0.0
  0
LINE
  5
263
100
AcDbEntity
  8
0
390
0
  6
CONTINUOUS
 62
     3
100
AcDbLine
 10
47.100001
 20
23.55
 30
0.0
 11
47.100001
 21
20.45
 31
0.0
  0
LINE
  5
264
100
AcDbEntity
  8
0
390
0
  6
PHANTOM
 62
   110
100
AcDbLine
 10
-34.050001
 20
25.0
 30
0.0
 11
2.885035
 21
25.0
 31
0.0
  0
LINE
  5
265
100
AcDbEntity
  8
0
390
0
  6
PHANTOM
 62
   110
100
AcDbLine
 10
-36.950001
 20
19.0
 30
0.0
 11
1.827073
 21
19.0
 31
0.0
  0
LINE
  5
266
100
AcDbEntity
  8
0
390
0
  6
CONTINUOUS
 62
     3
100
AcDbLine
 10
-32.600001
 20
23.55
 30
0.0
 11
-32.600001
 21
20.45
 31
0.0
  0
LINE
  5
267
100
AcDbEntity
  8
0
390
0
  6
CONTINUOUS
 62
     3
100
AcDbLine
 10
-35.500001
 20
23.55
 30
0.0
 11
-35.500001
 21
20.45
 31
0.0
  0
LINE
  5
268
100
AcDbEntity
  8
0
390
0
  6
CONTINUOUS
 62
     3
100
AcDbLine
 10
-38.400001
 20
23.55
 30
0.0
 11
-38.400001
 21
20.45
 31
0.0
  0
LINE
  5
269
100
AcDbEntity
  8
0
390
0
  6
CONTINUOUS
 62
     3
100
AcDbLine
 10
-41.300001
 20
23.55
 30
0.0
 11
-41.300001
 21
20.45
 31
0.0
  0
LINE
  5
26A
100
AcDbEntity
  8
0
390
0
  6
CONTINUOUS
 62
     3
100
AcDbLine
 10
-44.200001
 20
23.55
 30
0.0
 11
-44.200001
 21
20.45
 31
0.0
  0
LINE
  5
26B
100
AcDbEntity
  8
0
390
0
  6
CONTINUOUS
 62
     3
100
AcDbLine
 10
-47.100001
 20
23.55
 30
0.0
 11
-47.100001
 21
20.45
 31
0.0
  0
LINE
  5
26C
100
AcDbEntity
  8
0
390
0
  6
CONTINUOUS
 62
     3
100
AcDbLine
 10
92.38
 20
-19.0
 30
0.0
 11
92.38
 21
-24.15
 31
0.0
  0
LINE
  5
26D
100
AcDbEntity
  8
0
390
0
  6
CONTINUOUS
 62
     3
100
AcDbLine
 10
87.3
 20
-19.0
 30
0.0
 11
87.3
 21
-33.850002
 31
0.0
  0
LINE
  5
26E
100
AcDbEntity
  8
0
390
0
  6
CONTINUOUS
 62
     3
100
AcDbLine
 10
50.600001
 20
-26.25
 30
0.0
 11
53.000001
 21
-22.093078
 31
0.0
  0
LINE
  5
26F
100
AcDbEntity
  8
0
390
0
  6
CONTINUOUS
 62
     3
100
AcDbLine
 10
53.000001
 20
-21.0
 30
0.0
 11
53.000001
 21
-22.093078
 31
0.0
  0
LINE
  5
270
100
AcDbEntity
  8
0
390
0
  6
CONTINUOUS
 62
     3
100
AcDbLine
 10
50.600001
 20
-26.25
 30
0.0
 11
50.000001
 21
-26.25
 31
0.0
  0
LINE
  5
271
100
AcDbEntity
  8
0
390
0
  6
CONTINUOUS
 62
     3
100
AcDbLine
 10
94.700001
 20
-17.5
 30
0.0
 11
50.000001
 21
-17.5
 31
0.0
  0
LINE
  5
272
100
AcDbEntity
  8
0
390
0
  6
CONTINUOUS
 62
     3
100
AcDbLine
 10
94.700001
 20
-19.0
 30
0.0
 11
55.000001
 21
-19.0
 31
0.0
  0
LINE
  5
273
100
AcDbEntity
  8
0
390
0
  6
CONTINUOUS
 62
     3
100
AcDbLine
 10
50.000001
 20
26.25
 30
0.0
 11
50.000001
 21
-26.25
 31
0.0
  0
LINE
  5
274
100
AcDbEntity
  8
0
390
0
  6
CONTINUOUS
 62
     3
100
AcDbLine
 10
50.600001
 20
26.25
 30
0.0
 11
53.000001
 21
22.093078
 31
0.0
  0
LINE
  5
275
100
AcDbEntity
  8
0
390
0
  6
CONTINUOUS
 62
     3
100
AcDbLine
 10
53.000001
 20
21.0
 30
0.0
 11
53.000001
 21
22.093078
 31
0.0
  0
LINE
  5
276
100
AcDbEntity
  8
0
390
0
  6
CONTINUOUS
 62
     3
100
AcDbLine
 10
50.600001
 20
26.25
 30
0.0
 11
50.000001
 21
26.25
 31
0.0
  0
LINE
  5
277
100
AcDbEntity
  8
0
390
0
  6
CONTINUOUS
 62
     3
100
AcDbLine
 10
94.700001
 20
17.5
 30
0.0
 11
50.000001
 21
17.5
 31
0.0
  0
LINE
  5
278
100
AcDbEntity
  8
0
390
0
  6
CONTINUOUS
 62
     3
100
AcDbLine
 10
94.700001
 20
19.0
 30
0.0
 11
55.000001
 21
19.0
 31
0.0
  0
LINE
  5
279
100
AcDbEntity
  8
0
390
0
  6
CONTINUOUS
 62
     3
100
AcDbLine
 10
-87.300001
 20
19.0
 30
0.0
 11
-87.300001
 21
33.850002
 31
0.0
  0
LINE
  5
27A
100
AcDbEntity
  8
0
390
0
  6
CONTINUOUS
 62
     3
100
AcDbLine
 10
-50.600001
 20
-26.25
 30
0.0
 11
-53.000001
 21
-22.093078
 31
0.0
  0
LINE
  5
27B
100
AcDbEntity
  8
0
390
0
  6
CONTINUOUS
 62
     3
100
AcDbLine
 10
-53.000001
 20
-21.0
 30
0.0
 11
-53.000001
 21
-22.093078
 31
0.0
  0
LINE
  5
27C
100
AcDbEntity
  8
0
390
0
  6
CONTINUOUS
 62
     3
100
AcDbLine
 10
-50.600001
 20
-26.25
 30
0.0
 11
-50.000001
 21
-26.25
 31
0.0
  0
LINE
  5
27D
100
AcDbEntity
  8
0
390
0
  6
CONTINUOUS
 62
     3
100
AcDbLine
 10
-94.700001
 20
-17.5
 30
0.0
 11
-50.000001
 21
-17.5
 31
0.0
  0
LINE
  5
27E
100
AcDbEntity
  8
0
390
0
  6
CONTINUOUS
 62
     3
100
AcDbLine
 10
-94.700001
 20
-19.0
 30
0.0
 11
-55.000001
 21
-19.0
 31
0.0
  0
LINE
  5
27F
100
AcDbEntity
  8
0
390
0
  6
CONTINUOUS
 62
     3
100
AcDbLine
 10
-50.000001
 20
26.25
 30
0.0
 11
-50.000001
 21
-26.25
 31
0.0
  0
LINE
  5
280
100
AcDbEntity
  8
0
390
0
  6
CONTINUOUS
 62
     3
100
AcDbLine
 10
-50.600001
 20
26.25
 30
0.0
 11
-53.000001
 21
22.093078
 31
0.0
  0
LINE
  5
281
100
AcDbEntity
  8
0
390
0
  6
CONTINUOUS
 62
     3
100
AcDbLine
 10
-53.000001
 20
21.0
 30
0.0
 11
-53.000001
 21
22.093078
 31
0.0
  0
LINE
  5
282
100
AcDbEntity
  8
0
390
0
  6
CONTINUOUS
 62
     3
100
AcDbLine
 10
-50.600001
 20
26.25
 30
0.0
 11
-50.000001
 21
26.25
 31
0.0
  0
LINE
  5
283
100
AcDbEntity
  8
0
390
0
  6
CONTINUOUS
 62
     3
100
AcDbLine
 10
-94.700001
 20
17.5
 30
0.0
 11
-50.000001
 21
17.5
 31
0.0
  0
LINE
  5
284
100
AcDbEntity
  8
0
390
0
  6
CONTINUOUS
 62
     3
100
AcDbLine
 10
-94.700001
 20
19.0
 30
0.0
 11
-55.000001
 21
19.0
 31
0.0
  0
LINE
  5
285
100
AcDbEntity
  8
0
390
0
  6
CONTINUOUS
 62
     3
100
AcDbLine
 10
99.4
 20
-20.950007
 30
0.0
 11
98.8
 21
-20.897514
 31
0.0
  0
LINE
  5
286
100
AcDbEntity
  8
0
390
0
  6
CONTINUOUS
 62
     3
100
AcDbLine
 10
99.400001
 20
-20.950001
 30
0.0
 11
98.235297
 21
-24.150001
 31
0.0
  0
LINE
  5
287
100
AcDbEntity
  8
0
390
0
  6
CONTINUOUS
 62
     3
100
AcDbLine
 10
99.400001
 20
20.950001
 30
0.0
 11
98.235297
 21
24.150001
 31
0.0
  0
LINE
  5
288
100
AcDbEntity
  8
0
390
0
  6
CONTINUOUS
 62
     3
100
AcDbLine
 10
99.4
 20
20.950007
 30
0.0
 11
98.8
 21
20.897514
 31
0.0
  0
LINE
  5
289
100
AcDbEntity
  8
0
390
0
  6
CONTINUOUS
 62
     3
100
AcDbLine
 10
87.3
 20
33.850002
 30
0.0
 11
87.3
 21
19.0
 31
0.0
  0
LINE
  5
28A
100
AcDbEntity
  8
0
390
0
  6
CONTINUOUS
 62
     3
100
AcDbLine
 10
92.38
 20
24.15
 30
0.0
 11
92.38
 21
19.0
 31
0.0
  0
LINE
  5
28B
100
AcDbEntity
  8
0
390
0
  6
CONTINUOUS
 62
     3
100
AcDbLine
 10
94.7
 20
19.15
 30
0.0
 11
94.7
 21
-19.15
 31
0.0
  0
LINE
  5
28C
100
AcDbEntity
  8
0
390
0
  6
CONTINUOUS
 62
     3
100
AcDbLine
 10
98.8
 20
20.897507
 30
0.0
 11
98.8
 21
-20.897507
 31
0.0
  0
LINE
  5
28D
100
AcDbEntity
  8
0
390
0
  6
CONTINUOUS
 62
     3
100
AcDbLine
 10
100.0
 20
33.850002
 30
0.0
 11
100.0
 21
-33.850002
 31
0.0
  0
LINE
  5
28E
100
AcDbEntity
  8
0
390
0
  6
CENTER
 62
   110
100
AcDbLine
 10
103.0
 20
-29.35
 30
0.0
 11
84.3
 21
-29.35
 31
0.0
  0
LINE
  5
28F
100
AcDbEntity
  8
0
390
0
  6
CENTER
 62
   110
100
AcDbLine
 10
103.0
 20
29.35
 30
0.0
 11
84.3
 21
29.35
 31
0.0
  0
LINE
  5
290
100
AcDbEntity
  8
0
390
0
  6
CONTINUOUS
 62
     3
100
AcDbLine
 10
94.7
 20
-19.15
 30
0.0
 11
92.38
 21
-19.15
 31
0.0
  0
LINE
  5
291
100
AcDbEntity
  8
0
390
0
  6
CONTINUOUS
 62
     3
100
AcDbLine
 10
94.7
 20
19.15
 30
0.0
 11
92.38
 21
19.15
 31
0.0
  0
LINE
  5
292
100
AcDbEntity
  8
0
390
0
  6
CONTINUOUS
 62
     3
100
AcDbLine
 10
96.2
 20
-18.049999
 30
0.0
 11
94.7
 21
-18.049999
 31
0.0
  0
LINE
  5
293
100
AcDbEntity
  8
0
390
0
  6
CONTINUOUS
 62
     3
100
AcDbLine
 10
96.2
 20
18.049999
 30
0.0
 11
94.7
 21
18.049999
 31
0.0
  0
LINE
  5
294
100
AcDbEntity
  8
0
390
0
  6
CONTINUOUS
 62
     3
100
AcDbLine
 10
98.8
 20
19.15
 30
0.0
 11
96.2
 21
19.15
 31
0.0
  0
LINE
  5
295
100
AcDbEntity
  8
0
390
0
  6
CONTINUOUS
 62
     3
100
AcDbLine
 10
98.8
 20
-19.15
 30
0.0
 11
96.2
 21
-19.15
 31
0.0
  0
LINE
  5
296
100
AcDbEntity
  8
0
390
0
  6
CONTINUOUS
 62
     3
100
AcDbLine
 10
87.300001
 20
-33.85
 30
0.0
 11
88.100001
 21
-34.65
 31
0.0
  0
LINE
  5
297
100
AcDbEntity
  8
0
390
0
  6
CONTINUOUS
 62
     3
100
AcDbLine
 10
100.000011
 20
-33.850011
 30
0.0
 11
99.200013
 21
-34.65001
 31
0.0
  0
LINE
  5
298
100
AcDbEntity
  8
0
390
0
  6
CONTINUOUS
 62
     3
100
AcDbLine
 10
99.200005
 20
34.650008
 30
0.0
 11
100.000005
 21
33.850009
 31
0.0
  0
LINE
  5
299
100
AcDbEntity
  8
0
390
0
  6
CONTINUOUS
 62
     3
100
AcDbLine
 10
87.300001
 20
33.85
 30
0.0
 11
88.100001
 21
34.65
 31
0.0
  0
LINE
  5
29A
100
AcDbEntity
  8
0
390
0
  6
CONTINUOUS
 62
     3
100
AcDbLine
 10
100.0
 20
-32.75
 30
0.0
 11
87.3
 21
-32.75
 31
0.0
  0
LINE
  5
29B
100
AcDbEntity
  8
0
390
0
  6
CONTINUOUS
 62
     3
100
AcDbLine
 10
100.0
 20
-25.950001
 30
0.0
 11
87.3
 21
-25.950001
 31
0.0
  0
LINE
  5
29C
100
AcDbEntity
  8
0
390
0
  6
CONTINUOUS
 62
     3
100
AcDbLine
 10
100.0
 20
32.75
 30
0.0
 11
87.3
 21
32.75
 31
0.0
  0
LINE
  5
29D
100
AcDbEntity
  8
0
390
0
  6
CONTINUOUS
 62
     3
100
AcDbLine
 10
100.0
 20
25.950001
 30
0.0
 11
87.3
 21
25.950001
 31
0.0
  0
LINE
  5
29E
100
AcDbEntity
  8
0
390
0
  6
CONTINUOUS
 62
     3
100
AcDbLine
 10
99.4
 20
20.950001
 30
0.0
 11
99.4
 21
-20.950001
 31
0.0
  0
LINE
  5
29F
100
AcDbEntity
  8
0
390
0
  6
CONTINUOUS
 62
     3
100
AcDbLine
 10
100.0
 20
-24.15
 30
0.0
 11
92.38
 21
-24.15
 31
0.0
  0
LINE
  5
2A0
100
AcDbEntity
  8
0
390
0
  6
CONTINUOUS
 62
     3
100
AcDbLine
 10
100.0
 20
24.15
 30
0.0
 11
92.38
 21
24.15
 31
0.0
  0
LINE
  5
2A1
100
AcDbEntity
  8
0
390
0
  6
CONTINUOUS
 62
     3
100
AcDbLine
 10
99.2
 20
34.650002
 30
0.0
 11
88.100001
 21
34.650002
 31
0.0
  0
LINE
  5
2A2
100
AcDbEntity
  8
0
390
0
  6
CONTINUOUS
 62
     3
100
AcDbLine
 10
99.200002
 20
-34.650002
 30
0.0
 11
88.100001
 21
-34.650002
 31
0.0
  0
LINE
  5
2A3
100
AcDbEntity
  8
0
390
0
  6
CONTINUOUS
 62
     3
100
AcDbLine
 10
-99.400002
 20
-20.949995
 30
0.0
 11
-99.400002
 21
20.949995
 31
0.0
  0
LINE
  5
2A4
100
AcDbEntity
  8
0
390
0
  6
CONTINUOUS
 62
     3
100
AcDbLine
 10
-99.400001
 20
-20.950002
 30
0.0
 11
-98.800002
 21
-20.89751
 31
0.0
  0
LINE
  5
2A5
100
AcDbEntity
  8
0
390
0
  6
CONTINUOUS
 62
     3
100
AcDbLine
 10
-99.4
 20
-20.949998
 30
0.0
 11
-98.357409
 21
-23.814494
 31
0.0
  0
LINE
  5
2A6
100
AcDbEntity
  8
0
390
0
  6
CONTINUOUS
 62
     3
100
AcDbLine
 10
-99.400001
 20
20.950002
 30
0.0
 11
-98.800002
 21
20.89751
 31
0.0
  0
LINE
  5
2A7
100
AcDbEntity
  8
0
390
0
  6
CONTINUOUS
 62
     3
100
AcDbLine
 10
-99.4
 20
20.949998
 30
0.0
 11
-98.357409
 21
23.814494
 31
0.0
  0
LINE
  5
2A8
100
AcDbEntity
  8
0
390
0
  6
CONTINUOUS
 62
     3
100
AcDbLine
 10
-87.300001
 20
-33.850002
 30
0.0
 11
-87.300001
 21
-19.0
 31
0.0
  0
LINE
  5
2A9
100
AcDbEntity
  8
0
390
0
  6
CONTINUOUS
 62
     3
100
AcDbLine
 10
-94.700001
 20
-19.15
 30
0.0
 11
-94.700001
 21
19.15
 31
0.0
  0
LINE
  5
2AA
100
AcDbEntity
  8
0
390
0
  6
CONTINUOUS
 62
     3
100
AcDbLine
 10
-98.800001
 20
-20.897507
 30
0.0
 11
-98.800001
 21
20.897507
 31
0.0
  0
LINE
  5
2AB
100
AcDbEntity
  8
0
390
0
  6
CONTINUOUS
 62
     3
100
AcDbLine
 10
-100.0
 20
-33.850002
 30
0.0
 11
-100.0
 21
33.850002
 31
0.0
  0
LINE
  5
2AC
100
AcDbEntity
  8
0
390
0
  6
CENTER
 62
   110
100
AcDbLine
 10
-103.0
 20
29.35
 30
0.0
 11
-84.300001
 21
29.35
 31
0.0
  0
LINE
  5
2AD
100
AcDbEntity
  8
0
390
0
  6
CENTER
 62
   110
100
AcDbLine
 10
-103.0
 20
-29.35
 30
0.0
 11
-84.300001
 21
-29.35
 31
0.0
  0
LINE
  5
2AE
100
AcDbEntity
  8
0
390
0
  6
CONTINUOUS
 62
     3
100
AcDbLine
 10
-94.700001
 20
19.15
 30
0.0
 11
-87.300001
 21
19.15
 31
0.0
  0
LINE
  5
2AF
100
AcDbEntity
  8
0
390
0
  6
CONTINUOUS
 62
     3
100
AcDbLine
 10
-94.700001
 20
-19.15
 30
0.0
 11
-87.300001
 21
-19.15
 31
0.0
  0
LINE
  5
2B0
100
AcDbEntity
  8
0
390
0
  6
CONTINUOUS
 62
     3
100
AcDbLine
 10
-96.2
 20
18.049999
 30
0.0
 11
-94.700001
 21
18.049999
 31
0.0
  0
LINE
  5
2B1
100
AcDbEntity
  8
0
390
0
  6
CONTINUOUS
 62
     3
100
AcDbLine
 10
-96.2
 20
-18.049999
 30
0.0
 11
-94.700001
 21
-18.049999
 31
0.0
  0
LINE
  5
2B2
100
AcDbEntity
  8
0
390
0
  6
CONTINUOUS
 62
     3
100
AcDbLine
 10
-98.800001
 20
-19.15
 30
0.0
 11
-96.2
 21
-19.15
 31
0.0
  0
LINE
  5
2B3
100
AcDbEntity
  8
0
390
0
  6
CONTINUOUS
 62
     3
100
AcDbLine
 10
-98.800001
 20
19.15
 30
0.0
 11
-96.2
 21
19.15
 31
0.0
  0
LINE
  5
2B4
100
AcDbEntity
  8
0
390
0
  6
CONTINUOUS
 62
     3
100
AcDbLine
 10
-87.300004
 20
33.849997
 30
0.0
 11
-88.100004
 21
34.649996
 31
0.0
  0
LINE
  5
2B5
100
AcDbEntity
  8
0
390
0
  6
CONTINUOUS
 62
     3
100
AcDbLine
 10
-100.000013
 20
33.850015
 30
0.0
 11
-99.200015
 21
34.650014
 31
0.0
  0
LINE
  5
2B6
100
AcDbEntity
  8
0
390
0
  6
CONTINUOUS
 62
     3
100
AcDbLine
 10
-99.200003
 20
-34.650004
 30
0.0
 11
-100.000003
 21
-33.850005
 31
0.0
  0
LINE
  5
2B7
100
AcDbEntity
  8
0
390
0
  6
CONTINUOUS
 62
     3
100
AcDbLine
 10
-87.300004
 20
-33.849997
 30
0.0
 11
-88.100004
 21
-34.649996
 31
0.0
  0
LINE
  5
2B8
100
AcDbEntity
  8
0
390
0
  6
CONTINUOUS
 62
     3
100
AcDbLine
 10
-100.0
 20
32.75
 30
0.0
 11
-87.300001
 21
32.75
 31
0.0
  0
LINE
  5
2B9
100
AcDbEntity
  8
0
390
0
  6
CONTINUOUS
 62
     3
100
AcDbLine
 10
-100.0
 20
25.950001
 30
0.0
 11
-87.300001
 21
25.950001
 31
0.0
  0
LINE
  5
2BA
100
AcDbEntity
  8
0
390
0
  6
CONTINUOUS
 62
     3
100
AcDbLine
 10
-100.0
 20
-32.75
 30
0.0
 11
-87.300001
 21
-32.75
 31
0.0
  0
LINE
  5
2BB
100
AcDbEntity
  8
0
390
0
  6
CONTINUOUS
 62
     3
100
AcDbLine
 10
-100.0
 20
-25.950001
 30
0.0
 11
-87.300001
 21
-25.950001
 31
0.0
  0
LINE
  5
2BC
100
AcDbEntity
  8
0
390
0
  6
CONTINUOUS
 62
     3
100
AcDbLine
 10
-100.0
 20
24.15
 30
0.0
 11
-98.592333
 21
24.15
 31
0.0
  0
LINE
  5
2BD
100
AcDbEntity
  8
0
390
0
  6
CONTINUOUS
 62
     3
100
AcDbLine
 10
-100.0
 20
-24.15
 30
0.0
 11
-98.592333
 21
-24.15
 31
0.0
  0
LINE
  5
2BE
100
AcDbEntity
  8
0
390
0
  6
CONTINUOUS
 62
     3
100
AcDbLine
 10
-99.200001
 20
-34.650002
 30
0.0
 11
-88.100002
 21
-34.650002
 31
0.0
  0
LINE
  5
2BF
100
AcDbEntity
  8
0
390
0
  6
CONTINUOUS
 62
     3
100
AcDbLine
 10
-99.200003
 20
34.650002
 30
0.0
 11
-88.100002
 21
34.650002
 31
0.0
  0
LINE
  5
2C0
100
AcDbEntity
  8
0
390
0
  6
CENTER
 62
   110
100
AcDbLine
 10
-105.0
 20
0.0
 30
0.0
 11
-80.0
 21
0.0
 31
0.0
  0
ENDBLK
  5
2C1
100
AcDbEntity
  8
0
370
    -2
390
0
100
AcDbBlockEnd
  0
BLOCK
  5
2C2
100
AcDbEntity
  8
0
370
    -2
390
0
100
AcDbBlockBegin
  2
VF2114
 70
     0
 10
0.0
 20
0.0
 30
0.0
  3
VF2114
  1

  0
LINE
  5
2C3
100
AcDbEntity
  8
0
390
0
  6
CONTINUOUS
 62
   110
100
AcDbLine
 10
-168.0
 20
46.099998
 30
0.0
 11
-168.0
 21
43.329998
 31
0.0
  0
LINE
  5
2C4
100
AcDbEntity
  8
0
390
0
  6
CONTINUOUS
 62
   110
100
AcDbLine
 10
-168.0
 20
46.099998
 30
0.0
 11
-167.257781
 21
43.329998
 31
0.0
  0
LINE
  5
2C5
100
AcDbEntity
  8
0
390
0
  6
CONTINUOUS
 62
   110
100
AcDbLine
 10
-168.742219
 20
43.329998
 30
0.0
 11
-168.0
 21
46.099998
 31
0.0
  0
LINE
  5
2C6
100
AcDbEntity
  8
0
390
0
  6
CONTINUOUS
 62
   110
100
AcDbLine
 10
-168.0
 20
-46.099998
 30
0.0
 11
-168.0
 21
-43.329998
 31
0.0
  0
LINE
  5
2C7
100
AcDbEntity
  8
0
390
0
  6
CONTINUOUS
 62
   110
100
AcDbLine
 10
-168.0
 20
-46.099998
 30
0.0
 11
-168.742219
 21
-43.329998
 31
0.0
  0
LINE
  5
2C8
100
AcDbEntity
  8
0
390
0
  6
CONTINUOUS
 62
   110
100
AcDbLine
 10
-167.257781
 20
-43.329998
 30
0.0
 11
-168.0
 21
-46.099998
 31
0.0
  0
MTEXT
  5
2C9
100
AcDbEntity
  8
0
390
0
  6
CONTINUOUS
 62
   110
100
AcDbMText
 10
-170.6
 20
0.0
 30
0.0
 40
3.2
 41
0.0
 71
     5
 72
     1
  1
\W1.100000;\A1;PCD92.2
 11
0.0
 21
1.0
 31
0.0
 73
     1
 44
0.9
  0
LINE
  5
2CA
100
AcDbEntity
  8
0
390
0
  6
CONTINUOUS
 62
   110
100
AcDbLine
 10
-155.0
 20
46.099998
 30
0.0
 11
-170.286003
 21
46.099998
 31
0.0
  0
LINE
  5
2CB
100
AcDbEntity
  8
0
390
0
  6
CONTINUOUS
 62
   110
100
AcDbLine
 10
-155.0
 20
-46.099998
 30
0.0
 11
-170.286003
 21
-46.099998
 31
0.0
  0
LINE
  5
2CC
100
AcDbEntity
  8
0
390
0
  6
CONTINUOUS
 62
   110
100
AcDbLine
 10
-168.0
 20
-46.099998
 30
0.0
 11
-168.0
 21
46.099998
 31
0.0
  0
LINE
  5
2CD
100
AcDbEntity
  8
0
390
0
  6
CONTINUOUS
 62
   110
100
AcDbLine
 10
75.0
 20
80.0
 30
0.0
 11
72.23
 21
80.0
 31
0.0
  0
LINE
  5
2CE
100
AcDbEntity
  8
0
390
0
  6
CONTINUOUS
 62
   110
100
AcDbLine
 10
75.0
 20
80.0
 30
0.0
 11
72.23
 21
79.257781
 31
0.0
  0
LINE
  5
2CF
100
AcDbEntity
  8
0
390
0
  6
CONTINUOUS
 62
   110
100
AcDbLine
 10
72.23
 20
80.742219
 30
0.0
 11
75.0
 21
80.0
 31
0.0
  0
LINE
  5
2D0
100
AcDbEntity
  8
0
390
0
  6
CONTINUOUS
 62
   110
100
AcDbLine
 10
-75.0
 20
80.0
 30
0.0
 11
-72.23
 21
80.0
 31
0.0
  0
LINE
  5
2D1
100
AcDbEntity
  8
0
390
0
  6
CONTINUOUS
 62
   110
100
AcDbLine
 10
-75.0
 20
80.0
 30
0.0
 11
-72.23
 21
80.742219
 31
0.0
  0
LINE
  5
2D2
100
AcDbEntity
  8
0
390
0
  6
CONTINUOUS
 62
   110
100
AcDbLine
 10
-72.23
 20
79.257781
 30
0.0
 11
-75.0
 21
80.0
 31
0.0
  0
MTEXT
  5
2D3
100
AcDbEntity
  8
0
390
0
  6
CONTINUOUS
 62
   110
100
AcDbMText
 10
0.0
 20
82.6
 30
0.0
 40
3.2
 41
0.0
 71
     5
 72
     1
  1
\W1.200000;\A1;(350)
 73
     1
 44
0.9
  0
LINE
  5
2D4
100
AcDbEntity
  8
0
390
0
  6
CONTINUOUS
 62
   110
100
AcDbLine
 10
75.0
 20
46.5
 30
0.0
 11
75.0
 21
82.286
 31
0.0
  0
LINE
  5
2D5
100
AcDbEntity
  8
0
390
0
  6
CONTINUOUS
 62
   110
100
AcDbLine
 10
-75.0
 20
80.0
 30
0.0
 11
75.0
 21
80.0
 31
0.0
  0
LINE
  5
2D6
100
AcDbEntity
  8
0
390
0
  6
CONTINUOUS
 62
   110
100
AcDbLine
 10
-75.0
 20
80.0
 30
0.0
 11
-77.77
 21
80.0
 31
0.0
  0
LINE
  5
2D7
100
AcDbEntity
  8
0
390
0
  6
CONTINUOUS
 62
   110
100
AcDbLine
 10
-75.0
 20
80.0
 30
0.0
 11
-77.77
 21
79.257781
 31
0.0
  0
LINE
  5
2D8
100
AcDbEntity
  8
0
390
0
  6
CONTINUOUS
 62
   110
100
AcDbLine
 10
-77.77
 20
80.742219
 30
0.0
 11
-75.0
 21
80.0
 31
0.0
  0
LINE
  5
2D9
100
AcDbEntity
  8
0
390
0
  6
CONTINUOUS
 62
   110
100
AcDbLine
 10
-150.0
 20
80.0
 30
0.0
 11
-147.23
 21
80.0
 31
0.0
  0
LINE
  5
2DA
100
AcDbEntity
  8
0
390
0
  6
CONTINUOUS
 62
   110
100
AcDbLine
 10
-150.0
 20
80.0
 30
0.0
 11
-147.23
 21
80.742219
 31
0.0
  0
LINE
  5
2DB
100
AcDbEntity
  8
0
390
0
  6
CONTINUOUS
 62
   110
100
AcDbLine
 10
-147.23
 20
79.257781
 30
0.0
 11
-150.0
 21
80.0
 31
0.0
  0
MTEXT
  5
2DC
100
AcDbEntity
  8
0
390
0
  6
CONTINUOUS
 62
   110
100
AcDbMText
 10
-112.5
 20
82.6
 30
0.0
 40
3.2
 41
0.0
 71
     5
 72
     1
  1
\A1;75
 73
     1
 44
0.9
  0
LINE
  5
2DD
100
AcDbEntity
  8
0
390
0
  6
CONTINUOUS
 62
   110
100
AcDbLine
 10
-75.0
 20
46.5
 30
0.0
 11
-75.0
 21
82.286
 31
0.0
  0
LINE
  5
2DE
100
AcDbEntity
  8
0
390
0
  6
CONTINUOUS
 62
   110
100
AcDbLine
 10
-150.0
 20
80.0
 30
0.0
 11
-75.0
 21
80.0
 31
0.0
  0
LINE
  5
2DF
100
AcDbEntity
  8
0
390
0
  6
CONTINUOUS
 62
   110
100
AcDbLine
 10
150.0
 20
72.0
 30
0.0
 11
147.23
 21
72.0
 31
0.0
  0
LINE
  5
2E0
100
AcDbEntity
  8
0
390
0
  6
CONTINUOUS
 62
   110
100
AcDbLine
 10
150.0
 20
72.0
 30
0.0
 11
147.23
 21
71.257781
 31
0.0
  0
LINE
  5
2E1
100
AcDbEntity
  8
0
390
0
  6
CONTINUOUS
 62
   110
100
AcDbLine
 10
147.23
 20
72.742219
 30
0.0
 11
150.0
 21
72.0
 31
0.0
  0
LINE
  5
2E2
100
AcDbEntity
  8
0
390
0
  6
CONTINUOUS
 62
   110
100
AcDbLine
 10
130.9
 20
72.0
 30
0.0
 11
133.67
 21
72.0
 31
0.0
  0
LINE
  5
2E3
100
AcDbEntity
  8
0
390
0
  6
CONTINUOUS
 62
   110
100
AcDbLine
 10
130.9
 20
72.0
 30
0.0
 11
133.67
 21
72.742219
 31
0.0
  0
LINE
  5
2E4
100
AcDbEntity
  8
0
390
0
  6
CONTINUOUS
 62
   110
100
AcDbLine
 10
133.67
 20
71.257781
 30
0.0
 11
130.9
 21
72.0
 31
0.0
  0
MTEXT
  5
2E5
100
AcDbEntity
  8
0
390
0
  6
CONTINUOUS
 62
   110
100
AcDbMText
 10
140.45
 20
74.6
 30
0.0
 40
3.2
 41
0.0
 71
     5
 72
     1
  1
\W1.500000;\A1;19.1
 73
     1
 44
0.9
  0
LINE
  5
2E6
100
AcDbEntity
  8
0
390
0
  6
CONTINUOUS
 62
   110
100
AcDbLine
 10
150.0
 20
57.950001
 30
0.0
 11
150.0
 21
74.286003
 31
0.0
  0
LINE
  5
2E7
100
AcDbEntity
  8
0
390
0
  6
CONTINUOUS
 62
   110
100
AcDbLine
 10
130.9
 20
57.950001
 30
0.0
 11
130.9
 21
74.286003
 31
0.0
  0
LINE
  5
2E8
100
AcDbEntity
  8
0
390
0
  6
CONTINUOUS
 62
   110
100
AcDbLine
 10
130.9
 20
72.0
 30
0.0
 11
150.0
 21
72.0
 31
0.0
  0
LINE
  5
2E9
100
AcDbEntity
  8
0
390
0
  6
CONTINUOUS
 62
   110
100
AcDbLine
 10
-132.5
 20
72.0
 30
0.0
 11
-135.27
 21
72.0
 31
0.0
  0
LINE
  5
2EA
100
AcDbEntity
  8
0
390
0
  6
CONTINUOUS
 62
   110
100
AcDbLine
 10
-132.5
 20
72.0
 30
0.0
 11
-135.27
 21
71.257781
 31
0.0
  0
LINE
  5
2EB
100
AcDbEntity
  8
0
390
0
  6
CONTINUOUS
 62
   110
100
AcDbLine
 10
-135.27
 20
72.742219
 30
0.0
 11
-132.5
 21
72.0
 31
0.0
  0
LINE
  5
2EC
100
AcDbEntity
  8
0
390
0
  6
CONTINUOUS
 62
   110
100
AcDbLine
 10
-150.0
 20
72.0
 30
0.0
 11
-147.23
 21
72.0
 31
0.0
  0
LINE
  5
2ED
100
AcDbEntity
  8
0
390
0
  6
CONTINUOUS
 62
   110
100
AcDbLine
 10
-150.0
 20
72.0
 30
0.0
 11
-147.23
 21
72.742219
 31
0.0
  0
LINE
  5
2EE
100
AcDbEntity
  8
0
390
0
  6
CONTINUOUS
 62
   110
100
AcDbLine
 10
-147.23
 20
71.257781
 30
0.0
 11
-150.0
 21
72.0
 31
0.0
  0
MTEXT
  5
2EF
100
AcDbEntity
  8
0
390
0
  6
CONTINUOUS
 62
   110
100
AcDbMText
 10
-141.25
 20
74.6
 30
0.0
 40
3.2
 41
0.0
 71
     5
 72
     1
  1
\T1.333334;\W1.012500;\A1;17.5
 73
     1
 44
0.9
  0
LINE
  5
2F0
100
AcDbEntity
  8
0
390
0
  6
CONTINUOUS
 62
   110
100
AcDbLine
 10
-132.5
 20
57.950001
 30
0.0
 11
-132.5
 21
74.286003
 31
0.0
  0
LINE
  5
2F1
100
AcDbEntity
  8
0
390
0
  6
CONTINUOUS
 62
   110
100
AcDbLine
 10
-150.0
 20
57.950001
 30
0.0
 11
-150.0
 21
74.286003
 31
0.0
  0
LINE
  5
2F2
100
AcDbEntity
  8
0
390
0
  6
CONTINUOUS
 62
   110
100
AcDbLine
 10
-150.0
 20
72.0
 30
0.0
 11
-132.5
 21
72.0
 31
0.0
  0
LINE
  5
2F3
100
AcDbEntity
  8
0
390
0
  6
CONTINUOUS
 62
   110
100
AcDbLine
 10
-150.0
 20
88.0
 30
0.0
 11
-147.23
 21
88.0
 31
0.0
  0
LINE
  5
2F4
100
AcDbEntity
  8
0
390
0
  6
CONTINUOUS
 62
   110
100
AcDbLine
 10
-150.0
 20
88.0
 30
0.0
 11
-147.23
 21
88.742219
 31
0.0
  0
LINE
  5
2F5
100
AcDbEntity
  8
0
390
0
  6
CONTINUOUS
 62
   110
100
AcDbLine
 10
-147.23
 20
87.257781
 30
0.0
 11
-150.0
 21
88.0
 31
0.0
  0
LINE
  5
2F6
100
AcDbEntity
  8
0
390
0
  6
CONTINUOUS
 62
   110
100
AcDbLine
 10
150.0
 20
88.0
 30
0.0
 11
147.23
 21
88.0
 31
0.0
  0
LINE
  5
2F7
100
AcDbEntity
  8
0
390
0
  6
CONTINUOUS
 62
   110
100
AcDbLine
 10
150.0
 20
88.0
 30
0.0
 11
147.23
 21
87.257781
 31
0.0
  0
LINE
  5
2F8
100
AcDbEntity
  8
0
390
0
  6
CONTINUOUS
 62
   110
100
AcDbLine
 10
147.23
 20
88.742219
 30
0.0
 11
150.0
 21
88.0
 31
0.0
  0
MTEXT
  5
2F9
100
AcDbEntity
  8
0
390
0
  6
CONTINUOUS
 62
   110
100
AcDbMText
 10
0.0
 20
90.6
 30
0.0
 40
3.2
 41
0.0
 71
     5
 72
     1
  1
\A1;500±5%
 73
     1
 44
0.9
  0
LINE
  5
2FA
100
AcDbEntity
  8
0
390
0
  6
CONTINUOUS
 62
   110
100
AcDbLine
 10
-150.0
 20
57.950001
 30
0.0
 11
-150.0
 21
90.286
 31
0.0
  0
LINE
  5
2FB
100
AcDbEntity
  8
0
390
0
  6
CONTINUOUS
 62
   110
100
AcDbLine
 10
150.0
 20
57.950001
 30
0.0
 11
150.0
 21
90.286
 31
0.0
  0
LINE
  5
2FC
100
AcDbEntity
  8
0
390
0
  6
CONTINUOUS
 62
   110
100
AcDbLine
 10
150.0
 20
88.0
 30
0.0
 11
-150.0
 21
88.0
 31
0.0
  0
LINE
  5
2FD
100
AcDbEntity
  8
0
390
0
  6
CONTINUOUS
 62
   110
100
AcDbLine
 10
-176.0
 20
56.75
 30
0.0
 11
-176.0
 21
53.98
 31
0.0
  0
LINE
  5
2FE
100
AcDbEntity
  8
0
390
0
  6
CONTINUOUS
 62
   110
100
AcDbLine
 10
-176.0
 20
56.75
 30
0.0
 11
-175.257781
 21
53.98
 31
0.0
  0
LINE
  5
2FF
100
AcDbEntity
  8
0
390
0
  6
CONTINUOUS
 62
   110
100
AcDbLine
 10
-176.742219
 20
53.98
 30
0.0
 11
-176.0
 21
56.75
 31
0.0
  0
LINE
  5
300
100
AcDbEntity
  8
0
390
0
  6
CONTINUOUS
 62
   110
100
AcDbLine
 10
-176.0
 20
-56.75
 30
0.0
 11
-176.0
 21
-53.98
 31
0.0
  0
LINE
  5
301
100
AcDbEntity
  8
0
390
0
  6
CONTINUOUS
 62
   110
100
AcDbLine
 10
-176.0
 20
-56.75
 30
0.0
 11
-176.742219
 21
-53.98
 31
0.0
  0
LINE
  5
302
100
AcDbEntity
  8
0
390
0
  6
CONTINUOUS
 62
   110
100
AcDbLine
 10
-175.257781
 20
-53.98
 30
0.0
 11
-176.0
 21
-56.75
 31
0.0
  0
MTEXT
  5
303
100
AcDbEntity
  8
0
390
0
  6
CONTINUOUS
 62
   110
100
AcDbMText
 10
-178.6
 20
0.0
 30
0.0
 40
3.2
 41
0.0
 71
     5
 72
     1
  1
\W1.250000;\A1;\U+2205113.5
 11
0.0
 21
1.0
 31
0.0
 73
     1
 44
0.9
  0
LINE
  5
304
100
AcDbEntity
  8
0
390
0
  6
CONTINUOUS
 62
   110
100
AcDbLine
 10
-151.200001
 20
56.75
 30
0.0
 11
-178.286003
 21
56.75
 31
0.0
  0
LINE
  5
305
100
AcDbEntity
  8
0
390
0
  6
CONTINUOUS
 62
   110
100
AcDbLine
 10
-151.200001
 20
-56.75
 30
0.0
 11
-178.286003
 21
-56.75
 31
0.0
  0
LINE
  5
306
100
AcDbEntity
  8
0
390
0
  6
CONTINUOUS
 62
   110
100
AcDbLine
 10
-176.0
 20
-56.75
 30
0.0
 11
-176.0
 21
56.75
 31
0.0
  0
LINE
  5
307
100
AcDbEntity
  8
0
390
0
  6
CONTINUOUS
 62
   110
100
AcDbLine
 10
-16.0
 20
42.75
 30
0.0
 11
-16.0
 21
39.98
 31
0.0
  0
LINE
  5
308
100
AcDbEntity
  8
0
390
0
  6
CONTINUOUS
 62
   110
100
AcDbLine
 10
-16.0
 20
42.75
 30
0.0
 11
-15.257781
 21
39.98
 31
0.0
  0
LINE
  5
309
100
AcDbEntity
  8
0
390
0
  6
CONTINUOUS
 62
   110
100
AcDbLine
 10
-16.742219
 20
39.98
 30
0.0
 11
-16.0
 21
42.75
 31
0.0
  0
LINE
  5
30A
100
AcDbEntity
  8
0
390
0
  6
CONTINUOUS
 62
   110
100
AcDbLine
 10
-16.0
 20
-42.75
 30
0.0
 11
-16.0
 21
-39.98
 31
0.0
  0
LINE
  5
30B
100
AcDbEntity
  8
0
390
0
  6
CONTINUOUS
 62
   110
100
AcDbLine
 10
-16.0
 20
-42.75
 30
0.0
 11
-16.742219
 21
-39.98
 31
0.0
  0
LINE
  5
30C
100
AcDbEntity
  8
0
390
0
  6
CONTINUOUS
 62
   110
100
AcDbLine
 10
-15.257781
 20
-39.98
 30
0.0
 11
-16.0
 21
-42.75
 31
0.0
  0
MTEXT
  5
30D
100
AcDbEntity
  8
0
390
0
  6
CONTINUOUS
 62
   110
100
AcDbMText
 10
-18.6
 20
0.0
 30
0.0
 40
3.2
 41
0.0
 71
     5
 72
     1
  1
\W1.100000;\A1;\U+220585.5
 11
0.0
 21
1.0
 31
0.0
 73
     1
 44
0.9
  0
LINE
  5
30E
100
AcDbEntity
  8
0
390
0
  6
CONTINUOUS
 62
   110
100
AcDbLine
 10
-16.0
 20
-42.75
 30
0.0
 11
-16.0
 21
42.75
 31
0.0
  0
LINE
  5
30F
100
AcDbEntity
  8
0
390
0
  6
CONTINUOUS
 62
   110
100
AcDbLine
 10
-24.0
 20
33.25
 30
0.0
 11
-24.0
 21
30.48
 31
0.0
  0
LINE
  5
310
100
AcDbEntity
  8
0
390
0
  6
CONTINUOUS
 62
   110
100
AcDbLine
 10
-24.0
 20
33.25
 30
0.0
 11
-23.257781
 21
30.48
 31
0.0
  0
LINE
  5
311
100
AcDbEntity
  8
0
390
0
  6
CONTINUOUS
 62
   110
100
AcDbLine
 10
-24.742219
 20
30.48
 30
0.0
 11
-24.0
 21
33.25
 31
0.0
  0
LINE
  5
312
100
AcDbEntity
  8
0
390
0
  6
CONTINUOUS
 62
   110
100
AcDbLine
 10
-24.0
 20
-33.25
 30
0.0
 11
-24.0
 21
-30.48
 31
0.0
  0
LINE
  5
313
100
AcDbEntity
  8
0
390
0
  6
CONTINUOUS
 62
   110
100
AcDbLine
 10
-24.0
 20
-33.25
 30
0.0
 11
-24.742219
 21
-30.48
 31
0.0
  0
LINE
  5
314
100
AcDbEntity
  8
0
390
0
  6
CONTINUOUS
 62
   110
100
AcDbLine
 10
-23.257781
 20
-30.48
 30
0.0
 11
-24.0
 21
-33.25
 31
0.0
  0
MTEXT
  5
315
100
AcDbEntity
  8
0
390
0
  6
CONTINUOUS
 62
   110
100
AcDbMText
 10
-26.6
 20
0.0
 30
0.0
 40
3.2
 41
0.0
 71
     5
 72
     1
  1
\W1.100000;\A1;\U+220566.5
 11
0.0
 21
1.0
 31
0.0
 73
     1
 44
0.9
  0
LINE
  5
316
100
AcDbEntity
  8
0
390
0
  6
CONTINUOUS
 62
   110
100
AcDbLine
 10
-24.0
 20
-33.25
 30
0.0
 11
-24.0
 21
33.25
 31
0.0
  0
LINE
  5
317
100
AcDbEntity
  8
0
390
0
  6
CONTINUOUS
 62
   110
100
AcDbLine
 10
-104.0
 20
31.75
 30
0.0
 11
-104.0
 21
28.98
 31
0.0
  0
LINE
  5
318
100
AcDbEntity
  8
0
390
0
  6
CONTINUOUS
 62
   110
100
AcDbLine
 10
-104.0
 20
31.75
 30
0.0
 11
-103.257781
 21
28.98
 31
0.0
  0
LINE
  5
319
100
AcDbEntity
  8
0
390
0
  6
CONTINUOUS
 62
   110
100
AcDbLine
 10
-104.742219
 20
28.98
 30
0.0
 11
-104.0
 21
31.75
 31
0.0
  0
LINE
  5
31A
100
AcDbEntity
  8
0
390
0
  6
CONTINUOUS
 62
   110
100
AcDbLine
 10
-104.0
 20
-31.75
 30
0.0
 11
-104.0
 21
-28.98
 31
0.0
  0
LINE
  5
31B
100
AcDbEntity
  8
0
390
0
  6
CONTINUOUS
 62
   110
100
AcDbLine
 10
-104.0
 20
-31.75
 30
0.0
 11
-104.742219
 21
-28.98
 31
0.0
  0
LINE
  5
31C
100
AcDbEntity
  8
0
390
0
  6
CONTINUOUS
 62
   110
100
AcDbLine
 10
-103.257781
 20
-28.98
 30
0.0
 11
-104.0
 21
-31.75
 31
0.0
  0
MTEXT
  5
31D
100
AcDbEntity
  8
0
390
0
  6
CONTINUOUS
 62
   110
100
AcDbMText
 10
-106.6
 20
0.0
 30
0.0
 40
3.2
 41
0.0
 71
     5
 72
     1
  1
\W1.100000;\A1;\U+220563.5
 11
0.0
 21
1.0
 31
0.0
 73
     1
 44
0.9
  0
LINE
  5
31E
100
AcDbEntity
  8
0
390
0
  6
CONTINUOUS
 62
   110
100
AcDbLine
 10
-104.0
 20
-31.75
 30
0.0
 11
-104.0
 21
31.75
 31
0.0
  0
LINE
  5
31F
100
AcDbEntity
  8
0
390
0
  6
CONTINUOUS
 62
   110
100
AcDbLine
 10
150.0
 20
80.0
 30
0.0
 11
147.23
 21
80.0
 31
0.0
  0
LINE
  5
320
100
AcDbEntity
  8
0
390
0
  6
CONTINUOUS
 62
   110
100
AcDbLine
 10
150.0
 20
80.0
 30
0.0
 11
147.23
 21
79.257781
 31
0.0
  0
LINE
  5
321
100
AcDbEntity
  8
0
390
0
  6
CONTINUOUS
 62
   110
100
AcDbLine
 10
147.23
 20
80.742219
 30
0.0
 11
150.0
 21
80.0
 31
0.0
  0
LINE
  5
322
100
AcDbEntity
  8
0
390
0
  6
CONTINUOUS
 62
   110
100
AcDbLine
 10
75.0
 20
80.0
 30
0.0
 11
77.77
 21
80.0
 31
0.0
  0
LINE
  5
323
100
AcDbEntity
  8
0
390
0
  6
CONTINUOUS
 62
   110
100
AcDbLine
 10
75.0
 20
80.0
 30
0.0
 11
77.77
 21
80.742219
 31
0.0
  0
LINE
  5
324
100
AcDbEntity
  8
0
390
0
  6
CONTINUOUS
 62
   110
100
AcDbLine
 10
77.77
 20
79.257781
 30
0.0
 11
75.0
 21
80.0
 31
0.0
  0
MTEXT
  5
325
100
AcDbEntity
  8
0
390
0
  6
CONTINUOUS
 62
   110
100
AcDbMText
 10
112.5
 20
82.6
 30
0.0
 40
3.2
 41
0.0
 71
     5
 72
     1
  1
\A1;75
 73
     1
 44
0.9
  0
LINE
  5
326
100
AcDbEntity
  8
0
390
0
  6
CONTINUOUS
 62
   110
100
AcDbLine
 10
75.0
 20
80.0
 30
0.0
 11
150.0
 21
80.0
 31
0.0
  0
ARC
  5
327
100
AcDbEntity
  8
0
390
0
  6
CONTINUOUS
 62
     3
100
AcDbCircle
 10
63.092105
 20
-36.157895
 30
0.0
 40
2.907895
100
AcDbArc
 50
320.692352
 51
219.307648
  0
ARC
  5
328
100
AcDbEntity
  8
0
390
0
  6
CONTINUOUS
 62
     3
100
AcDbCircle
 10
49.592105
 20
-39.842105
 30
0.0
 40
2.907895
100
AcDbArc
 50
140.692352
 51
39.307648
  0
ARC
  5
329
100
AcDbEntity
  8
0
390
0
  6
CONTINUOUS
 62
     3
100
AcDbCircle
 10
54.092105
 20
-36.157895
 30
0.0
 40
2.907895
100
AcDbArc
 50
320.692352
 51
219.307648
  0
ARC
  5
32A
100
AcDbEntity
  8
0
390
0
  6
CONTINUOUS
 62
     3
100
AcDbCircle
 10
67.592105
 20
-39.842105
 30
0.0
 40
2.907895
100
AcDbArc
 50
140.692352
 51
39.307648
  0
ARC
  5
32B
100
AcDbEntity
  8
0
390
0
  6
CONTINUOUS
 62
     3
100
AcDbCircle
 10
72.092105
 20
-36.157895
 30
0.0
 40
2.907895
100
AcDbArc
 50
0.0
 51
219.307648
  0
ARC
  5
32C
100
AcDbEntity
  8
0
390
0
  6
CONTINUOUS
 62
     3
100
AcDbCircle
 10
-58.592105
 20
-39.842105
 30
0.0
 40
2.907895
100
AcDbArc
 50
140.692352
 51
39.307648
  0
ARC
  5
32D
100
AcDbEntity
  8
0
390
0
  6
CONTINUOUS
 62
     3
100
AcDbCircle
 10
-63.092105
 20
-36.157895
 30
0.0
 40
2.907895
100
AcDbArc
 50
320.692352
 51
219.307648
  0
ARC
  5
32E
100
AcDbEntity
  8
0
390
0
  6
CONTINUOUS
 62
     3
100
AcDbCircle
 10
-49.592105
 20
-39.842105
 30
0.0
 40
2.907895
100
AcDbArc
 50
140.692352
 51
39.307648
  0
ARC
  5
32F
100
AcDbEntity
  8
0
390
0
  6
CONTINUOUS
 62
     3
100
AcDbCircle
 10
-54.092105
 20
-36.157895
 30
0.0
 40
2.907895
100
AcDbArc
 50
320.692352
 51
219.307648
  0
ARC
  5
330
100
AcDbEntity
  8
0
390
0
  6
CONTINUOUS
 62
     3
100
AcDbCircle
 10
-67.592105
 20
-39.842105
 30
0.0
 40
2.907895
100
AcDbArc
 50
140.692352
 51
39.307648
  0
ARC
  5
331
100
AcDbEntity
  8
0
390
0
  6
CONTINUOUS
 62
     3
100
AcDbCircle
 10
-72.092105
 20
-36.157895
 30
0.0
 40
2.907895
100
AcDbArc
 50
320.692352
 51
180.0
  0
ARC
  5
332
100
AcDbEntity
  8
0
390
0
  6
CONTINUOUS
 62
     3
100
AcDbCircle
 10
58.592105
 20
-39.842105
 30
0.0
 40
2.907895
100
AcDbArc
 50
140.692352
 51
39.307648
  0
ARC
  5
333
100
AcDbEntity
  8
0
390
0
  6
CONTINUOUS
 62
     3
100
AcDbCircle
 10
58.592105
 20
39.842105
 30
0.0
 40
2.907895
100
AcDbArc
 50
320.692352
 51
219.307648
  0
ARC
  5
334
100
AcDbEntity
  8
0
390
0
  6
CONTINUOUS
 62
     3
100
AcDbCircle
 10
63.092105
 20
36.157895
 30
0.0
 40
2.907895
100
AcDbArc
 50
140.692352
 51
39.307648
  0
ARC
  5
335
100
AcDbEntity
  8
0
390
0
  6
CONTINUOUS
 62
     3
100
AcDbCircle
 10
49.592105
 20
39.842105
 30
0.0
 40
2.907895
100
AcDbArc
 50
320.692352
 51
219.307648
  0
ARC
  5
336
100
AcDbEntity
  8
0
390
0
  6
CONTINUOUS
 62
     3
100
AcDbCircle
 10
54.092105
 20
36.157895
 30
0.0
 40
2.907895
100
AcDbArc
 50
140.692352
 51
39.307648
  0
ARC
  5
337
100
AcDbEntity
  8
0
390
0
  6
CONTINUOUS
 62
     3
100
AcDbCircle
 10
67.592105
 20
39.842105
 30
0.0
 40
2.907895
100
AcDbArc
 50
320.692352
 51
219.307648
  0
ARC
  5
338
100
AcDbEntity
  8
0
390
0
  6
CONTINUOUS
 62
     3
100
AcDbCircle
 10
72.092105
 20
36.157895
 30
0.0
 40
2.907895
100
AcDbArc
 50
140.692352
 51
0.0
  0
ARC
  5
339
100
AcDbEntity
  8
0
390
0
  6
CONTINUOUS
 62
     3
100
AcDbCircle
 10
-58.592105
 20
39.842105
 30
0.0
 40
2.907895
100
AcDbArc
 50
320.692352
 51
219.307648
  0
ARC
  5
33A
100
AcDbEntity
  8
0
390
0
  6
CONTINUOUS
 62
     3
100
AcDbCircle
 10
-63.092105
 20
36.157895
 30
0.0
 40
2.907895
100
AcDbArc
 50
140.692352
 51
39.307648
  0
ARC
  5
33B
100
AcDbEntity
  8
0
390
0
  6
CONTINUOUS
 62
     3
100
AcDbCircle
 10
-49.592105
 20
39.842105
 30
0.0
 40
2.907895
100
AcDbArc
 50
320.692352
 51
219.307648
  0
ARC
  5
33C
100
AcDbEntity
  8
0
390
0
  6
CONTINUOUS
 62
     3
100
AcDbCircle
 10
-54.092105
 20
36.157895
 30
0.0
 40
2.907895
100
AcDbArc
 50
140.692352
 51
39.307648
  0
ARC
  5
33D
100
AcDbEntity
  8
0
390
0
  6
CONTINUOUS
 62
     3
100
AcDbCircle
 10
-67.592105
 20
39.842105
 30
0.0
 40
2.907895
100
AcDbArc
 50
320.692352
 51
219.307648
  0
ARC
  5
33E
100
AcDbEntity
  8
0
390
0
  6
CONTINUOUS
 62
     3
100
AcDbCircle
 10
-72.092105
 20
36.157895
 30
0.0
 40
2.907895
100
AcDbArc
 50
180.0
 51
39.307648
  0
ARC
  5
33F
100
AcDbEntity
  8
0
390
0
  6
CONTINUOUS
 62
     3
100
AcDbCircle
 10
80.0
 20
33.75
 30
0.0
 40
2.0
100
AcDbArc
 50
180.0
 51
270.0
  0
ARC
  5
340
100
AcDbEntity
  8
0
390
0
  6
CONTINUOUS
 62
     3
100
AcDbCircle
 10
80.0
 20
-33.75
 30
0.0
 40
2.0
100
AcDbArc
 50
90.0
 51
180.0
  0
ARC
  5
341
100
AcDbEntity
  8
0
390
0
  6
CONTINUOUS
 62
     3
100
AcDbCircle
 10
-80.0
 20
-33.75
 30
0.0
 40
2.0
100
AcDbArc
 50
0.0
 51
90.0
  0
ARC
  5
342
100
AcDbEntity
  8
0
390
0
  6
CONTINUOUS
 62
     3
100
AcDbCircle
 10
-80.0
 20
33.75
 30
0.0
 40
2.0
100
AcDbArc
 50
270.0
 51
0.0
  0
ARC
  5
343
100
AcDbEntity
  8
0
390
0
  6
CONTINUOUS
 62
     3
100
AcDbCircle
 10
-148.774319
 20
41.049999
 30
0.0
 40
0.25
100
AcDbArc
 50
339.999681
 51
89.999946
  0
ARC
  5
344
100
AcDbEntity
  8
0
390
0
  6
CONTINUOUS
 62
     3
100
AcDbCircle
 10
-148.774319
 20
-41.049999
 30
0.0
 40
0.25
100
AcDbArc
 50
269.999982
 51
20.000247
  0
LINE
  5
345
100
AcDbEntity
  8
0
390
0
  6
CONTINUOUS
 62
     3
100
AcDbLine
 10
144.5
 20
31.9
 30
0.0
 11
144.5
 21
-31.9
 31
0.0
  0
LINE
  5
346
100
AcDbEntity
  8
0
390
0
  6
CONTINUOUS
 62
     3
100
AcDbLine
 10
-144.5
 20
-31.9
 30
0.0
 11
-144.5
 21
31.9
 31
0.0
  0
LINE
  5
347
100
AcDbEntity
  8
0
390
0
  6
CONTINUOUS
 62
     3
100
AcDbLine
 10
130.9
 20
33.5
 30
0.0
 11
137.3
 21
33.5
 31
0.0
  0
LINE
  5
348
100
AcDbEntity
  8
0
390
0
  6
CONTINUOUS
 62
     3
100
AcDbLine
 10
130.9
 20
-33.5
 30
0.0
 11
137.3
 21
-33.5
 31
0.0
  0
LINE
  5
349
100
AcDbEntity
  8
0
390
0
  6
CENTER
 62
   110
100
AcDbLine
 10
-14.0
 20
0.0
 30
0.0
 11
155.0
 21
0.0
 31
0.0
  0
LINE
  5
34A
100
AcDbEntity
  8
0
390
0
  6
CENTER
 62
   110
100
AcDbLine
 10
-102.0
 20
0.0
 30
0.0
 11
-32.0
 21
0.0
 31
0.0
  0
LINE
  5
34B
100
AcDbEntity
  8
0
390
0
  6
PHANTOM
 62
   110
100
AcDbLine
 10
-6.014839
 20
-42.75
 30
0.0
 11
49.592105
 21
-42.75
 31
0.0
  0
LINE
  5
34C
100
AcDbEntity
  8
0
390
0
  6
PHANTOM
 62
   110
100
AcDbLine
 10
-4.339732
 20
-33.25
 30
0.0
 11
54.092105
 21
-33.25
 31
0.0
  0
LINE
  5
34D
100
AcDbEntity
  8
0
390
0
  6
PHANTOM
 62
   110
100
AcDbLine
 10
7.386012
 20
33.25
 30
0.0
 11
54.092105
 21
33.25
 31
0.0
  0
LINE
  5
34E
100
AcDbEntity
  8
0
390
0
  6
PHANTOM
 62
   110
100
AcDbLine
 10
9.061118
 20
42.75
 30
0.0
 11
49.592105
 21
42.75
 31
0.0
  0
LINE
  5
34F
100
AcDbEntity
  8
0
390
0
  6
CENTER
 62
   110
100
AcDbLine
 10
-9.590099
 20
-45.75
 30
0.0
 11
6.543819
 21
45.75
 31
0.0
  0
LINE
  5
350
100
AcDbEntity
  8
0
390
0
  6
CENTER
 62
   110
100
AcDbLine
 10
-6.543819
 20
-45.75
 30
0.0
 11
9.590099
 21
45.75
 31
0.0
  0
LINE
  5
351
100
AcDbEntity
  8
0
390
0
  6
PHANTOM
 62
   110
100
AcDbLine
 10
-49.592105
 20
-42.75
 30
0.0
 11
-9.061118
 21
-42.75
 31
0.0
  0
LINE
  5
352
100
AcDbEntity
  8
0
390
0
  6
PHANTOM
 62
   110
100
AcDbLine
 10
-54.092105
 20
-33.25
 30
0.0
 11
-7.386012
 21
-33.25
 31
0.0
  0
LINE
  5
353
100
AcDbEntity
  8
0
390
0
  6
PHANTOM
 62
   110
100
AcDbLine
 10
-49.592105
 20
42.75
 30
0.0
 11
6.014839
 21
42.75
 31
0.0
  0
LINE
  5
354
100
AcDbEntity
  8
0
390
0
  6
PHANTOM
 62
   110
100
AcDbLine
 10
-54.092105
 20
33.25
 30
0.0
 11
4.339732
 21
33.25
 31
0.0
  0
LINE
  5
355
100
AcDbEntity
  8
0
390
0
  6
CONTINUOUS
 62
     3
100
AcDbLine
 10
137.3
 20
-31.75
 30
0.0
 11
137.3
 21
-41.299999
 31
0.0
  0
LINE
  5
356
100
AcDbEntity
  8
0
390
0
  6
CONTINUOUS
 62
     3
100
AcDbLine
 10
130.9
 20
-31.75
 30
0.0
 11
130.9
 21
-55.950001
 31
0.0
  0
LINE
  5
357
100
AcDbEntity
  8
0
390
0
  6
CONTINUOUS
 62
     3
100
AcDbLine
 10
75.6
 20
-44.5
 30
0.0
 11
78.0
 21
-40.343078
 31
0.0
  0
LINE
  5
358
100
AcDbEntity
  8
0
390
0
  6
CONTINUOUS
 62
     3
100
AcDbLine
 10
78.0
 20
-33.75
 30
0.0
 11
78.0
 21
-40.343078
 31
0.0
  0
LINE
  5
359
100
AcDbEntity
  8
0
390
0
  6
CONTINUOUS
 62
     3
100
AcDbLine
 10
75.6
 20
-44.5
 30
0.0
 11
75.0
 21
-44.5
 31
0.0
  0
LINE
  5
35A
100
AcDbEntity
  8
0
390
0
  6
CONTINUOUS
 62
     3
100
AcDbLine
 10
75.0
 20
44.5
 30
0.0
 11
75.0
 21
-44.5
 31
0.0
  0
LINE
  5
35B
100
AcDbEntity
  8
0
390
0
  6
CONTINUOUS
 62
     3
100
AcDbLine
 10
143.0
 20
-29.75
 30
0.0
 11
75.0
 21
-29.75
 31
0.0
  0
LINE
  5
35C
100
AcDbEntity
  8
0
390
0
  6
CONTINUOUS
 62
     3
100
AcDbLine
 10
143.0
 20
-31.75
 30
0.0
 11
80.0
 21
-31.75
 31
0.0
  0
LINE
  5
35D
100
AcDbEntity
  8
0
390
0
  6
CONTINUOUS
 62
     3
100
AcDbLine
 10
75.6
 20
44.5
 30
0.0
 11
78.0
 21
40.343078
 31
0.0
  0
LINE
  5
35E
100
AcDbEntity
  8
0
390
0
  6
CONTINUOUS
 62
     3
100
AcDbLine
 10
78.0
 20
33.75
 30
0.0
 11
78.0
 21
40.343078
 31
0.0
  0
LINE
  5
35F
100
AcDbEntity
  8
0
390
0
  6
CONTINUOUS
 62
     3
100
AcDbLine
 10
75.6
 20
44.5
 30
0.0
 11
75.0
 21
44.5
 31
0.0
  0
LINE
  5
360
100
AcDbEntity
  8
0
390
0
  6
CONTINUOUS
 62
     3
100
AcDbLine
 10
143.0
 20
29.75
 30
0.0
 11
75.0
 21
29.75
 31
0.0
  0
LINE
  5
361
100
AcDbEntity
  8
0
390
0
  6
CONTINUOUS
 62
     3
100
AcDbLine
 10
143.0
 20
31.75
 30
0.0
 11
80.0
 21
31.75
 31
0.0
  0
LINE
  5
362
100
AcDbEntity
  8
0
390
0
  6
CONTINUOUS
 62
     3
100
AcDbLine
 10
-132.5
 20
31.75
 30
0.0
 11
-132.5
 21
55.950001
 31
0.0
  0
LINE
  5
363
100
AcDbEntity
  8
0
390
0
  6
CONTINUOUS
 62
     3
100
AcDbLine
 10
-75.6
 20
-44.5
 30
0.0
 11
-78.0
 21
-40.343078
 31
0.0
  0
LINE
  5
364
100
AcDbEntity
  8
0
390
0
  6
CONTINUOUS
 62
     3
100
AcDbLine
 10
-78.0
 20
-33.75
 30
0.0
 11
-78.0
 21
-40.343078
 31
0.0
  0
LINE
  5
365
100
AcDbEntity
  8
0
390
0
  6
CONTINUOUS
 62
     3
100
AcDbLine
 10
-75.6
 20
-44.5
 30
0.0
 11
-75.0
 21
-44.5
 31
0.0
  0
LINE
  5
366
100
AcDbEntity
  8
0
390
0
  6
CONTINUOUS
 62
     3
100
AcDbLine
 10
-75.0
 20
44.5
 30
0.0
 11
-75.0
 21
-44.5
 31
0.0
  0
LINE
  5
367
100
AcDbEntity
  8
0
390
0
  6
CONTINUOUS
 62
     3
100
AcDbLine
 10
-143.0
 20
-29.75
 30
0.0
 11
-75.0
 21
-29.75
 31
0.0
  0
LINE
  5
368
100
AcDbEntity
  8
0
390
0
  6
CONTINUOUS
 62
     3
100
AcDbLine
 10
-143.0
 20
-31.75
 30
0.0
 11
-80.0
 21
-31.75
 31
0.0
  0
LINE
  5
369
100
AcDbEntity
  8
0
390
0
  6
CONTINUOUS
 62
     3
100
AcDbLine
 10
-75.6
 20
44.5
 30
0.0
 11
-78.0
 21
40.343078
 31
0.0
  0
LINE
  5
36A
100
AcDbEntity
  8
0
390
0
  6
CONTINUOUS
 62
     3
100
AcDbLine
 10
-78.0
 20
33.75
 30
0.0
 11
-78.0
 21
40.343078
 31
0.0
  0
LINE
  5
36B
100
AcDbEntity
  8
0
390
0
  6
CONTINUOUS
 62
     3
100
AcDbLine
 10
-75.6
 20
44.5
 30
0.0
 11
-75.0
 21
44.5
 31
0.0
  0
LINE
  5
36C
100
AcDbEntity
  8
0
390
0
  6
CONTINUOUS
 62
     3
100
AcDbLine
 10
-143.0
 20
29.75
 30
0.0
 11
-75.0
 21
29.75
 31
0.0
  0
LINE
  5
36D
100
AcDbEntity
  8
0
390
0
  6
CONTINUOUS
 62
     3
100
AcDbLine
 10
-143.0
 20
31.75
 30
0.0
 11
-80.0
 21
31.75
 31
0.0
  0
LINE
  5
36E
100
AcDbEntity
  8
0
390
0
  6
CONTINUOUS
 62
     3
100
AcDbLine
 10
150.0
 20
-41.299999
 30
0.0
 11
137.3
 21
-41.299999
 31
0.0
  0
LINE
  5
36F
100
AcDbEntity
  8
0
390
0
  6
CONTINUOUS
 62
     3
100
AcDbLine
 10
150.0
 20
41.299999
 30
0.0
 11
137.3
 21
41.299999
 31
0.0
  0
LINE
  5
370
100
AcDbEntity
  8
0
390
0
  6
CONTINUOUS
 62
     3
100
AcDbLine
 10
130.9
 20
55.950001
 30
0.0
 11
130.9
 21
31.75
 31
0.0
  0
LINE
  5
371
100
AcDbEntity
  8
0
390
0
  6
CONTINUOUS
 62
     3
100
AcDbLine
 10
137.3
 20
41.299999
 30
0.0
 11
137.3
 21
31.75
 31
0.0
  0
LINE
  5
372
100
AcDbEntity
  8
0
390
0
  6
CONTINUOUS
 62
     3
100
AcDbLine
 10
143.0
 20
31.9
 30
0.0
 11
143.0
 21
-31.9
 31
0.0
  0
LINE
  5
373
100
AcDbEntity
  8
0
390
0
  6
CONTINUOUS
 62
     3
100
AcDbLine
 10
148.8
 20
38.547508
 30
0.0
 11
148.8
 21
-38.547508
 31
0.0
  0
LINE
  5
374
100
AcDbEntity
  8
0
390
0
  6
CONTINUOUS
 62
     3
100
AcDbLine
 10
150.0
 20
55.950001
 30
0.0
 11
150.0
 21
-55.950001
 31
0.0
  0
LINE
  5
375
100
AcDbEntity
  8
0
390
0
  6
CENTER
 62
   110
100
AcDbLine
 10
153.0
 20
-46.099998
 30
0.0
 11
127.9
 21
-46.099998
 31
0.0
  0
LINE
  5
376
100
AcDbEntity
  8
0
390
0
  6
CENTER
 62
   110
100
AcDbLine
 10
153.0
 20
46.099998
 30
0.0
 11
127.9
 21
46.099998
 31
0.0
  0
LINE
  5
377
100
AcDbEntity
  8
0
390
0
  6
CONTINUOUS
 62
     3
100
AcDbLine
 10
149.4
 20
-38.599998
 30
0.0
 11
148.800001
 21
-38.547504
 31
0.0
  0
LINE
  5
378
100
AcDbEntity
  8
0
390
0
  6
CONTINUOUS
 62
     3
100
AcDbLine
 10
149.400006
 20
-38.6
 30
0.0
 11
148.417284
 21
-41.300003
 31
0.0
  0
LINE
  5
379
100
AcDbEntity
  8
0
390
0
  6
CONTINUOUS
 62
     3
100
AcDbLine
 10
149.4
 20
38.599998
 30
0.0
 11
148.800001
 21
38.547504
 31
0.0
  0
LINE
  5
37A
100
AcDbEntity
  8
0
390
0
  6
CONTINUOUS
 62
     3
100
AcDbLine
 10
149.400006
 20
38.6
 30
0.0
 11
148.417284
 21
41.300003
 31
0.0
  0
LINE
  5
37B
100
AcDbEntity
  8
0
390
0
  6
CONTINUOUS
 62
     3
100
AcDbLine
 10
131.700009
 20
56.74999
 30
0.0
 11
130.90001
 21
55.94999
 31
0.0
  0
LINE
  5
37C
100
AcDbEntity
  8
0
390
0
  6
CONTINUOUS
 62
     3
100
AcDbLine
 10
130.90001
 20
-55.94999
 30
0.0
 11
131.700009
 21
-56.74999
 31
0.0
  0
LINE
  5
37D
100
AcDbEntity
  8
0
390
0
  6
CONTINUOUS
 62
     3
100
AcDbLine
 10
143.0
 20
-31.9
 30
0.0
 11
137.3
 21
-31.9
 31
0.0
  0
LINE
  5
37E
100
AcDbEntity
  8
0
390
0
  6
CONTINUOUS
 62
     3
100
AcDbLine
 10
143.0
 20
31.9
 30
0.0
 11
137.3
 21
31.9
 31
0.0
  0
LINE
  5
37F
100
AcDbEntity
  8
0
390
0
  6
CONTINUOUS
 62
     3
100
AcDbLine
 10
144.5
 20
-30.75
 30
0.0
 11
143.0
 21
-30.75
 31
0.0
  0
LINE
  5
380
100
AcDbEntity
  8
0
390
0
  6
CONTINUOUS
 62
     3
100
AcDbLine
 10
144.5
 20
30.75
 30
0.0
 11
143.0
 21
30.75
 31
0.0
  0
LINE
  5
381
100
AcDbEntity
  8
0
390
0
  6
CONTINUOUS
 62
     3
100
AcDbLine
 10
148.8
 20
-31.9
 30
0.0
 11
144.5
 21
-31.9
 31
0.0
  0
LINE
  5
382
100
AcDbEntity
  8
0
390
0
  6
CONTINUOUS
 62
     3
100
AcDbLine
 10
148.8
 20
31.9
 30
0.0
 11
144.5
 21
31.9
 31
0.0
  0
LINE
  5
383
100
AcDbEntity
  8
0
390
0
  6
CONTINUOUS
 62
     3
100
AcDbLine
 10
150.0
 20
-50.349998
 30
0.0
 11
130.9
 21
-50.349998
 31
0.0
  0
LINE
  5
384
100
AcDbEntity
  8
0
390
0
  6
CONTINUOUS
 62
     3
100
AcDbLine
 10
150.0
 20
-41.849998
 30
0.0
 11
130.9
 21
-41.849998
 31
0.0
  0
LINE
  5
385
100
AcDbEntity
  8
0
390
0
  6
CONTINUOUS
 62
     3
100
AcDbLine
 10
150.0
 20
50.349998
 30
0.0
 11
130.9
 21
50.349998
 31
0.0
  0
LINE
  5
386
100
AcDbEntity
  8
0
390
0
  6
CONTINUOUS
 62
     3
100
AcDbLine
 10
150.0
 20
41.849998
 30
0.0
 11
130.9
 21
41.849998
 31
0.0
  0
LINE
  5
387
100
AcDbEntity
  8
0
390
0
  6
CONTINUOUS
 62
     3
100
AcDbLine
 10
149.999988
 20
-55.949977
 30
0.0
 11
149.19999
 21
-56.749973
 31
0.0
  0
LINE
  5
388
100
AcDbEntity
  8
0
390
0
  6
CONTINUOUS
 62
     3
100
AcDbLine
 10
149.200009
 20
56.750008
 30
0.0
 11
150.00001
 21
55.950009
 31
0.0
  0
LINE
  5
389
100
AcDbEntity
  8
0
390
0
  6
CONTINUOUS
 62
     3
100
AcDbLine
 10
149.4
 20
38.599998
 30
0.0
 11
149.4
 21
-38.599998
 31
0.0
  0
LINE
  5
38A
100
AcDbEntity
  8
0
390
0
  6
CONTINUOUS
 62
     3
100
AcDbLine
 10
149.2
 20
56.75
 30
0.0
 11
131.699999
 21
56.75
 31
0.0
  0
LINE
  5
38B
100
AcDbEntity
  8
0
390
0
  6
CONTINUOUS
 62
     3
100
AcDbLine
 10
149.200002
 20
-56.75
 30
0.0
 11
131.699999
 21
-56.75
 31
0.0
  0
LINE
  5
38C
100
AcDbEntity
  8
0
390
0
  6
CONTINUOUS
 62
     3
100
AcDbLine
 10
-149.400005
 20
-38.600002
 30
0.0
 11
-149.400005
 21
38.600002
 31
0.0
  0
LINE
  5
38D
100
AcDbEntity
  8
0
390
0
  6
CONTINUOUS
 62
     3
100
AcDbLine
 10
-150.0
 20
41.299999
 30
0.0
 11
-148.774319
 21
41.299999
 31
0.0
  0
LINE
  5
38E
100
AcDbEntity
  8
0
390
0
  6
CONTINUOUS
 62
     3
100
AcDbLine
 10
-150.0
 20
-41.299999
 30
0.0
 11
-148.774319
 21
-41.299999
 31
0.0
  0
LINE
  5
38F
100
AcDbEntity
  8
0
390
0
  6
CONTINUOUS
 62
     3
100
AcDbLine
 10
-132.5
 20
-55.950001
 30
0.0
 11
-132.5
 21
-31.75
 31
0.0
  0
LINE
  5
390
100
AcDbEntity
  8
0
390
0
  6
CONTINUOUS
 62
     3
100
AcDbLine
 10
-148.799999
 20
-38.547508
 30
0.0
 11
-148.799999
 21
38.547508
 31
0.0
  0
LINE
  5
391
100
AcDbEntity
  8
0
390
0
  6
CONTINUOUS
 62
     3
100
AcDbLine
 10
-150.0
 20
-55.950001
 30
0.0
 11
-150.0
 21
55.950001
 31
0.0
  0
LINE
  5
392
100
AcDbEntity
  8
0
390
0
  6
CONTINUOUS
 62
     3
100
AcDbLine
 10
-149.399999
 20
38.600008
 30
0.0
 11
-148.8
 21
38.547514
 31
0.0
  0
LINE
  5
393
100
AcDbEntity
  8
0
390
0
  6
CONTINUOUS
 62
     3
100
AcDbLine
 10
-149.400005
 20
38.600002
 30
0.0
 11
-148.539397
 21
40.964496
 31
0.0
  0
LINE
  5
394
100
AcDbEntity
  8
0
390
0
  6
CONTINUOUS
 62
     3
100
AcDbLine
 10
-149.399999
 20
-38.600008
 30
0.0
 11
-148.8
 21
-38.547514
 31
0.0
  0
LINE
  5
395
100
AcDbEntity
  8
0
390
0
  6
CONTINUOUS
 62
     3
100
AcDbLine
 10
-149.400005
 20
-38.600002
 30
0.0
 11
-148.539397
 21
-40.964496
 31
0.0
  0
LINE
  5
396
100
AcDbEntity
  8
0
390
0
  6
CENTER
 62
   110
100
AcDbLine
 10
-153.0
 20
46.099998
 30
0.0
 11
-129.5
 21
46.099998
 31
0.0
  0
LINE
  5
397
100
AcDbEntity
  8
0
390
0
  6
CENTER
 62
   110
100
AcDbLine
 10
-153.0
 20
-46.099998
 30
0.0
 11
-129.5
 21
-46.099998
 31
0.0
  0
LINE
  5
398
100
AcDbEntity
  8
0
390
0
  6
CONTINUOUS
 62
     3
100
AcDbLine
 10
-133.299997
 20
-56.749994
 30
0.0
 11
-132.499997
 21
-55.949994
 31
0.0
  0
LINE
  5
399
100
AcDbEntity
  8
0
390
0
  6
CONTINUOUS
 62
     3
100
AcDbLine
 10
-132.499984
 20
55.95002
 30
0.0
 11
-133.299982
 21
56.750022
 31
0.0
  0
LINE
  5
39A
100
AcDbEntity
  8
0
390
0
  6
CONTINUOUS
 62
     3
100
AcDbLine
 10
-143.0
 20
31.9
 30
0.0
 11
-132.5
 21
31.9
 31
0.0
  0
LINE
  5
39B
100
AcDbEntity
  8
0
390
0
  6
CONTINUOUS
 62
     3
100
AcDbLine
 10
-142.9
 20
-31.9
 30
0.0
 11
-132.5
 21
-31.9
 31
0.0
  0
LINE
  5
39C
100
AcDbEntity
  8
0
390
0
  6
CONTINUOUS
 62
     3
100
AcDbLine
 10
-144.5
 20
30.75
 30
0.0
 11
-143.0
 21
30.75
 31
0.0
  0
LINE
  5
39D
100
AcDbEntity
  8
0
390
0
  6
CONTINUOUS
 62
     3
100
AcDbLine
 10
-144.5
 20
-30.75
 30
0.0
 11
-143.0
 21
-30.75
 31
0.0
  0
LINE
  5
39E
100
AcDbEntity
  8
0
390
0
  6
CONTINUOUS
 62
     3
100
AcDbLine
 10
-148.799999
 20
31.9
 30
0.0
 11
-144.5
 21
31.9
 31
0.0
  0
LINE
  5
39F
100
AcDbEntity
  8
0
390
0
  6
CONTINUOUS
 62
     3
100
AcDbLine
 10
-148.799999
 20
-31.9
 30
0.0
 11
-144.5
 21
-31.9
 31
0.0
  0
LINE
  5
3A0
100
AcDbEntity
  8
0
390
0
  6
CONTINUOUS
 62
     3
100
AcDbLine
 10
-143.0
 20
-31.9
 30
0.0
 11
-143.0
 21
31.9
 31
0.0
  0
LINE
  5
3A1
100
AcDbEntity
  8
0
390
0
  6
CONTINUOUS
 62
     3
100
AcDbLine
 10
-150.0
 20
50.349998
 30
0.0
 11
-132.5
 21
50.349998
 31
0.0
  0
LINE
  5
3A2
100
AcDbEntity
  8
0
390
0
  6
CONTINUOUS
 62
     3
100
AcDbLine
 10
-150.0
 20
41.849998
 30
0.0
 11
-132.5
 21
41.849998
 31
0.0
  0
LINE
  5
3A3
100
AcDbEntity
  8
0
390
0
  6
CONTINUOUS
 62
     3
100
AcDbLine
 10
-150.0
 20
-50.349998
 30
0.0
 11
-132.5
 21
-50.349998
 31
0.0
  0
LINE
  5
3A4
100
AcDbEntity
  8
0
390
0
  6
CONTINUOUS
 62
     3
100
AcDbLine
 10
-150.0
 20
-41.849998
 30
0.0
 11
-132.5
 21
-41.849998
 31
0.0
  0
LINE
  5
3A5
100
AcDbEntity
  8
0
390
0
  6
CONTINUOUS
 62
     3
100
AcDbLine
 10
-149.99997
 20
55.949975
 30
0.0
 11
-149.199973
 21
56.749972
 31
0.0
  0
LINE
  5
3A6
100
AcDbEntity
  8
0
390
0
  6
CONTINUOUS
 62
     3
100
AcDbLine
 10
-149.200002
 20
-56.750007
 30
0.0
 11
-150.000002
 21
-55.950007
 31
0.0
  0
LINE
  5
3A7
100
AcDbEntity
  8
0
390
0
  6
CONTINUOUS
 62
     3
100
AcDbLine
 10
-149.200001
 20
-56.75
 30
0.0
 11
-133.299999
 21
-56.75
 31
0.0
  0
LINE
  5
3A8
100
AcDbEntity
  8
0
390
0
  6
CONTINUOUS
 62
     3
100
AcDbLine
 10
-149.200001
 20
56.75
 30
0.0
 11
-133.299997
 21
56.75
 31
0.0
  0
LINE
  5
3A9
100
AcDbEntity
  8
0
390
0
  6
CENTER
 62
   110
100
AcDbLine
 10
-155.0
 20
0.0
 30
0.0
 11
-112.0
 21
0.0
 31
0.0
  0
ENDBLK
  5
3AA
100
AcDbEntity
  8
0
370
    -2
390
0
100
AcDbBlockEnd
  0
BLOCK
  5
3AB
100
AcDbEntity
  8
0
370
    -2
390
0
100
AcDbBlockBegin
  2
VF2152
 70
     0
 10
0.0
 20
0.0
 30
0.0
  3
VF2152
  1

  0
LINE
  5
3AC
100
AcDbEntity
  8
0
390
0
  6
CONTINUOUS
 62
   110
100
AcDbLine
 10
-150.0
 20
112.0
 30
0.0
 11
-147.23
 21
112.0
 31
0.0
  0
LINE
  5
3AD
100
AcDbEntity
  8
0
390
0
  6
CONTINUOUS
 62
   110
100
AcDbLine
 10
-150.0
 20
112.0
 30
0.0
 11
-147.23
 21
112.742219
 31
0.0
  0
LINE
  5
3AE
100
AcDbEntity
  8
0
390
0
  6
CONTINUOUS
 62
   110
100
AcDbLine
 10
-147.23
 20
111.257781
 30
0.0
 11
-150.0
 21
112.0
 31
0.0
  0
LINE
  5
3AF
100
AcDbEntity
  8
0
390
0
  6
CONTINUOUS
 62
   110
100
AcDbLine
 10
150.0
 20
112.0
 30
0.0
 11
147.23
 21
112.0
 31
0.0
  0
LINE
  5
3B0
100
AcDbEntity
  8
0
390
0
  6
CONTINUOUS
 62
   110
100
AcDbLine
 10
150.0
 20
112.0
 30
0.0
 11
147.23
 21
111.257781
 31
0.0
  0
LINE
  5
3B1
100
AcDbEntity
  8
0
390
0
  6
CONTINUOUS
 62
   110
100
AcDbLine
 10
147.23
 20
112.742219
 30
0.0
 11
150.0
 21
112.0
 31
0.0
  0
MTEXT
  5
3B2
100
AcDbEntity
  8
0
390
0
  6
CONTINUOUS
 62
   110
100
AcDbMText
 10
0.0
 20
114.6
 30
0.0
 40
3.2
 41
0.0
 71
     5
 72
     1
  1
\A1;500±5%
 73
     1
 44
0.9
  0
LINE
  5
3B3
100
AcDbEntity
  8
0
390
0
  6
CONTINUOUS
 62
   110
100
AcDbLine
 10
-150.0
 20
77.0
 30
0.0
 11
-150.0
 21
114.286
 31
0.0
  0
LINE
  5
3B4
100
AcDbEntity
  8
0
390
0
  6
CONTINUOUS
 62
   110
100
AcDbLine
 10
150.0
 20
77.000008
 30
0.0
 11
150.0
 21
114.286
 31
0.0
  0
LINE
  5
3B5
100
AcDbEntity
  8
0
390
0
  6
CONTINUOUS
 62
   110
100
AcDbLine
 10
150.0
 20
112.0
 30
0.0
 11
-150.0
 21
112.0
 31
0.0
  0
LINE
  5
3B6
100
AcDbEntity
  8
0
390
0
  6
CONTINUOUS
 62
   110
100
AcDbLine
 10
69.9
 20
104.0
 30
0.0
 11
67.13
 21
104.0
 31
0.0
  0
LINE
  5
3B7
100
AcDbEntity
  8
0
390
0
  6
CONTINUOUS
 62
   110
100
AcDbLine
 10
69.9
 20
104.0
 30
0.0
 11
67.13
 21
103.257781
 31
0.0
  0
LINE
  5
3B8
100
AcDbEntity
  8
0
390
0
  6
CONTINUOUS
 62
   110
100
AcDbLine
 10
67.13
 20
104.742219
 30
0.0
 11
69.9
 21
104.0
 31
0.0
  0
LINE
  5
3B9
100
AcDbEntity
  8
0
390
0
  6
CONTINUOUS
 62
   110
100
AcDbLine
 10
-69.9
 20
104.0
 30
0.0
 11
-67.13
 21
104.0
 31
0.0
  0
LINE
  5
3BA
100
AcDbEntity
  8
0
390
0
  6
CONTINUOUS
 62
   110
100
AcDbLine
 10
-69.9
 20
104.0
 30
0.0
 11
-67.13
 21
104.742219
 31
0.0
  0
LINE
  5
3BB
100
AcDbEntity
  8
0
390
0
  6
CONTINUOUS
 62
   110
100
AcDbLine
 10
-67.13
 20
103.257781
 30
0.0
 11
-69.9
 21
104.0
 31
0.0
  0
MTEXT
  5
3BC
100
AcDbEntity
  8
0
390
0
  6
CONTINUOUS
 62
   110
100
AcDbMText
 10
0.000002
 20
106.6
 30
0.0
 40
3.2
 41
0.0
 71
     5
 72
     1
  1
\W1.200000;\A1;(340)
 73
     1
 44
0.9
  0
LINE
  5
3BD
100
AcDbEntity
  8
0
390
0
  6
CONTINUOUS
 62
   110
100
AcDbLine
 10
69.9
 20
67.0
 30
0.0
 11
69.9
 21
106.286
 31
0.0
  0
LINE
  5
3BE
100
AcDbEntity
  8
0
390
0
  6
CONTINUOUS
 62
   110
100
AcDbLine
 10
-69.9
 20
104.0
 30
0.0
 11
69.9
 21
104.0
 31
0.0
  0
LINE
  5
3BF
100
AcDbEntity
  8
0
390
0
  6
CONTINUOUS
 62
   110
100
AcDbLine
 10
-69.9
 20
104.0
 30
0.0
 11
-72.67
 21
104.0
 31
0.0
  0
LINE
  5
3C0
100
AcDbEntity
  8
0
390
0
  6
CONTINUOUS
 62
   110
100
AcDbLine
 10
-69.9
 20
104.0
 30
0.0
 11
-72.67
 21
103.257781
 31
0.0
  0
LINE
  5
3C1
100
AcDbEntity
  8
0
390
0
  6
CONTINUOUS
 62
   110
100
AcDbLine
 10
-72.67
 20
104.742219
 30
0.0
 11
-69.9
 21
104.0
 31
0.0
  0
LINE
  5
3C2
100
AcDbEntity
  8
0
390
0
  6
CONTINUOUS
 62
   110
100
AcDbLine
 10
-150.0
 20
104.0
 30
0.0
 11
-147.23
 21
104.0
 31
0.0
  0
LINE
  5
3C3
100
AcDbEntity
  8
0
390
0
  6
CONTINUOUS
 62
   110
100
AcDbLine
 10
-150.0
 20
104.0
 30
0.0
 11
-147.23
 21
104.742219
 31
0.0
  0
LINE
  5
3C4
100
AcDbEntity
  8
0
390
0
  6
CONTINUOUS
 62
   110
100
AcDbLine
 10
-147.23
 20
103.257781
 30
0.0
 11
-150.0
 21
104.0
 31
0.0
  0
MTEXT
  5
3C5
100
AcDbEntity
  8
0
390
0
  6
CONTINUOUS
 62
   110
100
AcDbMText
 10
-109.950001
 20
106.6
 30
0.0
 40
3.2
 41
0.0
 71
     5
 72
     1
  1
\W1.100000;\A1;80
 73
     1
 44
0.9
  0
LINE
  5
3C6
100
AcDbEntity
  8
0
390
0
  6
CONTINUOUS
 62
   110
100
AcDbLine
 10
-69.9
 20
67.0
 30
0.0
 11
-69.9
 21
106.286
 31
0.0
  0
LINE
  5
3C7
100
AcDbEntity
  8
0
390
0
  6
CONTINUOUS
 62
   110
100
AcDbLine
 10
-150.0
 20
104.0
 30
0.0
 11
-69.9
 21
104.0
 31
0.0
  0
LINE
  5
3C8
100
AcDbEntity
  8
0
390
0
  6
CONTINUOUS
 62
   110
100
AcDbLine
 10
150.0
 20
96.0
 30
0.0
 11
147.23
 21
96.0
 31
0.0
  0
LINE
  5
3C9
100
AcDbEntity
  8
0
390
0
  6
CONTINUOUS
 62
   110
100
AcDbLine
 10
150.0
 20
96.0
 30
0.0
 11
147.23
 21
95.257781
 31
0.0
  0
LINE
  5
3CA
100
AcDbEntity
  8
0
390
0
  6
CONTINUOUS
 62
   110
100
AcDbLine
 10
147.23
 20
96.742219
 30
0.0
 11
150.0
 21
96.0
 31
0.0
  0
LINE
  5
3CB
100
AcDbEntity
  8
0
390
0
  6
CONTINUOUS
 62
   110
100
AcDbLine
 10
128.700001
 20
96.0
 30
0.0
 11
131.470001
 21
96.0
 31
0.0
  0
LINE
  5
3CC
100
AcDbEntity
  8
0
390
0
  6
CONTINUOUS
 62
   110
100
AcDbLine
 10
128.700001
 20
96.0
 30
0.0
 11
131.470001
 21
96.742219
 31
0.0
  0
LINE
  5
3CD
100
AcDbEntity
  8
0
390
0
  6
CONTINUOUS
 62
   110
100
AcDbLine
 10
131.470001
 20
95.257781
 30
0.0
 11
128.700001
 21
96.0
 31
0.0
  0
MTEXT
  5
3CE
100
AcDbEntity
  8
0
390
0
  6
CONTINUOUS
 62
   110
100
AcDbMText
 10
139.35
 20
98.6
 30
0.0
 40
3.2
 41
0.0
 71
     5
 72
     1
  1
\T1.333334;\W1.012500;\A1;21.3
 73
     1
 44
0.9
  0
LINE
  5
3CF
100
AcDbEntity
  8
0
390
0
  6
CONTINUOUS
 62
   110
100
AcDbLine
 10
150.0
 20
77.000008
 30
0.0
 11
150.0
 21
98.286003
 31
0.0
  0
LINE
  5
3D0
100
AcDbEntity
  8
0
390
0
  6
CONTINUOUS
 62
   110
100
AcDbLine
 10
128.700001
 20
77.0
 30
0.0
 11
128.700001
 21
98.286003
 31
0.0
  0
LINE
  5
3D1
100
AcDbEntity
  8
0
390
0
  6
CONTINUOUS
 62
   110
100
AcDbLine
 10
128.700001
 20
96.0
 30
0.0
 11
150.0
 21
96.0
 31
0.0
  0
LINE
  5
3D2
100
AcDbEntity
  8
0
390
0
  6
CONTINUOUS
 62
   110
100
AcDbLine
 10
-130.200001
 20
96.0
 30
0.0
 11
-132.970001
 21
96.0
 31
0.0
  0
LINE
  5
3D3
100
AcDbEntity
  8
0
390
0
  6
CONTINUOUS
 62
   110
100
AcDbLine
 10
-130.200001
 20
96.0
 30
0.0
 11
-132.970001
 21
95.257781
 31
0.0
  0
LINE
  5
3D4
100
AcDbEntity
  8
0
390
0
  6
CONTINUOUS
 62
   110
100
AcDbLine
 10
-132.970001
 20
96.742219
 30
0.0
 11
-130.200001
 21
96.0
 31
0.0
  0
LINE
  5
3D5
100
AcDbEntity
  8
0
390
0
  6
CONTINUOUS
 62
   110
100
AcDbLine
 10
-150.0
 20
96.0
 30
0.0
 11
-147.23
 21
96.0
 31
0.0
  0
LINE
  5
3D6
100
AcDbEntity
  8
0
390
0
  6
CONTINUOUS
 62
   110
100
AcDbLine
 10
-150.0
 20
96.0
 30
0.0
 11
-147.23
 21
96.742219
 31
0.0
  0
LINE
  5
3D7
100
AcDbEntity
  8
0
390
0
  6
CONTINUOUS
 62
   110
100
AcDbLine
 10
-147.23
 20
95.257781
 30
0.0
 11
-150.0
 21
96.0
 31
0.0
  0
MTEXT
  5
3D8
100
AcDbEntity
  8
0
390
0
  6
CONTINUOUS
 62
   110
100
AcDbMText
 10
-140.1
 20
98.6
 30
0.0
 40
3.2
 41
0.0
 71
     5
 72
     1
  1
\T1.333334;\W1.012500;\A1;19.8
 73
     1
 44
0.9
  0
LINE
  5
3D9
100
AcDbEntity
  8
0
390
0
  6
CONTINUOUS
 62
   110
100
AcDbLine
 10
-130.200001
 20
77.0
 30
0.0
 11
-130.200001
 21
98.286003
 31
0.0
  0
LINE
  5
3DA
100
AcDbEntity
  8
0
390
0
  6
CONTINUOUS
 62
   110
100
AcDbLine
 10
-150.0
 20
77.0
 30
0.0
 11
-150.0
 21
98.286003
 31
0.0
  0
LINE
  5
3DB
100
AcDbEntity
  8
0
390
0
  6
CONTINUOUS
 62
   110
100
AcDbLine
 10
-150.0
 20
96.0
 30
0.0
 11
-130.200001
 21
96.0
 31
0.0
  0
LINE
  5
3DC
100
AcDbEntity
  8
0
390
0
  6
CONTINUOUS
 62
   110
100
AcDbLine
 10
-176.0
 20
-75.800003
 30
0.0
 11
-176.0
 21
-73.030003
 31
0.0
  0
LINE
  5
3DD
100
AcDbEntity
  8
0
390
0
  6
CONTINUOUS
 62
   110
100
AcDbLine
 10
-176.0
 20
-75.800003
 30
0.0
 11
-176.742219
 21
-73.030003
 31
0.0
  0
LINE
  5
3DE
100
AcDbEntity
  8
0
390
0
  6
CONTINUOUS
 62
   110
100
AcDbLine
 10
-175.257781
 20
-73.030003
 30
0.0
 11
-176.0
 21
-75.800003
 31
0.0
  0
LINE
  5
3DF
100
AcDbEntity
  8
0
390
0
  6
CONTINUOUS
 62
   110
100
AcDbLine
 10
-176.0
 20
75.800003
 30
0.0
 11
-176.0
 21
73.030003
 31
0.0
  0
LINE
  5
3E0
100
AcDbEntity
  8
0
390
0
  6
CONTINUOUS
 62
   110
100
AcDbLine
 10
-176.0
 20
75.800003
 30
0.0
 11
-175.257781
 21
73.030003
 31
0.0
  0
LINE
  5
3E1
100
AcDbEntity
  8
0
390
0
  6
CONTINUOUS
 62
   110
100
AcDbLine
 10
-176.742219
 20
73.030003
 30
0.0
 11
-176.0
 21
75.800003
 31
0.0
  0
MTEXT
  5
3E2
100
AcDbEntity
  8
0
390
0
  6
CONTINUOUS
 62
   110
100
AcDbMText
 10
-178.6
 20
0.0
 30
0.0
 40
3.2
 41
0.0
 71
     5
 72
     1
  1
\W1.250000;\A1;\U+2205151.6
 11
0.0
 21
1.0
 31
0.0
 73
     1
 44
0.9
  0
LINE
  5
3E3
100
AcDbEntity
  8
0
390
0
  6
CONTINUOUS
 62
   110
100
AcDbLine
 10
-151.200001
 20
-75.800003
 30
0.0
 11
-178.286
 21
-75.800003
 31
0.0
  0
LINE
  5
3E4
100
AcDbEntity
  8
0
390
0
  6
CONTINUOUS
 62
   110
100
AcDbLine
 10
-151.199995
 20
75.800003
 30
0.0
 11
-178.286
 21
75.800003
 31
0.0
  0
LINE
  5
3E5
100
AcDbEntity
  8
0
390
0
  6
CONTINUOUS
 62
   110
100
AcDbLine
 10
-176.0
 20
75.800003
 30
0.0
 11
-176.0
 21
-75.800003
 31
0.0
  0
LINE
  5
3E6
100
AcDbEntity
  8
0
390
0
  6
CONTINUOUS
 62
   110
100
AcDbLine
 10
-168.0
 20
65.150002
 30
0.0
 11
-168.0
 21
62.380002
 31
0.0
  0
LINE
  5
3E7
100
AcDbEntity
  8
0
390
0
  6
CONTINUOUS
 62
   110
100
AcDbLine
 10
-168.0
 20
65.150002
 30
0.0
 11
-167.257781
 21
62.380002
 31
0.0
  0
LINE
  5
3E8
100
AcDbEntity
  8
0
390
0
  6
CONTINUOUS
 62
   110
100
AcDbLine
 10
-168.742219
 20
62.380002
 30
0.0
 11
-168.0
 21
65.150002
 31
0.0
  0
LINE
  5
3E9
100
AcDbEntity
  8
0
390
0
  6
CONTINUOUS
 62
   110
100
AcDbLine
 10
-168.0
 20
-65.150002
 30
0.0
 11
-168.0
 21
-62.380002
 31
0.0
  0
LINE
  5
3EA
100
AcDbEntity
  8
0
390
0
  6
CONTINUOUS
 62
   110
100
AcDbLine
 10
-168.0
 20
-65.150002
 30
0.0
 11
-168.742219
 21
-62.380002
 31
0.0
  0
LINE
  5
3EB
100
AcDbEntity
  8
0
390
0
  6
CONTINUOUS
 62
   110
100
AcDbLine
 10
-167.257781
 20
-62.380002
 30
0.0
 11
-168.0
 21
-65.150002
 31
0.0
  0
MTEXT
  5
3EC
100
AcDbEntity
  8
0
390
0
  6
CONTINUOUS
 62
   110
100
AcDbMText
 10
-170.6
 20
0.0
 30
0.0
 40
3.2
 41
0.0
 71
     5
 72
     1
  1
\W1.150000;\A1;PCD130.3
 11
0.0
 21
1.0
 31
0.0
 73
     1
 44
0.9
  0
LINE
  5
3ED
100
AcDbEntity
  8
0
390
0
  6
CONTINUOUS
 62
   110
100
AcDbLine
 10
-155.0
 20
65.150002
 30
0.0
 11
-170.286003
 21
65.150002
 31
0.0
  0
LINE
  5
3EE
100
AcDbEntity
  8
0
390
0
  6
CONTINUOUS
 62
   110
100
AcDbLine
 10
-155.0
 20
-65.150002
 30
0.0
 11
-170.286003
 21
-65.150002
 31
0.0
  0
LINE
  5
3EF
100
AcDbEntity
  8
0
390
0
  6
CONTINUOUS
 62
   110
100
AcDbLine
 10
-168.0
 20
-65.150002
 30
0.0
 11
-168.0
 21
65.150002
 31
0.0
  0
LINE
  5
3F0
100
AcDbEntity
  8
0
390
0
  6
CONTINUOUS
 62
   110
100
AcDbLine
 10
150.0
 20
104.0
 30
0.0
 11
147.23
 21
104.0
 31
0.0
  0
LINE
  5
3F1
100
AcDbEntity
  8
0
390
0
  6
CONTINUOUS
 62
   110
100
AcDbLine
 10
150.0
 20
104.0
 30
0.0
 11
147.23
 21
103.257781
 31
0.0
  0
LINE
  5
3F2
100
AcDbEntity
  8
0
390
0
  6
CONTINUOUS
 62
   110
100
AcDbLine
 10
147.23
 20
104.742219
 30
0.0
 11
150.0
 21
104.0
 31
0.0
  0
LINE
  5
3F3
100
AcDbEntity
  8
0
390
0
  6
CONTINUOUS
 62
   110
100
AcDbLine
 10
69.9
 20
104.0
 30
0.0
 11
72.67
 21
104.0
 31
0.0
  0
LINE
  5
3F4
100
AcDbEntity
  8
0
390
0
  6
CONTINUOUS
 62
   110
100
AcDbLine
 10
69.9
 20
104.0
 30
0.0
 11
72.67
 21
104.742219
 31
0.0
  0
LINE
  5
3F5
100
AcDbEntity
  8
0
390
0
  6
CONTINUOUS
 62
   110
100
AcDbLine
 10
72.67
 20
103.257781
 30
0.0
 11
69.9
 21
104.0
 31
0.0
  0
MTEXT
  5
3F6
100
AcDbEntity
  8
0
390
0
  6
CONTINUOUS
 62
   110
100
AcDbMText
 10
109.949999
 20
106.6
 30
0.0
 40
3.2
 41
0.0
 71
     5
 72
     1
  1
\W1.100000;\A1;80
 73
     1
 44
0.9
  0
LINE
  5
3F7
100
AcDbEntity
  8
0
390
0
  6
CONTINUOUS
 62
   110
100
AcDbLine
 10
69.9
 20
104.0
 30
0.0
 11
150.0
 21
104.0
 31
0.0
  0
LINE
  5
3F8
100
AcDbEntity
  8
0
390
0
  6
CONTINUOUS
 62
   110
100
AcDbLine
 10
-24.0
 20
-51.5
 30
0.0
 11
-24.0
 21
-48.73
 31
0.0
  0
LINE
  5
3F9
100
AcDbEntity
  8
0
390
0
  6
CONTINUOUS
 62
   110
100
AcDbLine
 10
-24.0
 20
-51.5
 30
0.0
 11
-24.742219
 21
-48.73
 31
0.0
  0
LINE
  5
3FA
100
AcDbEntity
  8
0
390
0
  6
CONTINUOUS
 62
   110
100
AcDbLine
 10
-23.257781
 20
-48.73
 30
0.0
 11
-24.0
 21
-51.5
 31
0.0
  0
LINE
  5
3FB
100
AcDbEntity
  8
0
390
0
  6
CONTINUOUS
 62
   110
100
AcDbLine
 10
-24.0
 20
51.5
 30
0.0
 11
-24.0
 21
48.73
 31
0.0
  0
LINE
  5
3FC
100
AcDbEntity
  8
0
390
0
  6
CONTINUOUS
 62
   110
100
AcDbLine
 10
-24.0
 20
51.5
 30
0.0
 11
-23.257781
 21
48.73
 31
0.0
  0
LINE
  5
3FD
100
AcDbEntity
  8
0
390
0
  6
CONTINUOUS
 62
   110
100
AcDbLine
 10
-24.742219
 20
48.73
 30
0.0
 11
-24.0
 21
51.5
 31
0.0
  0
MTEXT
  5
3FE
100
AcDbEntity
  8
0
390
0
  6
CONTINUOUS
 62
   110
100
AcDbMText
 10
-26.6
 20
0.0
 30
0.0
 40
3.2
 41
0.0
 71
     5
 72
     1
  1
\W1.100000;\A1;\U+2205103
 11
0.0
 21
1.0
 31
0.0
 73
     1
 44
0.9
  0
LINE
  5
3FF
100
AcDbEntity
  8
0
390
0
  6
CONTINUOUS
 62
   110
100
AcDbLine
 10
-24.0
 20
51.5
 30
0.0
 11
-24.0
 21
-51.5
 31
0.0
  0
LINE
  5
400
100
AcDbEntity
  8
0
390
0
  6
CONTINUOUS
 62
   110
100
AcDbLine
 10
-16.0
 20
63.25
 30
0.0
 11
-16.0
 21
60.48
 31
0.0
  0
LINE
  5
401
100
AcDbEntity
  8
0
390
0
  6
CONTINUOUS
 62
   110
100
AcDbLine
 10
-16.0
 20
63.25
 30
0.0
 11
-15.257781
 21
60.48
 31
0.0
  0
LINE
  5
402
100
AcDbEntity
  8
0
390
0
  6
CONTINUOUS
 62
   110
100
AcDbLine
 10
-16.742219
 20
60.48
 30
0.0
 11
-16.0
 21
63.25
 31
0.0
  0
LINE
  5
403
100
AcDbEntity
  8
0
390
0
  6
CONTINUOUS
 62
   110
100
AcDbLine
 10
-16.0
 20
-63.25
 30
0.0
 11
-16.0
 21
-60.48
 31
0.0
  0
LINE
  5
404
100
AcDbEntity
  8
0
390
0
  6
CONTINUOUS
 62
   110
100
AcDbLine
 10
-16.0
 20
-63.25
 30
0.0
 11
-16.742219
 21
-60.48
 31
0.0
  0
LINE
  5
405
100
AcDbEntity
  8
0
390
0
  6
CONTINUOUS
 62
   110
100
AcDbLine
 10
-15.257781
 20
-60.48
 30
0.0
 11
-16.0
 21
-63.25
 31
0.0
  0
MTEXT
  5
406
100
AcDbEntity
  8
0
390
0
  6
CONTINUOUS
 62
   110
100
AcDbMText
 10
-18.6
 20
0.0
 30
0.0
 40
3.2
 41
0.0
 71
     5
 72
     1
  1
\W1.150000;\A1;\U+2205126.5
 11
0.0
 21
1.0
 31
0.0
 73
     1
 44
0.9
  0
LINE
  5
407
100
AcDbEntity
  8
0
390
0
  6
CONTINUOUS
 62
   110
100
AcDbLine
 10
-16.0
 20
-63.25
 30
0.0
 11
-16.0
 21
63.25
 31
0.0
  0
LINE
  5
408
100
AcDbEntity
  8
0
390
0
  6
CONTINUOUS
 62
   110
100
AcDbLine
 10
-104.0
 20
50.8
 30
0.0
 11
-104.0
 21
48.03
 31
0.0
  0
LINE
  5
409
100
AcDbEntity
  8
0
390
0
  6
CONTINUOUS
 62
   110
100
AcDbLine
 10
-104.0
 20
50.8
 30
0.0
 11
-103.257781
 21
48.03
 31
0.0
  0
LINE
  5
40A
100
AcDbEntity
  8
0
390
0
  6
CONTINUOUS
 62
   110
100
AcDbLine
 10
-104.742219
 20
48.03
 30
0.0
 11
-104.0
 21
50.8
 31
0.0
  0
LINE
  5
40B
100
AcDbEntity
  8
0
390
0
  6
CONTINUOUS
 62
   110
100
AcDbLine
 10
-104.0
 20
-50.8
 30
0.0
 11
-104.0
 21
-48.03
 31
0.0
  0
LINE
  5
40C
100
AcDbEntity
  8
0
390
0
  6
CONTINUOUS
 62
   110
100
AcDbLine
 10
-104.0
 20
-50.8
 30
0.0
 11
-104.742219
 21
-48.03
 31
0.0
  0
LINE
  5
40D
100
AcDbEntity
  8
0
390
0
  6
CONTINUOUS
 62
   110
100
AcDbLine
 10
-103.257781
 20
-48.03
 30
0.0
 11
-104.0
 21
-50.8
 31
0.0
  0
MTEXT
  5
40E
100
AcDbEntity
  8
0
390
0
  6
CONTINUOUS
 62
   110
100
AcDbMText
 10
-106.6
 20
-0.000001
 30
0.0
 40
3.2
 41
0.0
 71
     5
 72
     1
  1
\W1.300000;\A1;\U+2205101.6
 11
0.0
 21
1.0
 31
0.0
 73
     1
 44
0.9
  0
LINE
  5
40F
100
AcDbEntity
  8
0
390
0
  6
CONTINUOUS
 62
   110
100
AcDbLine
 10
-104.0
 20
-50.8
 30
0.0
 11
-104.0
 21
50.8
 31
0.0
  0
ARC
  5
410
100
AcDbEntity
  8
0
390
0
  6
CONTINUOUS
 62
     3
100
AcDbCircle
 10
56.430585
 20
-54.969415
 30
0.0
 40
3.469415
100
AcDbArc
 50
316.1026
 51
223.897397
  0
ARC
  5
411
100
AcDbEntity
  8
0
390
0
  6
CONTINUOUS
 62
     3
100
AcDbCircle
 10
41.430585
 20
-59.780585
 30
0.0
 40
3.469415
100
AcDbArc
 50
136.102601
 51
43.897397
  0
ARC
  5
412
100
AcDbEntity
  8
0
390
0
  6
CONTINUOUS
 62
     3
100
AcDbCircle
 10
46.430585
 20
-54.969415
 30
0.0
 40
3.469415
100
AcDbArc
 50
316.1026
 51
223.897397
  0
ARC
  5
413
100
AcDbEntity
  8
0
390
0
  6
CONTINUOUS
 62
     3
100
AcDbCircle
 10
61.430585
 20
-59.780585
 30
0.0
 40
3.469415
100
AcDbArc
 50
136.1026
 51
43.897398
  0
ARC
  5
414
100
AcDbEntity
  8
0
390
0
  6
CONTINUOUS
 62
     3
100
AcDbCircle
 10
66.430585
 20
-54.969415
 30
0.0
 40
3.469415
100
AcDbArc
 50
0.0
 51
223.897398
  0
ARC
  5
415
100
AcDbEntity
  8
0
390
0
  6
CONTINUOUS
 62
     3
100
AcDbCircle
 10
-51.430585
 20
-59.780585
 30
0.0
 40
3.469415
100
AcDbArc
 50
136.102603
 51
43.897399
  0
ARC
  5
416
100
AcDbEntity
  8
0
390
0
  6
CONTINUOUS
 62
     3
100
AcDbCircle
 10
-56.430585
 20
-54.969415
 30
0.0
 40
3.469415
100
AcDbArc
 50
316.102603
 51
223.8974
  0
ARC
  5
417
100
AcDbEntity
  8
0
390
0
  6
CONTINUOUS
 62
     3
100
AcDbCircle
 10
-41.430585
 20
-59.780585
 30
0.0
 40
3.469415
100
AcDbArc
 50
136.102603
 51
43.897399
  0
ARC
  5
418
100
AcDbEntity
  8
0
390
0
  6
CONTINUOUS
 62
     3
100
AcDbCircle
 10
-46.430585
 20
-54.969415
 30
0.0
 40
3.469415
100
AcDbArc
 50
316.102603
 51
223.8974
  0
ARC
  5
419
100
AcDbEntity
  8
0
390
0
  6
CONTINUOUS
 62
     3
100
AcDbCircle
 10
-61.430585
 20
-59.780585
 30
0.0
 40
3.469415
100
AcDbArc
 50
136.102602
 51
43.8974
  0
ARC
  5
41A
100
AcDbEntity
  8
0
390
0
  6
CONTINUOUS
 62
     3
100
AcDbCircle
 10
-66.430585
 20
-54.969415
 30
0.0
 40
3.469415
100
AcDbArc
 50
316.102602
 51
180.0
  0
ARC
  5
41B
100
AcDbEntity
  8
0
390
0
  6
CONTINUOUS
 62
     3
100
AcDbCircle
 10
51.430585
 20
-59.780585
 30
0.0
 40
3.469415
100
AcDbArc
 50
136.102601
 51
43.897397
  0
ARC
  5
41C
100
AcDbEntity
  8
0
390
0
  6
CONTINUOUS
 62
     3
100
AcDbCircle
 10
51.430585
 20
59.780585
 30
0.0
 40
3.469415
100
AcDbArc
 50
316.102603
 51
223.897399
  0
ARC
  5
41D
100
AcDbEntity
  8
0
390
0
  6
CONTINUOUS
 62
     3
100
AcDbCircle
 10
56.430585
 20
54.969415
 30
0.0
 40
3.469415
100
AcDbArc
 50
136.102603
 51
43.8974
  0
ARC
  5
41E
100
AcDbEntity
  8
0
390
0
  6
CONTINUOUS
 62
     3
100
AcDbCircle
 10
41.430585
 20
59.780585
 30
0.0
 40
3.469415
100
AcDbArc
 50
316.102603
 51
223.897399
  0
ARC
  5
41F
100
AcDbEntity
  8
0
390
0
  6
CONTINUOUS
 62
     3
100
AcDbCircle
 10
46.430585
 20
54.969415
 30
0.0
 40
3.469415
100
AcDbArc
 50
136.102603
 51
43.8974
  0
ARC
  5
420
100
AcDbEntity
  8
0
390
0
  6
CONTINUOUS
 62
     3
100
AcDbCircle
 10
61.430585
 20
59.780585
 30
0.0
 40
3.469415
100
AcDbArc
 50
316.102602
 51
223.8974
  0
ARC
  5
421
100
AcDbEntity
  8
0
390
0
  6
CONTINUOUS
 62
     3
100
AcDbCircle
 10
66.430585
 20
54.969415
 30
0.0
 40
3.469415
100
AcDbArc
 50
136.102602
 51
0.0
  0
ARC
  5
422
100
AcDbEntity
  8
0
390
0
  6
CONTINUOUS
 62
     3
100
AcDbCircle
 10
-51.430585
 20
59.780585
 30
0.0
 40
3.469415
100
AcDbArc
 50
316.102601
 51
223.897397
  0
ARC
  5
423
100
AcDbEntity
  8
0
390
0
  6
CONTINUOUS
 62
     3
100
AcDbCircle
 10
-56.430585
 20
54.969415
 30
0.0
 40
3.469415
100
AcDbArc
 50
136.1026
 51
43.897397
  0
ARC
  5
424
100
AcDbEntity
  8
0
390
0
  6
CONTINUOUS
 62
     3
100
AcDbCircle
 10
-41.430585
 20
59.780585
 30
0.0
 40
3.469415
100
AcDbArc
 50
316.102601
 51
223.897397
  0
ARC
  5
425
100
AcDbEntity
  8
0
390
0
  6
CONTINUOUS
 62
     3
100
AcDbCircle
 10
-46.430585
 20
54.969415
 30
0.0
 40
3.469415
100
AcDbArc
 50
136.1026
 51
43.897397
  0
ARC
  5
426
100
AcDbEntity
  8
0
390
0
  6
CONTINUOUS
 62
     3
100
AcDbCircle
 10
-61.430585
 20
59.780585
 30
0.0
 40
3.469415
100
AcDbArc
 50
316.1026
 51
223.897398
  0
ARC
  5
427
100
AcDbEntity
  8
0
390
0
  6
CONTINUOUS
 62
     3
100
AcDbCircle
 10
-66.430585
 20
54.969415
 30
0.0
 40
3.469415
100
AcDbArc
 50
180.0
 51
43.897398
  0
ARC
  5
428
100
AcDbEntity
  8
0
390
0
  6
CONTINUOUS
 62
     3
100
AcDbCircle
 10
74.9
 20
52.8
 30
0.0
 40
2.0
100
AcDbArc
 50
180.0
 51
270.0
  0
ARC
  5
429
100
AcDbEntity
  8
0
390
0
  6
CONTINUOUS
 62
     3
100
AcDbCircle
 10
74.9
 20
-52.8
 30
0.0
 40
2.0
100
AcDbArc
 50
90.0
 51
180.0
  0
ARC
  5
42A
100
AcDbEntity
  8
0
390
0
  6
CONTINUOUS
 62
     3
100
AcDbCircle
 10
-74.9
 20
-52.8
 30
0.0
 40
2.0
100
AcDbArc
 50
0.0
 51
90.0
  0
ARC
  5
42B
100
AcDbEntity
  8
0
390
0
  6
CONTINUOUS
 62
     3
100
AcDbCircle
 10
-74.9
 20
52.8
 30
0.0
 40
2.0
100
AcDbArc
 50
270.0
 51
0.0
  0
ARC
  5
42C
100
AcDbEntity
  8
0
390
0
  6
CONTINUOUS
 62
     3
100
AcDbCircle
 10
-148.774321
 20
60.099998
 30
0.0
 40
0.25
100
AcDbArc
 50
339.999681
 51
89.999946
  0
ARC
  5
42D
100
AcDbEntity
  8
0
390
0
  6
CONTINUOUS
 62
     3
100
AcDbCircle
 10
-148.774321
 20
-60.099998
 30
0.0
 40
0.25
100
AcDbArc
 50
269.999982
 51
20.000247
  0
LINE
  5
42E
100
AcDbEntity
  8
0
390
0
  6
CONTINUOUS
 62
     3
100
AcDbLine
 10
145.2
 20
51.0
 30
0.0
 11
145.2
 21
-51.0
 31
0.0
  0
LINE
  5
42F
100
AcDbEntity
  8
0
390
0
  6
CONTINUOUS
 62
     3
100
AcDbLine
 10
-145.2
 20
-51.0
 30
0.0
 11
-145.2
 21
51.0
 31
0.0
  0
LINE
  5
430
100
AcDbEntity
  8
0
390
0
  6
CENTER
 62
   110
100
AcDbLine
 10
-14.0
 20
0.0
 30
0.0
 11
155.0
 21
0.0
 31
0.0
  0
LINE
  5
431
100
AcDbEntity
  8
0
390
0
  6
CENTER
 62
   110
100
AcDbLine
 10
-102.0
 20
0.0
 30
0.0
 11
-32.0
 21
0.0
 31
0.0
  0
LINE
  5
432
100
AcDbEntity
  8
0
390
0
  6
PHANTOM
 62
   110
100
AcDbLine
 10
12.675821
 20
63.25
 30
0.0
 11
41.430585
 21
63.25
 31
0.0
  0
LINE
  5
433
100
AcDbEntity
  8
0
390
0
  6
PHANTOM
 62
   110
100
AcDbLine
 10
10.603979
 20
51.5
 30
0.0
 11
46.430585
 21
51.5
 31
0.0
  0
LINE
  5
434
100
AcDbEntity
  8
0
390
0
  6
PHANTOM
 62
   110
100
AcDbLine
 10
-7.5577
 20
-51.5
 30
0.0
 11
46.430585
 21
-51.5
 31
0.0
  0
LINE
  5
435
100
AcDbEntity
  8
0
390
0
  6
PHANTOM
 62
   110
100
AcDbLine
 10
-9.629542
 20
-63.25
 30
0.0
 11
41.430585
 21
-63.25
 31
0.0
  0
LINE
  5
436
100
AcDbEntity
  8
0
390
0
  6
CENTER
 62
   110
100
AcDbLine
 10
-10.158523
 20
-66.25
 30
0.0
 11
13.204802
 21
66.25
 31
0.0
  0
LINE
  5
437
100
AcDbEntity
  8
0
390
0
  6
CENTER
 62
   110
100
AcDbLine
 10
-13.204802
 20
-66.25
 30
0.0
 11
10.158523
 21
66.25
 31
0.0
  0
LINE
  5
438
100
AcDbEntity
  8
0
390
0
  6
PHANTOM
 62
   110
100
AcDbLine
 10
-41.430585
 20
-63.25
 30
0.0
 11
-12.675821
 21
-63.25
 31
0.0
  0
LINE
  5
439
100
AcDbEntity
  8
0
390
0
  6
PHANTOM
 62
   110
100
AcDbLine
 10
-46.430585
 20
-51.5
 30
0.0
 11
-10.603979
 21
-51.5
 31
0.0
  0
LINE
  5
43A
100
AcDbEntity
  8
0
390
0
  6
PHANTOM
 62
   110
100
AcDbLine
 10
-41.430585
 20
63.25
 30
0.0
 11
9.629542
 21
63.25
 31
0.0
  0
LINE
  5
43B
100
AcDbEntity
  8
0
390
0
  6
PHANTOM
 62
   110
100
AcDbLine
 10
-46.430585
 20
51.5
 30
0.0
 11
7.5577
 21
51.5
 31
0.0
  0
LINE
  5
43C
100
AcDbEntity
  8
0
390
0
  6
CONTINUOUS
 62
     3
100
AcDbLine
 10
128.700001
 20
52.5
 30
0.0
 11
135.699999
 21
52.5
 31
0.0
  0
LINE
  5
43D
100
AcDbEntity
  8
0
390
0
  6
CONTINUOUS
 62
     3
100
AcDbLine
 10
128.700001
 20
-52.5
 30
0.0
 11
135.699999
 21
-52.5
 31
0.0
  0
LINE
  5
43E
100
AcDbEntity
  8
0
390
0
  6
CONTINUOUS
 62
     3
100
AcDbLine
 10
135.699999
 20
-50.8
 30
0.0
 11
135.699999
 21
-60.349998
 31
0.0
  0
LINE
  5
43F
100
AcDbEntity
  8
0
390
0
  6
CONTINUOUS
 62
     3
100
AcDbLine
 10
128.700001
 20
-50.8
 30
0.0
 11
128.700001
 21
-75.0
 31
0.0
  0
LINE
  5
440
100
AcDbEntity
  8
0
390
0
  6
CONTINUOUS
 62
     3
100
AcDbLine
 10
70.5
 20
-65.0
 30
0.0
 11
72.9
 21
-60.843078
 31
0.0
  0
LINE
  5
441
100
AcDbEntity
  8
0
390
0
  6
CONTINUOUS
 62
     3
100
AcDbLine
 10
72.9
 20
-52.8
 30
0.0
 11
72.9
 21
-60.843078
 31
0.0
  0
LINE
  5
442
100
AcDbEntity
  8
0
390
0
  6
CONTINUOUS
 62
     3
100
AcDbLine
 10
70.5
 20
-65.0
 30
0.0
 11
69.9
 21
-65.0
 31
0.0
  0
LINE
  5
443
100
AcDbEntity
  8
0
390
0
  6
CONTINUOUS
 62
     3
100
AcDbLine
 10
142.9
 20
-48.8
 30
0.0
 11
69.9
 21
-48.8
 31
0.0
  0
LINE
  5
444
100
AcDbEntity
  8
0
390
0
  6
CONTINUOUS
 62
     3
100
AcDbLine
 10
142.9
 20
-50.8
 30
0.0
 11
74.9
 21
-50.8
 31
0.0
  0
LINE
  5
445
100
AcDbEntity
  8
0
390
0
  6
CONTINUOUS
 62
     3
100
AcDbLine
 10
70.5
 20
65.0
 30
0.0
 11
72.9
 21
60.843078
 31
0.0
  0
LINE
  5
446
100
AcDbEntity
  8
0
390
0
  6
CONTINUOUS
 62
     3
100
AcDbLine
 10
72.9
 20
52.8
 30
0.0
 11
72.9
 21
60.843078
 31
0.0
  0
LINE
  5
447
100
AcDbEntity
  8
0
390
0
  6
CONTINUOUS
 62
     3
100
AcDbLine
 10
70.5
 20
65.0
 30
0.0
 11
69.9
 21
65.0
 31
0.0
  0
LINE
  5
448
100
AcDbEntity
  8
0
390
0
  6
CONTINUOUS
 62
     3
100
AcDbLine
 10
142.9
 20
48.8
 30
0.0
 11
69.9
 21
48.8
 31
0.0
  0
LINE
  5
449
100
AcDbEntity
  8
0
390
0
  6
CONTINUOUS
 62
     3
100
AcDbLine
 10
142.9
 20
50.8
 30
0.0
 11
74.9
 21
50.8
 31
0.0
  0
LINE
  5
44A
100
AcDbEntity
  8
0
390
0
  6
CONTINUOUS
 62
     3
100
AcDbLine
 10
69.9
 20
-65.0
 30
0.0
 11
69.9
 21
65.0
 31
0.0
  0
LINE
  5
44B
100
AcDbEntity
  8
0
390
0
  6
CONTINUOUS
 62
     3
100
AcDbLine
 10
-130.200001
 20
50.8
 30
0.0
 11
-130.200001
 21
75.0
 31
0.0
  0
LINE
  5
44C
100
AcDbEntity
  8
0
390
0
  6
CONTINUOUS
 62
     3
100
AcDbLine
 10
-70.5
 20
-65.0
 30
0.0
 11
-72.9
 21
-60.843078
 31
0.0
  0
LINE
  5
44D
100
AcDbEntity
  8
0
390
0
  6
CONTINUOUS
 62
     3
100
AcDbLine
 10
-72.9
 20
-52.8
 30
0.0
 11
-72.9
 21
-60.843078
 31
0.0
  0
LINE
  5
44E
100
AcDbEntity
  8
0
390
0
  6
CONTINUOUS
 62
     3
100
AcDbLine
 10
-70.5
 20
-65.0
 30
0.0
 11
-69.9
 21
-65.0
 31
0.0
  0
LINE
  5
44F
100
AcDbEntity
  8
0
390
0
  6
CONTINUOUS
 62
     3
100
AcDbLine
 10
-142.9
 20
-48.8
 30
0.0
 11
-69.9
 21
-48.8
 31
0.0
  0
LINE
  5
450
100
AcDbEntity
  8
0
390
0
  6
CONTINUOUS
 62
     3
100
AcDbLine
 10
-142.9
 20
-50.8
 30
0.0
 11
-74.9
 21
-50.8
 31
0.0
  0
LINE
  5
451
100
AcDbEntity
  8
0
390
0
  6
CONTINUOUS
 62
     3
100
AcDbLine
 10
-70.5
 20
65.0
 30
0.0
 11
-72.9
 21
60.843078
 31
0.0
  0
LINE
  5
452
100
AcDbEntity
  8
0
390
0
  6
CONTINUOUS
 62
     3
100
AcDbLine
 10
-72.9
 20
52.8
 30
0.0
 11
-72.9
 21
60.843078
 31
0.0
  0
LINE
  5
453
100
AcDbEntity
  8
0
390
0
  6
CONTINUOUS
 62
     3
100
AcDbLine
 10
-70.5
 20
65.0
 30
0.0
 11
-69.9
 21
65.0
 31
0.0
  0
LINE
  5
454
100
AcDbEntity
  8
0
390
0
  6
CONTINUOUS
 62
     3
100
AcDbLine
 10
-142.9
 20
48.8
 30
0.0
 11
-69.9
 21
48.8
 31
0.0
  0
LINE
  5
455
100
AcDbEntity
  8
0
390
0
  6
CONTINUOUS
 62
     3
100
AcDbLine
 10
-142.9
 20
50.8
 30
0.0
 11
-74.9
 21
50.8
 31
0.0
  0
LINE
  5
456
100
AcDbEntity
  8
0
390
0
  6
CONTINUOUS
 62
     3
100
AcDbLine
 10
-69.9
 20
-65.0
 30
0.0
 11
-69.9
 21
65.0
 31
0.0
  0
LINE
  5
457
100
AcDbEntity
  8
0
390
0
  6
CONTINUOUS
 62
     3
100
AcDbLine
 10
150.0
 20
60.349998
 30
0.0
 11
135.699999
 21
60.349998
 31
0.0
  0
LINE
  5
458
100
AcDbEntity
  8
0
390
0
  6
CONTINUOUS
 62
     3
100
AcDbLine
 10
150.0
 20
-60.349998
 30
0.0
 11
135.699999
 21
-60.349998
 31
0.0
  0
LINE
  5
459
100
AcDbEntity
  8
0
390
0
  6
CONTINUOUS
 62
     3
100
AcDbLine
 10
128.700001
 20
75.0
 30
0.0
 11
128.700001
 21
50.8
 31
0.0
  0
LINE
  5
45A
100
AcDbEntity
  8
0
390
0
  6
CONTINUOUS
 62
     3
100
AcDbLine
 10
142.9
 20
51.0
 30
0.0
 11
142.9
 21
-51.0
 31
0.0
  0
LINE
  5
45B
100
AcDbEntity
  8
0
390
0
  6
CONTINUOUS
 62
     3
100
AcDbLine
 10
148.8
 20
57.597507
 30
0.0
 11
148.8
 21
-57.597507
 31
0.0
  0
LINE
  5
45C
100
AcDbEntity
  8
0
390
0
  6
CONTINUOUS
 62
     3
100
AcDbLine
 10
150.0
 20
75.000008
 30
0.0
 11
150.0
 21
-75.0
 31
0.0
  0
LINE
  5
45D
100
AcDbEntity
  8
0
390
0
  6
CENTER
 62
   110
100
AcDbLine
 10
153.0
 20
-65.150002
 30
0.0
 11
125.700001
 21
-65.150002
 31
0.0
  0
LINE
  5
45E
100
AcDbEntity
  8
0
390
0
  6
CENTER
 62
   110
100
AcDbLine
 10
153.0
 20
65.150002
 30
0.0
 11
125.700001
 21
65.150002
 31
0.0
  0
LINE
  5
45F
100
AcDbEntity
  8
0
390
0
  6
CONTINUOUS
 62
     3
100
AcDbLine
 10
149.399999
 20
-57.650016
 30
0.0
 11
148.799999
 21
-57.597522
 31
0.0
  0
LINE
  5
460
100
AcDbEntity
  8
0
390
0
  6
CONTINUOUS
 62
     3
100
AcDbLine
 10
149.399999
 20
-57.650004
 30
0.0
 11
148.417282
 21
-60.349997
 31
0.0
  0
LINE
  5
461
100
AcDbEntity
  8
0
390
0
  6
CONTINUOUS
 62
     3
100
AcDbLine
 10
149.399999
 20
57.650016
 30
0.0
 11
148.799999
 21
57.597522
 31
0.0
  0
LINE
  5
462
100
AcDbEntity
  8
0
390
0
  6
CONTINUOUS
 62
     3
100
AcDbLine
 10
149.399999
 20
57.650004
 30
0.0
 11
148.417282
 21
60.349997
 31
0.0
  0
LINE
  5
463
100
AcDbEntity
  8
0
390
0
  6
CONTINUOUS
 62
     3
100
AcDbLine
 10
128.699984
 20
-75.000051
 30
0.0
 11
129.499983
 21
-75.800051
 31
0.0
  0
LINE
  5
464
100
AcDbEntity
  8
0
390
0
  6
CONTINUOUS
 62
     3
100
AcDbLine
 10
128.699984
 20
75.000051
 30
0.0
 11
129.499983
 21
75.800051
 31
0.0
  0
LINE
  5
465
100
AcDbEntity
  8
0
390
0
  6
CONTINUOUS
 62
     3
100
AcDbLine
 10
135.699999
 20
60.349998
 30
0.0
 11
135.699999
 21
50.8
 31
0.0
  0
LINE
  5
466
100
AcDbEntity
  8
0
390
0
  6
CONTINUOUS
 62
     3
100
AcDbLine
 10
145.2
 20
-49.75
 30
0.0
 11
142.9
 21
-49.75
 31
0.0
  0
LINE
  5
467
100
AcDbEntity
  8
0
390
0
  6
CONTINUOUS
 62
     3
100
AcDbLine
 10
145.2
 20
49.75
 30
0.0
 11
143.0
 21
49.75
 31
0.0
  0
LINE
  5
468
100
AcDbEntity
  8
0
390
0
  6
CONTINUOUS
 62
     3
100
AcDbLine
 10
142.9
 20
51.0
 30
0.0
 11
135.699999
 21
51.0
 31
0.0
  0
LINE
  5
469
100
AcDbEntity
  8
0
390
0
  6
CONTINUOUS
 62
     3
100
AcDbLine
 10
142.9
 20
-51.0
 30
0.0
 11
135.699999
 21
-51.0
 31
0.0
  0
LINE
  5
46A
100
AcDbEntity
  8
0
390
0
  6
CONTINUOUS
 62
     3
100
AcDbLine
 10
149.999995
 20
-74.999998
 30
0.0
 11
149.199987
 21
-75.800011
 31
0.0
  0
LINE
  5
46B
100
AcDbEntity
  8
0
390
0
  6
CONTINUOUS
 62
     3
100
AcDbLine
 10
149.200006
 20
75.800022
 30
0.0
 11
150.000008
 21
75.000025
 31
0.0
  0
LINE
  5
46C
100
AcDbEntity
  8
0
390
0
  6
CONTINUOUS
 62
     3
100
AcDbLine
 10
150.0
 20
-69.400002
 30
0.0
 11
128.700001
 21
-69.400002
 31
0.0
  0
LINE
  5
46D
100
AcDbEntity
  8
0
390
0
  6
CONTINUOUS
 62
     3
100
AcDbLine
 10
150.0
 20
-60.900002
 30
0.0
 11
128.700001
 21
-60.900002
 31
0.0
  0
LINE
  5
46E
100
AcDbEntity
  8
0
390
0
  6
CONTINUOUS
 62
     3
100
AcDbLine
 10
150.0
 20
60.900002
 30
0.0
 11
128.700001
 21
60.900002
 31
0.0
  0
LINE
  5
46F
100
AcDbEntity
  8
0
390
0
  6
CONTINUOUS
 62
     3
100
AcDbLine
 10
150.0
 20
69.400002
 30
0.0
 11
128.700001
 21
69.400002
 31
0.0
  0
LINE
  5
470
100
AcDbEntity
  8
0
390
0
  6
CONTINUOUS
 62
     3
100
AcDbLine
 10
148.8
 20
51.0
 30
0.0
 11
145.2
 21
51.0
 31
0.0
  0
LINE
  5
471
100
AcDbEntity
  8
0
390
0
  6
CONTINUOUS
 62
     3
100
AcDbLine
 10
148.8
 20
-51.0
 30
0.0
 11
145.2
 21
-51.0
 31
0.0
  0
LINE
  5
472
100
AcDbEntity
  8
0
390
0
  6
CONTINUOUS
 62
     3
100
AcDbLine
 10
149.4
 20
57.650002
 30
0.0
 11
149.4
 21
-57.650002
 31
0.0
  0
LINE
  5
473
100
AcDbEntity
  8
0
390
0
  6
CONTINUOUS
 62
     3
100
AcDbLine
 10
149.199995
 20
-75.800003
 30
0.0
 11
129.500002
 21
-75.800003
 31
0.0
  0
LINE
  5
474
100
AcDbEntity
  8
0
390
0
  6
CONTINUOUS
 62
     3
100
AcDbLine
 10
149.2
 20
75.800003
 30
0.0
 11
129.500002
 21
75.800003
 31
0.0
  0
LINE
  5
475
100
AcDbEntity
  8
0
390
0
  6
CONTINUOUS
 62
     3
100
AcDbLine
 10
-150.0
 20
60.349998
 30
0.0
 11
-148.774321
 21
60.349998
 31
0.0
  0
LINE
  5
476
100
AcDbEntity
  8
0
390
0
  6
CONTINUOUS
 62
     3
100
AcDbLine
 10
-150.0
 20
-60.349998
 30
0.0
 11
-148.774321
 21
-60.349998
 31
0.0
  0
LINE
  5
477
100
AcDbEntity
  8
0
390
0
  6
CONTINUOUS
 62
     3
100
AcDbLine
 10
-130.200001
 20
-75.0
 30
0.0
 11
-130.200001
 21
-50.8
 31
0.0
  0
LINE
  5
478
100
AcDbEntity
  8
0
390
0
  6
CONTINUOUS
 62
     3
100
AcDbLine
 10
-150.0
 20
-75.000008
 30
0.0
 11
-150.0
 21
75.0
 31
0.0
  0
LINE
  5
479
100
AcDbEntity
  8
0
390
0
  6
CONTINUOUS
 62
     3
100
AcDbLine
 10
-149.399997
 20
57.65002
 30
0.0
 11
-148.799998
 21
57.597525
 31
0.0
  0
LINE
  5
47A
100
AcDbEntity
  8
0
390
0
  6
CONTINUOUS
 62
     3
100
AcDbLine
 10
-149.400003
 20
57.650002
 30
0.0
 11
-148.539398
 21
60.014497
 31
0.0
  0
LINE
  5
47B
100
AcDbEntity
  8
0
390
0
  6
CONTINUOUS
 62
     3
100
AcDbLine
 10
-149.399997
 20
-57.65002
 30
0.0
 11
-148.799998
 21
-57.597525
 31
0.0
  0
LINE
  5
47C
100
AcDbEntity
  8
0
390
0
  6
CONTINUOUS
 62
     3
100
AcDbLine
 10
-149.400003
 20
-57.650002
 30
0.0
 11
-148.539398
 21
-60.014497
 31
0.0
  0
LINE
  5
47D
100
AcDbEntity
  8
0
390
0
  6
CENTER
 62
   110
100
AcDbLine
 10
-153.0
 20
65.150002
 30
0.0
 11
-127.200001
 21
65.150002
 31
0.0
  0
LINE
  5
47E
100
AcDbEntity
  8
0
390
0
  6
CENTER
 62
   110
100
AcDbLine
 10
-153.0
 20
-65.150002
 30
0.0
 11
-127.200001
 21
-65.150002
 31
0.0
  0
LINE
  5
47F
100
AcDbEntity
  8
0
390
0
  6
CONTINUOUS
 62
     3
100
AcDbLine
 10
-142.9
 20
-51.0
 30
0.0
 11
-142.9
 21
51.0
 31
0.0
  0
LINE
  5
480
100
AcDbEntity
  8
0
390
0
  6
CONTINUOUS
 62
     3
100
AcDbLine
 10
-145.2
 20
49.75
 30
0.0
 11
-143.0
 21
49.75
 31
0.0
  0
LINE
  5
481
100
AcDbEntity
  8
0
390
0
  6
CONTINUOUS
 62
     3
100
AcDbLine
 10
-145.2
 20
-49.75
 30
0.0
 11
-143.0
 21
-49.75
 31
0.0
  0
LINE
  5
482
100
AcDbEntity
  8
0
390
0
  6
CONTINUOUS
 62
     3
100
AcDbLine
 10
-142.9
 20
-51.0
 30
0.0
 11
-130.200001
 21
-51.0
 31
0.0
  0
LINE
  5
483
100
AcDbEntity
  8
0
390
0
  6
CONTINUOUS
 62
     3
100
AcDbLine
 10
-142.9
 20
51.0
 30
0.0
 11
-130.200001
 21
51.0
 31
0.0
  0
LINE
  5
484
100
AcDbEntity
  8
0
390
0
  6
CONTINUOUS
 62
     3
100
AcDbLine
 10
-130.20001
 20
74.999979
 30
0.0
 11
-131.000016
 21
75.799983
 31
0.0
  0
LINE
  5
485
100
AcDbEntity
  8
0
390
0
  6
CONTINUOUS
 62
     3
100
AcDbLine
 10
-149.999984
 20
74.999984
 30
0.0
 11
-149.199978
 21
75.799988
 31
0.0
  0
LINE
  5
486
100
AcDbEntity
  8
0
390
0
  6
CONTINUOUS
 62
     3
100
AcDbLine
 10
-149.200018
 20
-75.800034
 30
0.0
 11
-150.000017
 21
-75.000038
 31
0.0
  0
LINE
  5
487
100
AcDbEntity
  8
0
390
0
  6
CONTINUOUS
 62
     3
100
AcDbLine
 10
-130.20001
 20
-74.999979
 30
0.0
 11
-131.000016
 21
-75.799983
 31
0.0
  0
LINE
  5
488
100
AcDbEntity
  8
0
390
0
  6
CONTINUOUS
 62
     3
100
AcDbLine
 10
-150.0
 20
69.400002
 30
0.0
 11
-130.200001
 21
69.400002
 31
0.0
  0
LINE
  5
489
100
AcDbEntity
  8
0
390
0
  6
CONTINUOUS
 62
     3
100
AcDbLine
 10
-150.0
 20
60.900002
 30
0.0
 11
-130.200001
 21
60.900002
 31
0.0
  0
LINE
  5
48A
100
AcDbEntity
  8
0
390
0
  6
CONTINUOUS
 62
     3
100
AcDbLine
 10
-150.0
 20
-60.900002
 30
0.0
 11
-130.200001
 21
-60.900002
 31
0.0
  0
LINE
  5
48B
100
AcDbEntity
  8
0
390
0
  6
CONTINUOUS
 62
     3
100
AcDbLine
 10
-150.0
 20
-69.400002
 30
0.0
 11
-130.200001
 21
-69.400002
 31
0.0
  0
LINE
  5
48C
100
AcDbEntity
  8
0
390
0
  6
CONTINUOUS
 62
     3
100
AcDbLine
 10
-148.799999
 20
-51.0
 30
0.0
 11
-145.2
 21
-51.0
 31
0.0
  0
LINE
  5
48D
100
AcDbEntity
  8
0
390
0
  6
CONTINUOUS
 62
     3
100
AcDbLine
 10
-148.799999
 20
51.0
 30
0.0
 11
-145.2
 21
51.0
 31
0.0
  0
LINE
  5
48E
100
AcDbEntity
  8
0
390
0
  6
CONTINUOUS
 62
     3
100
AcDbLine
 10
-148.799999
 20
-57.597507
 30
0.0
 11
-148.799999
 21
57.597507
 31
0.0
  0
LINE
  5
48F
100
AcDbEntity
  8
0
390
0
  6
CONTINUOUS
 62
     3
100
AcDbLine
 10
-149.4
 20
-57.650002
 30
0.0
 11
-149.4
 21
57.650002
 31
0.0
  0
LINE
  5
490
100
AcDbEntity
  8
0
390
0
  6
CONTINUOUS
 62
     3
100
AcDbLine
 10
-149.199995
 20
75.800003
 30
0.0
 11
-131.000004
 21
75.800003
 31
0.0
  0
LINE
  5
491
100
AcDbEntity
  8
0
390
0
  6
CONTINUOUS
 62
     3
100
AcDbLine
 10
-149.200001
 20
-75.800003
 30
0.0
 11
-131.000004
 21
-75.800003
 31
0.0
  0
LINE
  5
492
100
AcDbEntity
  8
0
390
0
  6
CENTER
 62
   110
100
AcDbLine
 10
-155.0
 20
0.0
 30
0.0
 11
-112.0
 21
0.0
 31
0.0
  0
ENDBLK
  5
493
100
AcDbEntity
  8
0
370
    -2
390
0
100
AcDbBlockEnd
  0
BLOCK
  5
2D
100
AcDbEntity
  8
0
370
    -2
390
0
  6
ByBlock
 62
     0
100
AcDbBlockBegin
  2
_OPEN30
 70
     2
 10
0.0
 20
0.0
 30
0.0
  3
_OPEN30
  1

  0
LINE
  5
2E
100
AcDbEntity
  8
0
370
    -2
390
0
  6
ByBlock
 62
     0
100
AcDbLine
 10
-1.0
 20
0.267949
 30
0.0
 11
0.0
 21
0.0
 31
0.0
  0
LINE
  5
2F
100
AcDbEntity
  8
0
370
    -2
390
0
  6
ByBlock
 62
     0
100
AcDbLine
 10
0.0
 20
0.0
 30
0.0
 11
-1.0
 21
-0.267949
 31
0.0
  0
LINE
  5
30
100
AcDbEntity
  8
0
370
    -2
390
0
  6
ByBlock
 62
     0
100
AcDbLine
 10
0.0
 20
0.0
 30
0.0
 11
-1.0
 21
0.0
 31
0.0
  0
ENDBLK
  5
31
100
AcDbEntity
  8
0
370
    -2
390
0
  6
ByBlock
 62
     0
100
AcDbBlockEnd
  0
ENDSEC
  0
SECTION
  2
ENTITIES
  0
LINE
  5
494
100
AcDbEntity
  8
DEFPOINTS
390
0
  6
CONTINUOUS
 62
     3
100
AcDbLine
 10
130.9
 20
-33.5
 30
0.0
 11
137.3
 21
-33.5
 31
0.0
  0
LINE
  5
495
100
AcDbEntity
  8
DEFPOINTS
390
0
  6
CONTINUOUS
 62
     3
100
AcDbLine
 10
150.0
 20
-41.299999
 30
0.0
 11
137.3
 21
-41.299999
 31
0.0
  0
LINE
  5
496
100
AcDbEntity
  8
DEFPOINTS
390
0
  6
CONTINUOUS
 62
     3
100
AcDbLine
 10
130.9
 20
-55.95
 30
0.0
 11
130.9
 21
-31.75
 31
0.0
  0
LINE
  5
497
100
AcDbEntity
  8
DEFPOINTS
390
0
  6
CONTINUOUS
 62
     3
100
AcDbLine
 10
137.3
 20
-41.299999
 30
0.0
 11
137.3
 21
-31.75
 31
0.0
  0
LINE
  5
498
100
AcDbEntity
  8
DEFPOINTS
390
0
  6
CENTER
 62
   110
100
AcDbLine
 10
153.0
 20
-46.099998
 30
0.0
 11
127.9
 21
-46.099998
 31
0.0
  0
LINE
  5
499
100
AcDbEntity
  8
DEFPOINTS
390
0
  6
CONTINUOUS
 62
     3
100
AcDbLine
 10
149.4
 20
-38.599998
 30
0.0
 11
148.800001
 21
-38.547504
 31
0.0
  0
LINE
  5
49A
100
AcDbEntity
  8
DEFPOINTS
390
0
  6
CONTINUOUS
 62
     3
100
AcDbLine
 10
149.400006
 20
-38.6
 30
0.0
 11
148.417284
 21
-41.300003
 31
0.0
  0
LINE
  5
49B
100
AcDbEntity
  8
DEFPOINTS
390
0
  6
CONTINUOUS
 62
     3
100
AcDbLine
 10
143.0
 20
-31.9
 30
0.0
 11
137.3
 21
-31.9
 31
0.0
  0
LINE
  5
49C
100
AcDbEntity
  8
DEFPOINTS
390
0
  6
CONTINUOUS
 62
     3
100
AcDbLine
 10
144.5
 20
-30.75
 30
0.0
 11
143.0
 21
-30.75
 31
0.0
  0
LINE
  5
49D
100
AcDbEntity
  8
DEFPOINTS
390
0
  6
CONTINUOUS
 62
     3
100
AcDbLine
 10
148.8
 20
-31.9
 30
0.0
 11
144.5
 21
-31.9
 31
0.0
  0
LINE
  5
49E
100
AcDbEntity
  8
DEFPOINTS
390
0
  6
CONTINUOUS
 62
     3
100
AcDbLine
 10
150.0
 20
-50.349998
 30
0.0
 11
130.9
 21
-50.349998
 31
0.0
  0
LINE
  5
49F
100
AcDbEntity
  8
DEFPOINTS
390
0
  6
CONTINUOUS
 62
     3
100
AcDbLine
 10
150.0
 20
-41.849998
 30
0.0
 11
130.9
 21
-41.849998
 31
0.0
  0
LINE
  5
4A0
100
AcDbEntity
  8
DEFPOINTS
390
0
  6
CONTINUOUS
 62
     3
100
AcDbLine
 10
149.2
 20
-56.75
 30
0.0
 11
131.7
 21
-56.75
 31
0.0
  0
LINE
  5
4A1
100
AcDbEntity
  8
DEFPOINTS
390
0
  6
CONTINUOUS
 62
     3
100
AcDbLine
 10
130.9
 20
-55.95
 30
0.0
 11
131.7
 21
-56.75
 31
0.0
  0
LINE
  5
4A2
100
AcDbEntity
  8
DEFPOINTS
390
0
  6
CONTINUOUS
 62
     3
100
AcDbLine
 10
150.0
 20
-55.95
 30
0.0
 11
149.2
 21
-56.75
 31
0.0
  0
LINE
  5
4A3
100
AcDbEntity
  8
DEFPOINTS
390
0
  6
CONTINUOUS
 62
     3
100
AcDbLine
 10
143.0
 20
-29.75
 30
0.0
 11
75.0
 21
-29.75
 31
0.0
  0
LINE
  5
4A4
100
AcDbEntity
  8
DEFPOINTS
390
0
  6
CONTINUOUS
 62
     3
100
AcDbLine
 10
130.9
 20
-31.75
 30
0.0
 11
80.0
 21
-31.75
 31
0.0
  0
LINE
  5
4A5
100
AcDbEntity
  8
DEFPOINTS
390
0
  6
CONTINUOUS
 62
     3
100
AcDbLine
 10
143.0
 20
29.75
 30
0.0
 11
75.0
 21
29.75
 31
0.0
  0
LINE
  5
4A6
100
AcDbEntity
  8
DEFPOINTS
390
0
  6
CONTINUOUS
 62
     3
100
AcDbLine
 10
143.0
 20
31.75
 30
0.0
 11
80.0
 21
31.75
 31
0.0
  0
LINE
  5
4A7
100
AcDbEntity
  8
DEFPOINTS
390
0
  6
CONTINUOUS
 62
     3
100
AcDbLine
 10
150.0
 20
55.95
 30
0.0
 11
149.2
 21
56.75
 31
0.0
  0
LINE
  5
4A8
100
AcDbEntity
  8
DEFPOINTS
390
0
  6
CONTINUOUS
 62
     3
100
AcDbLine
 10
130.9
 20
55.95
 30
0.0
 11
131.7
 21
56.75
 31
0.0
  0
LINE
  5
4A9
100
AcDbEntity
  8
DEFPOINTS
390
0
  6
CONTINUOUS
 62
     3
100
AcDbLine
 10
149.2
 20
56.75
 30
0.0
 11
131.7
 21
56.75
 31
0.0
  0
LINE
  5
4AA
100
AcDbEntity
  8
DEFPOINTS
390
0
  6
CONTINUOUS
 62
     3
100
AcDbLine
 10
149.4
 20
-38.599998
 30
0.0
 11
149.4
 21
38.599998
 31
0.0
  0
LINE
  5
4AB
100
AcDbEntity
  8
DEFPOINTS
390
0
  6
CONTINUOUS
 62
     3
100
AcDbLine
 10
150.0
 20
41.849998
 30
0.0
 11
130.9
 21
41.849998
 31
0.0
  0
LINE
  5
4AC
100
AcDbEntity
  8
DEFPOINTS
390
0
  6
CONTINUOUS
 62
     3
100
AcDbLine
 10
150.0
 20
50.349998
 30
0.0
 11
130.9
 21
50.349998
 31
0.0
  0
LINE
  5
4AD
100
AcDbEntity
  8
DEFPOINTS
390
0
  6
CONTINUOUS
 62
     3
100
AcDbLine
 10
148.8
 20
31.9
 30
0.0
 11
144.5
 21
31.9
 31
0.0
  0
LINE
  5
4AE
100
AcDbEntity
  8
DEFPOINTS
390
0
  6
CONTINUOUS
 62
     3
100
AcDbLine
 10
144.5
 20
30.75
 30
0.0
 11
143.0
 21
30.75
 31
0.0
  0
LINE
  5
4AF
100
AcDbEntity
  8
DEFPOINTS
390
0
  6
CONTINUOUS
 62
     3
100
AcDbLine
 10
143.0
 20
31.9
 30
0.0
 11
137.3
 21
31.9
 31
0.0
  0
LINE
  5
4B0
100
AcDbEntity
  8
DEFPOINTS
390
0
  6
CONTINUOUS
 62
     3
100
AcDbLine
 10
149.400006
 20
38.6
 30
0.0
 11
148.417284
 21
41.300003
 31
0.0
  0
LINE
  5
4B1
100
AcDbEntity
  8
DEFPOINTS
390
0
  6
CONTINUOUS
 62
     3
100
AcDbLine
 10
149.4
 20
38.599998
 30
0.0
 11
148.800001
 21
38.547504
 31
0.0
  0
LINE
  5
4B2
100
AcDbEntity
  8
DEFPOINTS
390
0
  6
CENTER
 62
   110
100
AcDbLine
 10
153.0
 20
46.099998
 30
0.0
 11
127.9
 21
46.099998
 31
0.0
  0
LINE
  5
4B3
100
AcDbEntity
  8
DEFPOINTS
390
0
  6
CONTINUOUS
 62
     3
100
AcDbLine
 10
150.0
 20
55.95
 30
0.0
 11
150.0
 21
-55.95
 31
0.0
  0
LINE
  5
4B4
100
AcDbEntity
  8
DEFPOINTS
390
0
  6
CONTINUOUS
 62
     3
100
AcDbLine
 10
148.8
 20
-38.547508
 30
0.0
 11
148.8
 21
38.547508
 31
0.0
  0
LINE
  5
4B5
100
AcDbEntity
  8
DEFPOINTS
390
0
  6
CONTINUOUS
 62
     3
100
AcDbLine
 10
143.0
 20
-31.9
 30
0.0
 11
143.0
 21
31.9
 31
0.0
  0
LINE
  5
4B6
100
AcDbEntity
  8
DEFPOINTS
390
0
  6
CONTINUOUS
 62
     3
100
AcDbLine
 10
137.3
 20
41.299999
 30
0.0
 11
137.3
 21
31.75
 31
0.0
  0
LINE
  5
4B7
100
AcDbEntity
  8
DEFPOINTS
390
0
  6
CONTINUOUS
 62
     3
100
AcDbLine
 10
130.9
 20
55.95
 30
0.0
 11
130.9
 21
31.75
 31
0.0
  0
LINE
  5
4B8
100
AcDbEntity
  8
DEFPOINTS
390
0
  6
CONTINUOUS
 62
     3
100
AcDbLine
 10
150.0
 20
41.299999
 30
0.0
 11
137.3
 21
41.299999
 31
0.0
  0
LINE
  5
4B9
100
AcDbEntity
  8
DEFPOINTS
390
0
  6
CONTINUOUS
 62
     3
100
AcDbLine
 10
130.9
 20
33.5
 30
0.0
 11
137.3
 21
33.5
 31
0.0
  0
LINE
  5
4BA
100
AcDbEntity
  8
DEFPOINTS
390
0
  6
CONTINUOUS
 62
     3
100
AcDbLine
 10
144.5
 20
-31.9
 30
0.0
 11
144.5
 21
31.9
 31
0.0
  0
ARC
  5
4BB
100
AcDbEntity
  8
PV
390
0
  6
CONTINUOUS
 62
     3
100
AcDbCircle
 10
80.0
 20
-33.75
 30
0.0
 40
2.0
100
AcDbArc
 50
90.0
 51
180.0
  0
ARC
  5
4BC
100
AcDbEntity
  8
PV
390
0
  6
CONTINUOUS
 62
     3
100
AcDbCircle
 10
80.0
 20
33.75
 30
0.0
 40
2.0
100
AcDbArc
 50
180.0
 51
270.0
  0
LINE
  5
4BD
100
AcDbEntity
  8
PV
390
0
  6
CONTINUOUS
 62
     3
100
AcDbLine
 10
78.0
 20
-33.75
 30
0.0
 11
78.0
 21
-39.343078
 31
0.0
  0
LINE
  5
4BE
100
AcDbEntity
  8
PV
390
0
  6
CONTINUOUS
 62
     3
100
AcDbLine
 10
75.0
 20
43.5
 30
0.0
 11
75.0
 21
-43.5
 31
0.0
  0
LINE
  5
4BF
100
AcDbEntity
  8
PV
390
0
  6
CONTINUOUS
 62
     3
100
AcDbLine
 10
75.6
 20
43.5
 30
0.0
 11
78.0
 21
39.343078
 31
0.0
  0
LINE
  5
4C0
100
AcDbEntity
  8
PV
390
0
  6
CONTINUOUS
 62
     3
100
AcDbLine
 10
78.0
 20
33.75
 30
0.0
 11
78.0
 21
39.343078
 31
0.0
  0
ARC
  5
4C1
100
AcDbEntity
  8
PV
390
0
  6
CONTINUOUS
 62
     3
100
AcDbCircle
 10
56.3
 20
40.8
 30
0.0
 40
1.7
100
AcDbArc
 50
0.0
 51
180.0
  0
ARC
  5
4C2
100
AcDbEntity
  8
PV
390
0
  6
CONTINUOUS
 62
     3
100
AcDbCircle
 10
59.7
 20
33.1
 30
0.0
 40
1.7
100
AcDbArc
 50
180.0
 51
0.0
  0
ARC
  5
4C3
100
AcDbEntity
  8
PV
390
0
  6
CONTINUOUS
 62
     3
100
AcDbCircle
 10
63.1
 20
40.8
 30
0.0
 40
1.7
100
AcDbArc
 50
0.0
 51
180.0
  0
ARC
  5
4C4
100
AcDbEntity
  8
PV
390
0
  6
CONTINUOUS
 62
     3
100
AcDbCircle
 10
66.5
 20
33.1
 30
0.0
 40
1.7
100
AcDbArc
 50
180.0
 51
0.0
  0
ARC
  5
4C5
100
AcDbEntity
  8
PV
390
0
  6
CONTINUOUS
 62
     3
100
AcDbCircle
 10
69.9
 20
40.8
 30
0.0
 40
1.7
100
AcDbArc
 50
0.0
 51
180.0
  0
ARC
  5
4C6
100
AcDbEntity
  8
PV
390
0
  6
CONTINUOUS
 62
     3
100
AcDbCircle
 10
73.3
 20
33.1
 30
0.0
 40
1.7
100
AcDbArc
 50
180.0
 51
0.0
  0
LINE
  5
4C7
100
AcDbEntity
  8
PV
390
0
  6
CONTINUOUS
 62
     3
100
AcDbLine
 10
54.6
 20
40.8
 30
0.0
 11
54.6
 21
33.1
 31
0.0
  0
LINE
  5
4C8
100
AcDbEntity
  8
PV
390
0
  6
CONTINUOUS
 62
     3
100
AcDbLine
 10
58.0
 20
40.8
 30
0.0
 11
58.0
 21
33.1
 31
0.0
  0
LINE
  5
4C9
100
AcDbEntity
  8
PV
390
0
  6
CONTINUOUS
 62
     3
100
AcDbLine
 10
61.4
 20
40.8
 30
0.0
 11
61.4
 21
33.1
 31
0.0
  0
LINE
  5
4CA
100
AcDbEntity
  8
PV
390
0
  6
CONTINUOUS
 62
     3
100
AcDbLine
 10
64.8
 20
40.8
 30
0.0
 11
64.8
 21
33.1
 31
0.0
  0
LINE
  5
4CB
100
AcDbEntity
  8
PV
390
0
  6
CONTINUOUS
 62
     3
100
AcDbLine
 10
68.2
 20
40.8
 30
0.0
 11
68.2
 21
33.1
 31
0.0
  0
LINE
  5
4CC
100
AcDbEntity
  8
PV
390
0
  6
CONTINUOUS
 62
     3
100
AcDbLine
 10
71.6
 20
33.1
 30
0.0
 11
71.6
 21
40.8
 31
0.0
  0
LINE
  5
4CD
100
AcDbEntity
  8
PV
390
0
  6
CONTINUOUS
 62
     3
100
AcDbLine
 10
75.0
 20
43.5
 30
0.0
 11
75.6
 21
43.5
 31
0.0
  0
ARC
  5
4CE
100
AcDbEntity
  8
PV
390
0
  6
CONTINUOUS
 62
     3
100
AcDbCircle
 10
73.3
 20
-33.1
 30
0.0
 40
1.7
100
AcDbArc
 50
0.0
 51
180.0
  0
LINE
  5
4CF
100
AcDbEntity
  8
PV
390
0
  6
CONTINUOUS
 62
     3
100
AcDbLine
 10
71.6
 20
-33.1
 30
0.0
 11
71.6
 21
-40.8
 31
0.0
  0
LINE
  5
4D0
100
AcDbEntity
  8
PV
390
0
  6
CONTINUOUS
 62
     3
100
AcDbLine
 10
68.2
 20
-40.8
 30
0.0
 11
68.2
 21
-33.1
 31
0.0
  0
LINE
  5
4D1
100
AcDbEntity
  8
PV
390
0
  6
CONTINUOUS
 62
     3
100
AcDbLine
 10
64.8
 20
-40.8
 30
0.0
 11
64.8
 21
-33.1
 31
0.0
  0
LINE
  5
4D2
100
AcDbEntity
  8
PV
390
0
  6
CONTINUOUS
 62
     3
100
AcDbLine
 10
61.4
 20
-40.8
 30
0.0
 11
61.4
 21
-33.1
 31
0.0
  0
LINE
  5
4D3
100
AcDbEntity
  8
PV
390
0
  6
CONTINUOUS
 62
     3
100
AcDbLine
 10
58.0
 20
-40.8
 30
0.0
 11
58.0
 21
-33.1
 31
0.0
  0
LINE
  5
4D4
100
AcDbEntity
  8
PV
390
0
  6
CONTINUOUS
 62
     3
100
AcDbLine
 10
54.6
 20
-40.8
 30
0.0
 11
54.6
 21
-33.1
 31
0.0
  0
ARC
  5
4D5
100
AcDbEntity
  8
PV
390
0
  6
CONTINUOUS
 62
     3
100
AcDbCircle
 10
69.9
 20
-40.8
 30
0.0
 40
1.7
100
AcDbArc
 50
180.0
 51
0.0
  0
ARC
  5
4D6
100
AcDbEntity
  8
PV
390
0
  6
CONTINUOUS
 62
     3
100
AcDbCircle
 10
66.5
 20
-33.1
 30
0.0
 40
1.7
100
AcDbArc
 50
0.0
 51
180.0
  0
ARC
  5
4D7
100
AcDbEntity
  8
PV
390
0
  6
CONTINUOUS
 62
     3
100
AcDbCircle
 10
63.1
 20
-40.8
 30
0.0
 40
1.7
100
AcDbArc
 50
180.0
 51
0.0
  0
ARC
  5
4D8
100
AcDbEntity
  8
PV
390
0
  6
CONTINUOUS
 62
     3
100
AcDbCircle
 10
59.7
 20
-33.1
 30
0.0
 40
1.7
100
AcDbArc
 50
0.0
 51
180.0
  0
ARC
  5
4D9
100
AcDbEntity
  8
PV
390
0
  6
CONTINUOUS
 62
     3
100
AcDbCircle
 10
56.3
 20
-40.8
 30
0.0
 40
1.7
100
AcDbArc
 50
180.0
 51
0.0
  0
LINE
  5
4DA
100
AcDbEntity
  8
PV
390
0
  6
CONTINUOUS
 62
     3
100
AcDbLine
 10
75.6
 20
-43.5
 30
0.0
 11
78.0
 21
-39.343078
 31
0.0
  0
LINE
  5
4DB
100
AcDbEntity
  8
PV
390
0
  6
CONTINUOUS
 62
     3
100
AcDbLine
 10
75.0
 20
-43.5
 30
0.0
 11
75.6
 21
-43.5
 31
0.0
  0
LINE
  5
4DC
100
AcDbEntity
  8
PV
390
0
  6
PHANTOM
 62
   110
100
AcDbLine
 10
59.7
 20
-31.4
 30
0.0
 11
-4.013527
 21
-31.4
 31
0.0
  0
LINE
  5
4DD
100
AcDbEntity
  8
PV
390
0
  6
PHANTOM
 62
   110
100
AcDbLine
 10
56.3
 20
-42.5
 30
0.0
 11
-5.970757
 21
-42.5
 31
0.0
  0
LINE
  5
4DE
100
AcDbEntity
  8
PV
390
0
  6
PHANTOM
 62
   110
100
AcDbLine
 10
59.7
 20
31.4
 30
0.0
 11
7.059807
 21
31.4
 31
0.0
  0
LINE
  5
4DF
100
AcDbEntity
  8
PV
390
0
  6
PHANTOM
 62
   110
100
AcDbLine
 10
56.3
 20
42.5
 30
0.0
 11
9.017037
 21
42.5
 31
0.0
  0
LINE
  5
4E0
100
AcDbEntity
  8
PV
390
0
  6
CONTINUOUS
 62
     3
100
AcDbLine
 10
-75.0
 20
-43.5
 30
0.0
 11
-75.6
 21
-43.5
 31
0.0
  0
LINE
  5
4E1
100
AcDbEntity
  8
PV
390
0
  6
CONTINUOUS
 62
     3
100
AcDbLine
 10
-75.6
 20
-43.5
 30
0.0
 11
-78.0
 21
-39.343078
 31
0.0
  0
ARC
  5
4E2
100
AcDbEntity
  8
PV
390
0
  6
CONTINUOUS
 62
     3
100
AcDbCircle
 10
-56.3
 20
-40.8
 30
0.0
 40
1.7
100
AcDbArc
 50
180.0
 51
0.0
  0
ARC
  5
4E3
100
AcDbEntity
  8
PV
390
0
  6
CONTINUOUS
 62
     3
100
AcDbCircle
 10
-59.7
 20
-33.1
 30
0.0
 40
1.7
100
AcDbArc
 50
0.0
 51
180.0
  0
ARC
  5
4E4
100
AcDbEntity
  8
PV
390
0
  6
CONTINUOUS
 62
     3
100
AcDbCircle
 10
-63.1
 20
-40.8
 30
0.0
 40
1.7
100
AcDbArc
 50
180.0
 51
0.0
  0
ARC
  5
4E5
100
AcDbEntity
  8
PV
390
0
  6
CONTINUOUS
 62
     3
100
AcDbCircle
 10
-66.5
 20
-33.1
 30
0.0
 40
1.7
100
AcDbArc
 50
0.0
 51
180.0
  0
ARC
  5
4E6
100
AcDbEntity
  8
PV
390
0
  6
CONTINUOUS
 62
     3
100
AcDbCircle
 10
-69.9
 20
-40.8
 30
0.0
 40
1.7
100
AcDbArc
 50
180.0
 51
0.0
  0
LINE
  5
4E7
100
AcDbEntity
  8
PV
390
0
  6
CONTINUOUS
 62
     3
100
AcDbLine
 10
-54.6
 20
-40.8
 30
0.0
 11
-54.6
 21
-33.1
 31
0.0
  0
LINE
  5
4E8
100
AcDbEntity
  8
PV
390
0
  6
CONTINUOUS
 62
     3
100
AcDbLine
 10
-58.0
 20
-40.8
 30
0.0
 11
-58.0
 21
-33.1
 31
0.0
  0
LINE
  5
4E9
100
AcDbEntity
  8
PV
390
0
  6
CONTINUOUS
 62
     3
100
AcDbLine
 10
-61.4
 20
-40.8
 30
0.0
 11
-61.4
 21
-33.1
 31
0.0
  0
LINE
  5
4EA
100
AcDbEntity
  8
PV
390
0
  6
CONTINUOUS
 62
     3
100
AcDbLine
 10
-64.8
 20
-40.8
 30
0.0
 11
-64.8
 21
-33.1
 31
0.0
  0
LINE
  5
4EB
100
AcDbEntity
  8
PV
390
0
  6
CONTINUOUS
 62
     3
100
AcDbLine
 10
-68.2
 20
-40.8
 30
0.0
 11
-68.2
 21
-33.1
 31
0.0
  0
LINE
  5
4EC
100
AcDbEntity
  8
PV
390
0
  6
CONTINUOUS
 62
     3
100
AcDbLine
 10
-71.6
 20
-33.1
 30
0.0
 11
-71.6
 21
-40.8
 31
0.0
  0
LINE
  5
4ED
100
AcDbEntity
  8
PV
390
0
  6
PHANTOM
 62
   110
100
AcDbLine
 10
-59.7
 20
-31.4
 30
0.0
 11
-7.059807
 21
-31.4
 31
0.0
  0
LINE
  5
4EE
100
AcDbEntity
  8
PV
390
0
  6
PHANTOM
 62
   110
100
AcDbLine
 10
-56.3
 20
-42.5
 30
0.0
 11
-9.017037
 21
-42.5
 31
0.0
  0
ARC
  5
4EF
100
AcDbEntity
  8
PV
390
0
  6
CONTINUOUS
 62
     3
100
AcDbCircle
 10
-73.3
 20
-33.1
 30
0.0
 40
1.7
100
AcDbArc
 50
0.0
 51
180.0
  0
LINE
  5
4F0
100
AcDbEntity
  8
PV
390
0
  6
CONTINUOUS
 62
     3
100
AcDbLine
 10
-75.0
 20
43.5
 30
0.0
 11
-75.6
 21
43.5
 31
0.0
  0
LINE
  5
4F1
100
AcDbEntity
  8
PV
390
0
  6
CONTINUOUS
 62
     3
100
AcDbLine
 10
-71.6
 20
33.1
 30
0.0
 11
-71.6
 21
40.8
 31
0.0
  0
LINE
  5
4F2
100
AcDbEntity
  8
PV
390
0
  6
CONTINUOUS
 62
     3
100
AcDbLine
 10
-68.2
 20
40.8
 30
0.0
 11
-68.2
 21
33.1
 31
0.0
  0
LINE
  5
4F3
100
AcDbEntity
  8
PV
390
0
  6
CONTINUOUS
 62
     3
100
AcDbLine
 10
-64.8
 20
40.8
 30
0.0
 11
-64.8
 21
33.1
 31
0.0
  0
LINE
  5
4F4
100
AcDbEntity
  8
PV
390
0
  6
CONTINUOUS
 62
     3
100
AcDbLine
 10
-61.4
 20
40.8
 30
0.0
 11
-61.4
 21
33.1
 31
0.0
  0
LINE
  5
4F5
100
AcDbEntity
  8
PV
390
0
  6
CONTINUOUS
 62
     3
100
AcDbLine
 10
-58.0
 20
40.8
 30
0.0
 11
-58.0
 21
33.1
 31
0.0
  0
LINE
  5
4F6
100
AcDbEntity
  8
PV
390
0
  6
CONTINUOUS
 62
     3
100
AcDbLine
 10
-54.6
 20
40.8
 30
0.0
 11
-54.6
 21
33.1
 31
0.0
  0
LINE
  5
4F7
100
AcDbEntity
  8
PV
390
0
  6
PHANTOM
 62
   110
100
AcDbLine
 10
-59.7
 20
31.4
 30
0.0
 11
4.013527
 21
31.4
 31
0.0
  0
LINE
  5
4F8
100
AcDbEntity
  8
PV
390
0
  6
PHANTOM
 62
   110
100
AcDbLine
 10
-56.3
 20
42.5
 30
0.0
 11
5.970757
 21
42.5
 31
0.0
  0
ARC
  5
4F9
100
AcDbEntity
  8
PV
390
0
  6
CONTINUOUS
 62
     3
100
AcDbCircle
 10
-73.3
 20
33.1
 30
0.0
 40
1.7
100
AcDbArc
 50
180.0
 51
0.0
  0
ARC
  5
4FA
100
AcDbEntity
  8
PV
390
0
  6
CONTINUOUS
 62
     3
100
AcDbCircle
 10
-69.9
 20
40.8
 30
0.0
 40
1.7
100
AcDbArc
 50
0.0
 51
180.0
  0
ARC
  5
4FB
100
AcDbEntity
  8
PV
390
0
  6
CONTINUOUS
 62
     3
100
AcDbCircle
 10
-66.5
 20
33.1
 30
0.0
 40
1.7
100
AcDbArc
 50
180.0
 51
0.0
  0
ARC
  5
4FC
100
AcDbEntity
  8
PV
390
0
  6
CONTINUOUS
 62
     3
100
AcDbCircle
 10
-63.1
 20
40.8
 30
0.0
 40
1.7
100
AcDbArc
 50
0.0
 51
180.0
  0
ARC
  5
4FD
100
AcDbEntity
  8
PV
390
0
  6
CONTINUOUS
 62
     3
100
AcDbCircle
 10
-59.7
 20
33.1
 30
0.0
 40
1.7
100
AcDbArc
 50
180.0
 51
0.0
  0
ARC
  5
4FE
100
AcDbEntity
  8
PV
390
0
  6
CONTINUOUS
 62
     3
100
AcDbCircle
 10
-56.3
 20
40.8
 30
0.0
 40
1.7
100
AcDbArc
 50
0.0
 51
180.0
  0
LINE
  5
4FF
100
AcDbEntity
  8
PV
390
0
  6
CENTER
 62
   110
100
AcDbLine
 10
-160.0
 20
0.0
 30
0.0
 11
160.0
 21
0.0
 31
0.0
  0
LINE
  5
500
100
AcDbEntity
  8
PV
390
0
  6
CONTINUOUS
 62
     3
100
AcDbLine
 10
-149.200001
 20
56.75
 30
0.0
 11
-133.299997
 21
56.75
 31
0.0
  0
LINE
  5
501
100
AcDbEntity
  8
PV
390
0
  6
CONTINUOUS
 62
     3
100
AcDbLine
 10
-149.200001
 20
-56.75
 30
0.0
 11
-133.299999
 21
-56.75
 31
0.0
  0
LINE
  5
502
100
AcDbEntity
  8
PV
390
0
  6
CONTINUOUS
 62
     3
100
AcDbLine
 10
-149.200002
 20
-56.750007
 30
0.0
 11
-150.000002
 21
-55.950007
 31
0.0
  0
LINE
  5
503
100
AcDbEntity
  8
PV
390
0
  6
CONTINUOUS
 62
     3
100
AcDbLine
 10
-149.99997
 20
55.949975
 30
0.0
 11
-149.199973
 21
56.749972
 31
0.0
  0
LINE
  5
504
100
AcDbEntity
  8
PV
390
0
  6
CONTINUOUS
 62
     3
100
AcDbLine
 10
-150.0
 20
-41.849998
 30
0.0
 11
-132.5
 21
-41.849998
 31
0.0
  0
LINE
  5
505
100
AcDbEntity
  8
PV
390
0
  6
CONTINUOUS
 62
     3
100
AcDbLine
 10
-150.0
 20
-50.349998
 30
0.0
 11
-132.5
 21
-50.349998
 31
0.0
  0
LINE
  5
506
100
AcDbEntity
  8
PV
390
0
  6
CONTINUOUS
 62
     3
100
AcDbLine
 10
-150.0
 20
41.849998
 30
0.0
 11
-132.5
 21
41.849998
 31
0.0
  0
LINE
  5
507
100
AcDbEntity
  8
PV
390
0
  6
CONTINUOUS
 62
     3
100
AcDbLine
 10
-150.0
 20
50.349998
 30
0.0
 11
-132.5
 21
50.349998
 31
0.0
  0
LINE
  5
508
100
AcDbEntity
  8
PV
390
0
  6
CONTINUOUS
 62
     3
100
AcDbLine
 10
-143.0
 20
-31.9
 30
0.0
 11
-143.0
 21
31.9
 31
0.0
  0
LINE
  5
509
100
AcDbEntity
  8
PV
390
0
  6
CONTINUOUS
 62
     3
100
AcDbLine
 10
-148.799999
 20
-31.9
 30
0.0
 11
-144.5
 21
-31.9
 31
0.0
  0
LINE
  5
50A
100
AcDbEntity
  8
PV
390
0
  6
CONTINUOUS
 62
     3
100
AcDbLine
 10
-148.799999
 20
31.9
 30
0.0
 11
-144.5
 21
31.9
 31
0.0
  0
LINE
  5
50B
100
AcDbEntity
  8
PV
390
0
  6
CONTINUOUS
 62
     3
100
AcDbLine
 10
-144.5
 20
-30.75
 30
0.0
 11
-143.0
 21
-30.75
 31
0.0
  0
LINE
  5
50C
100
AcDbEntity
  8
PV
390
0
  6
CONTINUOUS
 62
     3
100
AcDbLine
 10
-144.5
 20
30.75
 30
0.0
 11
-143.0
 21
30.75
 31
0.0
  0
LINE
  5
50D
100
AcDbEntity
  8
PV
390
0
  6
CONTINUOUS
 62
     3
100
AcDbLine
 10
-142.9
 20
-31.9
 30
0.0
 11
-132.5
 21
-31.9
 31
0.0
  0
LINE
  5
50E
100
AcDbEntity
  8
PV
390
0
  6
CONTINUOUS
 62
     3
100
AcDbLine
 10
-143.0
 20
31.9
 30
0.0
 11
-132.5
 21
31.9
 31
0.0
  0
LINE
  5
50F
100
AcDbEntity
  8
PV
390
0
  6
CONTINUOUS
 62
     3
100
AcDbLine
 10
-132.499984
 20
55.95002
 30
0.0
 11
-133.299982
 21
56.750022
 31
0.0
  0
LINE
  5
510
100
AcDbEntity
  8
PV
390
0
  6
CONTINUOUS
 62
     3
100
AcDbLine
 10
-133.299997
 20
-56.749994
 30
0.0
 11
-132.499997
 21
-55.949994
 31
0.0
  0
LINE
  5
511
100
AcDbEntity
  8
PV
390
0
  6
CENTER
 62
   110
100
AcDbLine
 10
-153.0
 20
-46.099998
 30
0.0
 11
-129.5
 21
-46.099998
 31
0.0
  0
LINE
  5
512
100
AcDbEntity
  8
PV
390
0
  6
CENTER
 62
   110
100
AcDbLine
 10
-153.0
 20
46.099998
 30
0.0
 11
-129.5
 21
46.099998
 31
0.0
  0
LINE
  5
513
100
AcDbEntity
  8
PV
390
0
  6
CONTINUOUS
 62
     3
100
AcDbLine
 10
-149.400005
 20
-38.600002
 30
0.0
 11
-148.539397
 21
-40.964496
 31
0.0
  0
LINE
  5
514
100
AcDbEntity
  8
PV
390
0
  6
CONTINUOUS
 62
     3
100
AcDbLine
 10
-149.399999
 20
-38.600008
 30
0.0
 11
-148.8
 21
-38.547514
 31
0.0
  0
LINE
  5
515
100
AcDbEntity
  8
PV
390
0
  6
CONTINUOUS
 62
     3
100
AcDbLine
 10
-149.400005
 20
38.600002
 30
0.0
 11
-148.539397
 21
40.964496
 31
0.0
  0
LINE
  5
516
100
AcDbEntity
  8
PV
390
0
  6
CONTINUOUS
 62
     3
100
AcDbLine
 10
-149.399999
 20
38.600008
 30
0.0
 11
-148.8
 21
38.547514
 31
0.0
  0
LINE
  5
517
100
AcDbEntity
  8
PV
390
0
  6
CONTINUOUS
 62
     3
100
AcDbLine
 10
-150.0
 20
-55.950001
 30
0.0
 11
-150.0
 21
55.950001
 31
0.0
  0
LINE
  5
518
100
AcDbEntity
  8
PV
390
0
  6
CONTINUOUS
 62
     3
100
AcDbLine
 10
-148.799999
 20
-38.547508
 30
0.0
 11
-148.799999
 21
38.547508
 31
0.0
  0
LINE
  5
519
100
AcDbEntity
  8
PV
390
0
  6
CONTINUOUS
 62
     3
100
AcDbLine
 10
-132.5
 20
-55.950001
 30
0.0
 11
-132.5
 21
-31.75
 31
0.0
  0
LINE
  5
51A
100
AcDbEntity
  8
PV
390
0
  6
CONTINUOUS
 62
     3
100
AcDbLine
 10
-150.0
 20
-41.299999
 30
0.0
 11
-148.774319
 21
-41.299999
 31
0.0
  0
LINE
  5
51B
100
AcDbEntity
  8
PV
390
0
  6
CONTINUOUS
 62
     3
100
AcDbLine
 10
-150.0
 20
41.299999
 30
0.0
 11
-148.774319
 21
41.299999
 31
0.0
  0
LINE
  5
51C
100
AcDbEntity
  8
PV
390
0
  6
CONTINUOUS
 62
     3
100
AcDbLine
 10
-149.400005
 20
-38.600002
 30
0.0
 11
-149.400005
 21
38.600002
 31
0.0
  0
LINE
  5
51D
100
AcDbEntity
  8
PV
390
0
  6
CONTINUOUS
 62
     3
100
AcDbLine
 10
-143.0
 20
31.75
 30
0.0
 11
-80.0
 21
31.75
 31
0.0
  0
LINE
  5
51E
100
AcDbEntity
  8
PV
390
0
  6
CONTINUOUS
 62
     3
100
AcDbLine
 10
-143.0
 20
29.75
 30
0.0
 11
-75.0
 21
29.75
 31
0.0
  0
LINE
  5
51F
100
AcDbEntity
  8
PV
390
0
  6
CONTINUOUS
 62
     3
100
AcDbLine
 10
-78.0
 20
33.75
 30
0.0
 11
-78.0
 21
39.343078
 31
0.0
  0
LINE
  5
520
100
AcDbEntity
  8
PV
390
0
  6
CONTINUOUS
 62
     3
100
AcDbLine
 10
-75.6
 20
43.5
 30
0.0
 11
-78.0
 21
39.343078
 31
0.0
  0
LINE
  5
521
100
AcDbEntity
  8
PV
390
0
  6
CONTINUOUS
 62
     3
100
AcDbLine
 10
-143.0
 20
-31.75
 30
0.0
 11
-80.0
 21
-31.75
 31
0.0
  0
LINE
  5
522
100
AcDbEntity
  8
PV
390
0
  6
CONTINUOUS
 62
     3
100
AcDbLine
 10
-143.0
 20
-29.75
 30
0.0
 11
-75.0
 21
-29.75
 31
0.0
  0
LINE
  5
523
100
AcDbEntity
  8
PV
390
0
  6
CONTINUOUS
 62
     3
100
AcDbLine
 10
-75.0
 20
43.5
 30
0.0
 11
-75.0
 21
-43.5
 31
0.0
  0
LINE
  5
524
100
AcDbEntity
  8
PV
390
0
  6
CONTINUOUS
 62
     3
100
AcDbLine
 10
-78.0
 20
-33.75
 30
0.0
 11
-78.0
 21
-39.343078
 31
0.0
  0
LINE
  5
525
100
AcDbEntity
  8
PV
390
0
  6
CONTINUOUS
 62
     3
100
AcDbLine
 10
-132.5
 20
31.75
 30
0.0
 11
-132.5
 21
55.950001
 31
0.0
  0
LINE
  5
526
100
AcDbEntity
  8
PV
390
0
  6
CENTER
 62
   110
100
AcDbLine
 10
-6.543819
 20
-45.75
 30
0.0
 11
9.590099
 21
45.75
 31
0.0
  0
LINE
  5
527
100
AcDbEntity
  8
PV
390
0
  6
CENTER
 62
   110
100
AcDbLine
 10
-9.590099
 20
-45.75
 30
0.0
 11
6.543819
 21
45.75
 31
0.0
  0
LINE
  5
528
100
AcDbEntity
  8
PV
390
0
  6
CONTINUOUS
 62
     3
100
AcDbLine
 10
-144.5
 20
-31.9
 30
0.0
 11
-144.5
 21
31.9
 31
0.0
  0
ARC
  5
529
100
AcDbEntity
  8
PV
390
0
  6
CONTINUOUS
 62
     3
100
AcDbCircle
 10
-148.774319
 20
-41.049999
 30
0.0
 40
0.25
100
AcDbArc
 50
269.999982
 51
20.000247
  0
ARC
  5
52A
100
AcDbEntity
  8
PV
390
0
  6
CONTINUOUS
 62
     3
100
AcDbCircle
 10
-148.774319
 20
41.049999
 30
0.0
 40
0.25
100
AcDbArc
 50
339.999681
 51
89.999946
  0
ARC
  5
52B
100
AcDbEntity
  8
PV
390
0
  6
CONTINUOUS
 62
     3
100
AcDbCircle
 10
-80.0
 20
33.75
 30
0.0
 40
2.0
100
AcDbArc
 50
270.0
 51
0.0
  0
ARC
  5
52C
100
AcDbEntity
  8
PV
390
0
  6
CONTINUOUS
 62
     3
100
AcDbCircle
 10
-80.0
 20
-33.75
 30
0.0
 40
2.0
100
AcDbArc
 50
0.0
 51
90.0
  0
ENDSEC
  0
SECTION
  2
OBJECTS
  0
DICTIONARY
  5
19
100
AcDbDictionary
280
     0
281
     1
  3
ACAD_GROUP
350
1A
  3
ACAD_MLINESTYLE
350
1B
  3
ACAD_LAYOUT
350
1E
  3
ACAD_PLOTSETTINGS
350
22
  3
ACAD_PLOTSTYLENAME
350
1F
  0
DICTIONARY
  5
1A
102
{ACAD_REACTORS
330
19
102
}
100
AcDbDictionary
280
     0
281
     1
  0
DICTIONARY
  5
1B
102
{ACAD_REACTORS
330
19
102
}
100
AcDbDictionary
280
     0
281
     1
  3
Standard
350
1C
  0
MLINESTYLE
  5
1C
102
{ACAD_REACTORS
330
1B
102
}
100
AcDbMlineStyle
  2
Standard
 70
     0
  3

 62
     0
 51
90.0
 52
90.0
 71
     2
 49
0.5
 62
   256
  6
ByLayer
 49
-0.5
 62
   256
  6
ByLayer
  0
ACDBDICTIONARYWDFLT
  5
1F
102
{ACAD_REACTORS
330
19
102
}
100
AcDbDictionary
281
     1
  3
Normal
350
1D
100
AcDbDictionaryWithDefault
340
1D
  0
ACDBPLACEHOLDER
  5
1D
102
{ACAD_REACTORS
330
1F
102
}
  0
LAYOUT
  5
20
102
{ACAD_REACTORS
330
1E
102
}
100
AcDbPlotSettings
  1

  2

  4

  6

 40
0.0
 41
0.0
 42
0.0
 43
0.0
 44
0.0
 45
0.0
 46
0.0
 47
0.0
 48
0.0
 49
0.0
140
0.0
141
0.0
142
1.0
143
1.0
 70
  1024
 72
     0
 73
     0
 74
     0
  7

 75
     0
147
1.0
148
0.0
149
0.0
100
AcDbLayout
  1
Model
 70
     0
 71
     0
 10
0.0
 20
0.0
 11
0.0
 21
0.0
 12
0.0
 22
0.0
 32
0.0
 14
0.0
 24
0.0
 34
0.0
 15
0.0
 25
0.0
 35
0.0
146
0.0
 13
0.0
 23
0.0
 33
0.0
 16
0.0
 26
0.0
 36
0.0
 17
0.0
 27
0.0
 37
0.0
 76
     0
330
A
331
0
345
0
346
0
  0
LAYOUT
  5
21
102
{ACAD_REACTORS
330
1E
102
}
100
AcDbPlotSettings
  1

  2

  4

  6

 40
0.0
 41
0.0
 42
0.0
 43
0.0
 44
0.0
 45
0.0
 46
0.0
 47
0.0
 48
0.0
 49
0.0
140
0.0
141
0.0
142
1.0
143
1.0
 70
     0
 72
     0
 73
     0
 74
     0
  7

 75
     0
147
1.0
148
0.0
149
0.0
100
AcDbLayout
  1
Layout1
 70
     0
 71
     0
 10
0.0
 20
0.0
 11
0.0
 21
0.0
 12
0.0
 22
0.0
 32
0.0
 14
0.0
 24
0.0
 34
0.0
 15
0.0
 25
0.0
 35
0.0
146
0.0
 13
0.0
 23
0.0
 33
0.0
 16
0.0
 26
0.0
 36
0.0
 17
0.0
 27
0.0
 37
0.0
 76
     0
330
B
331
0
345
0
346
0
  0
DICTIONARY
  5
1E
102
{ACAD_REACTORS
330
19
102
}
100
AcDbDictionary
280
     0
281
     1
  3
Layout1
350
21
  3
Model
350
20
  0
DICTIONARY
  5
22
102
{ACAD_REACTORS
330
19
102
}
100
AcDbDictionary
280
     0
281
     1
  0
ENDSEC
  0
EOF
