  0
SECTION
  2
HEADER
  9
$ACADVER
  1
AC1009
  9
$DWGCODEPAGE
  3
dos932
  9
$INSBASE
 10
0.0
 20
0.0
 30
0.0
  9
$EXTMIN
 10
-11.0
 20
-76.5
 30
0.0
  9
$EXTMAX
 10
101.0
 20
76.5
 30
0.0
  9
$LIMMIN
 10
-11.0
 20
-76.5
  9
$LIMMAX
 10
101.0
 20
76.5
  9
$ORTHOMODE
 70
               0
  9
$REGENMODE
 70
               1
  9
$FILLMODE
 70
               1
  9
$QTEXTMODE
 70
               0
  9
$MIRRTEXT
 70
               1
  9
$DRAGMODE
 70
               2
  9
$LTSCALE
 40
1.0
  9
$OSMODE
 70
               0
  9
$ATTMODE
 70
               1
  9
$TEXTSIZE
 40
3.2000000476837158
  9
$TRACEWID
 40
0.05
  9
$TEXTSTYLE
  7
MX_NOTE_STANDARD
  9
$CLAYER
  8
LY_3
  9
$CELTYPE
  6
CONTINUOUS
  9
$CECOLOR
 62
             256
  9
$DIMSCALE
 40
1.0
  9
$DIMASZ
 40
2.5
  9
$DIMEXO
 40
2.0
  9
$DIMDLI
 40
3.75
  9
$DIMRND
 40
0.0
  9
$DIMDLE
 40
0.0
  9
$DIMEXE
 40
1.0
  9
$DIMTP
 40
0.0
  9
$DIMTM
 40
0.0
  9
$DIMTXT
 40
4.1655998229980469
  9
$DIMCEN
 40
2.5
  9
$DIMTSZ
 40
0.0
  9
$DIMTOL
 70
               0
  9
$DIMLIM
 70
               0
  9
$DIMTIH
 70
               0
  9
$DIMTOH
 70
               0
  9
$DIMSE1
 70
               0
  9
$DIMSE2
 70
               0
  9
$DIMTAD
 70
               1
  9
$DIMZIN
 70
               8
  9
$DIMBLK
  1

  9
$DIMASO
 70
               1
  9
$DIMSHO
 70
               1
  9
$DIMPOST
  1

  9
$DIMAPOST
  1

  9
$DIMALT
 70
               0
  9
$DIMALTD
 70
               4
  9
$DIMALTF
 40
0.03937007874016
  9
$DIMLFAC
 40
1.0
  9
$DIMTOFL
 70
               1
  9
$DIMTVP
 40
0.0
  9
$DIMTIX
 70
               0
  9
$DIMSOXD
 70
               0
  9
$DIMSAH
 70
               1
  9
$DIMBLK1
  1
_OPEN30
  9
$DIMBLK2
  1
_OPEN30
  9
$DIMSTYLE
  2
MXDIMSTYLE
  9
$DIMCLRD
 70
               0
  9
$DIMCLRE
 70
               0
  9
$DIMCLRT
 70
               0
  9
$DIMTFAC
 40
1.0
  9
$DIMGAP
 40
1.0
  9
$LUNITS
 70
               2
  9
$LUPREC
 70
               4
  9
$AXISMODE
 70
               0
  9
$AXISUNIT
 10
0.0
 20
0.0
  9
$SKETCHINC
 40
0.1
  9
$FILLETRAD
 40
0.0
  9
$AUNITS
 70
               0
  9
$AUPREC
 70
               0
  9
$MENU
  1
acad
  9
$ELEVATION
 40
0.0
  9
$PELEVATION
 40
0.0
  9
$THICKNESS
 40
0.0
  9
$LIMCHECK
 70
               0
  9
$BLIPMODE
 70
               1
  9
$CHAMFERA
 40
0.0
  9
$CHAMFERB
 40
0.0
  9
$SKPOLY
 70
               0
  9
$TDCREATE
 40
2455163.482291667
  9
$TDUPDATE
 40
2455163.482291667
  9
$TDINDWG
 40
0.0000000000
  9
$TDUSRTIMER
 40
0.0000000000
  9
$USRTIMER
 70
               1
  9
$ANGBASE
 50
0.0
  9
$ANGDIR
 70
               0
  9
$PDMODE
 70
               0
  9
$PDSIZE
 40
0.0
  9
$PLINEWID
 40
0.0
  9
$COORDS
 70
               1
  9
$SPLFRAME
 70
               0
  9
$SPLINETYPE
 70
               6
  9
$SPLINESEGS
 70
               8
  9
$ATTDIA
 70
               0
  9
$ATTREQ
 70
               1
  9
$HANDLING
 70
               1
  9
$HANDSEED
  5
6A
  9
$SURFTAB1
 70
               6
  9
$SURFTAB2
 70
               6
  9
$SURFTYPE
 70
               6
  9
$SURFU
 70
               6
  9
$SURFV
 70
               6
  9
$UCSNAME
  2

  9
$UCSORG
 10
0.0
 20
0.0
 30
0.0
  9
$UCSXDIR
 10
1.0
 20
0.0
 30
0.0
  9
$UCSYDIR
 10
0.0
 20
1.0
 30
0.0
  9
$PUCSNAME
  2

  9
$PUCSORG
 10
0.0
 20
0.0
 30
0.0
  9
$PUCSXDIR
 10
1.0
 20
0.0
 30
0.0
  9
$PUCSYDIR
 10
0.0
 20
1.0
 30
0.0
  9
$USERI1
 70
               0
  9
$USERI2
 70
               0
  9
$USERI3
 70
               0
  9
$USERI4
 70
               0
  9
$USERI5
 70
               0
  9
$USERR1
 40
0.0
  9
$USERR2
 40
0.0
  9
$USERR3
 40
0.0
  9
$USERR4
 40
0.0
  9
$USERR5
 40
0.0
  9
$WORLDVIEW
 70
               1
  9
$SHADEDGE
 70
               3
  9
$SHADEDIF
 70
              70
  9
$TILEMODE
 70
               1
  9
$MAXACTVP
 70
              16
  9
$PINSBASE
 10
0.0
 20
0.0
 30
0.0
  9
$PLIMCHECK
 70
               0
  9
$PEXTMIN
 10
1.0000000000000000E+20
 20
1.0000000000000000E+20
 30
1.0000000000000000E+20
  9
$PEXTMAX
 10
-1.0000000000000000E+20
 20
-1.0000000000000000E+20
 30
-1.0000000000000000E+20
  9
$PLIMMIN
 10
0.0
 20
0.0
  9
$PLIMMAX
 10
12.0
 20
9.0
  9
$UNITMODE
 70
               0
  9
$VISRETAIN
 70
               0
  9
$PLINEGEN
 70
               1
  9
$PSLTSCALE
 70
               0
  9
$TREEDEPTH
 70
            3020
  0
ENDSEC
  0
SECTION
  2
TABLES
  0
TABLE
  2
VPORT
 70
               1
  0
VPORT
  2
*ACTIVE
 70
               0
 10
0.0
 20
0.0
 11
1.0
 21
1.0
 12
45.0
 22
0.0
 13
0.0
 23
0.0
 14
1.0
 24
1.0
 15
0.0
 25
0.0
 16
0.0
 26
0.0
 36
1.0
 17
0.0
 27
0.0
 37
0.0
 40
154.53
 41
1.7320508075688772
 42
50.0
 43
0.0
 44
0.0
 50
0.0
 51
0.0
 71
               0
 72
             100
 73
               1
 74
               1
 75
               0
 76
               0
 77
               0
 78
               0
  0
ENDTAB
  0
TABLE
  2
LTYPE
 70
               3
  0
LTYPE
  2
CONTINUOUS
 70
              64
  3
Solid line
 72
              65
 73
               0
 40
0.0
  0
LTYPE
  2
CENTER
 70
              64
  3
Center ____ _ ____ _ ____ _ ____ _ ____ _ ____
 72
              65
 73
               4
 40
50.800000000000004
 49
31.75
 49
-6.3499999999999996
 49
6.3499999999999996
 49
-6.3499999999999996
  0
LTYPE
  2
PHANTOM
 70
              64
  3
Phantom ______  __  __  ______  __  __  ______
 72
              65
 73
               6
 40
63.500000000000007
 49
31.75
 49
-6.3499999999999996
 49
6.3499999999999996
 49
-6.3499999999999996
 49
6.3499999999999996
 49
-6.3499999999999996
  0
ENDTAB
  0
TABLE
  2
LAYER
 70
               3
  0
LAYER
  2
0
 70
               0
 62
               7
  6
CONTINUOUS
  0
LAYER
  2
DEFPOINTS
 70
               0
 62
               7
  6
CONTINUOUS
  0
LAYER
  2
LY_3
 70
               0
 62
               7
  6
CONTINUOUS
  0
ENDTAB
  0
TABLE
  2
STYLE
 70
               1
  0
STYLE
  2
MX_NOTE_STANDARD
 70
               0
 40
0.0
 41
1.0
 50
0.0
 71
               0
 42
3.2000000476837158
  3
txt.shx
  4
extfont.shx
  0
ENDTAB
  0
TABLE
  2
VIEW
 70
               0
  0
ENDTAB
  0
TABLE
  2
UCS
 70
               0
  0
ENDTAB
  0
TABLE
  2
APPID
 70
               1
  0
APPID
  2
ACAD
 70
               0
  0
ENDTAB
  0
TABLE
  2
DIMSTYLE
 70
               1
  0
DIMSTYLE
  2
MXDIMSTYLE
 70
               0
  3

  4

  5

  6
_OPEN30
  7
_OPEN30
 40
1.0
 41
2.5
 42
2.0
 43
3.75
 44
1.0
 45
0.0
 46
0.0
 47
0.0
 48
0.0
 71
               0
 72
               0
 73
               0
 74
               0
 75
               0
 76
               0
 77
               1
 78
               8
140
4.1655998229980469
141
2.5
142
0.0
143
0.03937007874016
144
1.0
145
0.0
146
1.0
147
1.0
170
               0
171
               4
172
               1
173
               1
174
               0
175
               0
176
               0
177
               0
178
               0
  0
ENDTAB
  0
ENDSEC
  0
SECTION
  2
BLOCKS
  0
BLOCK
  8
0
  6
BYBLOCK
 62
               0
  5
20
  2
_OPEN30
 70
               2
 10
0.0
 20
0.0
 30
0.0
  3
_OPEN30
  0
LINE
  8
0
  6
BYBLOCK
 62
               0
  5
21
 10
-1.0
 20
0.267949
 30
0.0
 11
0.0
 21
0.0
 31
0.0
  0
LINE
  8
0
  6
BYBLOCK
 62
               0
  5
22
 10
0.0
 20
0.0
 30
0.0
 11
-1.0
 21
-0.267949
 31
0.0
  0
LINE
  8
0
  6
BYBLOCK
 62
               0
  5
23
 10
0.0
 20
0.0
 30
0.0
 11
-1.0
 21
0.0
 31
0.0
  0
ENDBLK
  8
0
  6
BYBLOCK
 62
               0
  5
24
  0
ENDSEC
  0
SECTION
  2
ENTITIES
  0
LINE
  8
LY_3
  6
CENTER
 62
             110
  5
26
 10
-11.0
 20
0.0
 30
0.0
 11
101.0
 21
0.0
 31
0.0
  0
LINE
  8
LY_3
  6
CONTINUOUS
 62
               3
  5
27
 10
90.0
 20
76.200000000000003
 30
0.0
 11
90.0
 21
-76.200000000000003
 31
0.0
  0
LINE
  8
LY_3
  6
CONTINUOUS
 62
               3
  5
28
 10
70.0
 20
74.5
 30
0.0
 11
70.0
 21
70.799999999999997
 31
0.0
  0
LINE
  8
LY_3
  6
CONTINUOUS
 62
               3
  5
29
 10
72.0
 20
76.200000000000003
 30
0.0
 11
90.0
 21
76.200000000000003
 31
0.0
  0
LINE
  8
LY_3
  6
CONTINUOUS
 62
               3
  5
2A
 10
83.0
 20
73.200000000000003
 30
0.0
 11
90.0
 21
73.200000000000003
 31
0.0
  0
LINE
  8
LY_3
  6
CONTINUOUS
 62
               3
  5
2B
 10
73.5
 20
67.299999999999997
 30
0.0
 11
83.0
 21
67.299999999999997
 31
0.0
  0
LINE
  8
LY_3
  6
CONTINUOUS
 62
               3
  5
2C
 10
83.0
 20
73.200000000000003
 30
0.0
 11
83.0
 21
-73.200000000000003
 31
0.0
  0
LINE
  8
LY_3
  6
CONTINUOUS
 62
               3
  5
2D
 10
66.0
 20
74.5
 30
0.0
 11
66.0
 21
69.349999999999994
 31
0.0
  0
LINE
  8
LY_3
  6
CONTINUOUS
 62
               3
  5
2E
 10
62.0
 20
74.5
 30
0.0
 11
62.0
 21
69.349999999999994
 31
0.0
  0
LINE
  8
LY_3
  6
CONTINUOUS
 62
               3
  5
2F
 10
58.0
 20
74.5
 30
0.0
 11
58.0
 21
69.349999999999994
 31
0.0
  0
LINE
  8
LY_3
  6
PHANTOM
 62
             110
  5
31
 10
30.0
 20
76.5
 30
0.0
 11
60.0
 21
76.5
 31
0.0
  0
LINE
  8
LY_3
  6
PHANTOM
 62
             110
  5
32
 10
26.0
 20
67.349999999999994
 30
0.0
 11
64.0
 21
67.349999999999994
 31
0.0
  0
LINE
  8
LY_3
  6
CONTINUOUS
 62
               3
  5
33
 10
66.0
 20
-74.5
 30
0.0
 11
66.0
 21
-69.349999999999994
 31
0.0
  0
LINE
  8
LY_3
  6
CONTINUOUS
 62
               3
  5
34
 10
72.0
 20
-76.200000000000003
 30
0.0
 11
90.0
 21
-76.200000000000003
 31
0.0
  0
LINE
  8
LY_3
  6
CONTINUOUS
 62
               3
  5
35
 10
62.0
 20
-74.5
 30
0.0
 11
62.0
 21
-69.349999999999994
 31
0.0
  0
LINE
  8
LY_3
  6
PHANTOM
 62
             110
  5
36
 10
26.0
 20
-67.349999999999994
 30
0.0
 11
64.0
 21
-67.349999999999994
 31
0.0
  0
LINE
  8
LY_3
  6
CONTINUOUS
 62
               3
  5
37
 10
58.0
 20
-74.5
 30
0.0
 11
58.0
 21
-69.349999999999994
 31
0.0
  0
LINE
  8
LY_3
  6
PHANTOM
 62
             110
  5
38
 10
30.0
 20
-76.5
 30
0.0
 11
60.0
 21
-76.5
 31
0.0
  0
LINE
  8
LY_3
  6
CONTINUOUS
 62
               3
  5
39
 10
0.0
 20
76.200000000000003
 30
0.0
 11
0.0
 21
-76.200000000000003
 31
0.0
  0
LINE
  8
LY_3
  6
CONTINUOUS
 62
               3
  5
3A
 10
20.0
 20
74.5
 30
0.0
 11
20.0
 21
70.799999999999997
 31
0.0
  0
LINE
  8
LY_3
  6
CONTINUOUS
 62
               3
  5
3B
 10
18.0
 20
76.200000000000003
 30
0.0
 11
0.0
 21
76.200000000000003
 31
0.0
  0
LINE
  8
LY_3
  6
CONTINUOUS
 62
               3
  5
3C
 10
7.0
 20
73.200000000000003
 30
0.0
 11
0.0
 21
73.200000000000003
 31
0.0
  0
LINE
  8
LY_3
  6
CONTINUOUS
 62
               3
  5
3D
 10
16.5
 20
67.299999999999997
 30
0.0
 11
7.0
 21
67.299999999999997
 31
0.0
  0
LINE
  8
LY_3
  6
CONTINUOUS
 62
               3
  5
3E
 10
7.0
 20
73.200000000000003
 30
0.0
 11
7.0
 21
-73.200000000000003
 31
0.0
  0
LINE
  8
LY_3
  6
CONTINUOUS
 62
               3
  5
3F
 10
7.0
 20
67.799999999999997
 30
0.0
 11
8.5
 21
68.666025000000005
 31
0.0
  0
LINE
  8
LY_3
  6
CONTINUOUS
 62
               3
  5
40
 10
24.0
 20
74.5
 30
0.0
 11
24.0
 21
69.349999999999994
 31
0.0
  0
LINE
  8
LY_3
  6
CONTINUOUS
 62
               3
  5
41
 10
28.0
 20
74.5
 30
0.0
 11
28.0
 21
69.349999999999994
 31
0.0
  0
LINE
  8
LY_3
  6
CONTINUOUS
 62
               3
  5
42
 10
32.0
 20
74.5
 30
0.0
 11
32.0
 21
69.349999999999994
 31
0.0
  0
LINE
  8
LY_3
  6
CONTINUOUS
 62
               3
  5
43
 10
24.0
 20
-74.5
 30
0.0
 11
24.0
 21
-69.349999999999994
 31
0.0
  0
LINE
  8
LY_3
  6
CONTINUOUS
 62
               3
  5
44
 10
18.0
 20
-76.200000000000003
 30
0.0
 11
0.0
 21
-76.200000000000003
 31
0.0
  0
LINE
  8
LY_3
  6
CONTINUOUS
 62
               3
  5
45
 10
28.0
 20
-74.5
 30
0.0
 11
28.0
 21
-69.349999999999994
 31
0.0
  0
LINE
  8
LY_3
  6
CONTINUOUS
 62
               3
  5
46
 10
32.0
 20
-74.5
 30
0.0
 11
32.0
 21
-69.349999999999994
 31
0.0
  0
LINE
  8
LY_3
  6
CONTINUOUS
 62
               3
  5
47
 10
7.0
 20
-73.200000000000003
 30
0.0
 11
0.0
 21
-73.200000000000003
 31
0.0
  0
LINE
  8
LY_3
  6
CONTINUOUS
 62
               3
  5
48
 10
16.5
 20
-67.299999999999997
 30
0.0
 11
7.0
 21
-67.299999999999997
 31
0.0
  0
LINE
  8
LY_3
  6
CONTINUOUS
 62
               3
  5
49
 10
73.5
 20
-67.299999999999997
 30
0.0
 11
83.0
 21
-67.299999999999997
 31
0.0
  0
LINE
  8
LY_3
  6
CONTINUOUS
 62
               3
  5
4A
 10
83.0
 20
-73.200000000000003
 30
0.0
 11
90.0
 21
-73.200000000000003
 31
0.0
  0
LINE
  8
LY_3
  6
CONTINUOUS
 62
               3
  5
4B
 10
7.0
 20
69.532050999999996
 30
0.0
 11
8.5
 21
68.666025000000005
 31
0.0
  0
LINE
  8
LY_3
  6
CONTINUOUS
 62
               3
  5
4C
 10
7.0
 20
-67.799999999999997
 30
0.0
 11
8.5
 21
-68.666025000000005
 31
0.0
  0
LINE
  8
LY_3
  6
CONTINUOUS
 62
               3
  5
4D
 10
7.0
 20
-69.532050999999996
 30
0.0
 11
8.5
 21
-68.666025000000005
 31
0.0
  0
LINE
  8
LY_3
  6
CONTINUOUS
 62
               3
  5
4E
 10
83.0
 20
-67.799999999999997
 30
0.0
 11
81.5
 21
-68.666025000000005
 31
0.0
  0
LINE
  8
LY_3
  6
CONTINUOUS
 62
               3
  5
4F
 10
83.0
 20
-69.532050999999996
 30
0.0
 11
81.5
 21
-68.666025000000005
 31
0.0
  0
LINE
  8
LY_3
  6
CONTINUOUS
 62
               3
  5
50
 10
83.0
 20
67.799999999999997
 30
0.0
 11
81.5
 21
68.666025000000005
 31
0.0
  0
LINE
  8
LY_3
  6
CONTINUOUS
 62
               3
  5
51
 10
83.0
 20
69.532050999999996
 30
0.0
 11
81.5
 21
68.666025000000005
 31
0.0
  0
LINE
  8
LY_3
  6
CONTINUOUS
 62
               3
  5
52
 10
20.0
 20
-70.799999999999997
 30
0.0
 11
20.0
 21
-74.5
 31
0.0
  0
LINE
  8
LY_3
  6
CONTINUOUS
 62
               3
  5
53
 10
70.0
 20
-70.799999999999997
 30
0.0
 11
70.0
 21
-74.5
 31
0.0
  0
ARC
  8
LY_3
  6
CONTINUOUS
 62
               3
  5
54
 10
72.0
 20
74.200000000000003
 30
0.0
 40
2.0
 50
90.0
 51
180.0
  0
ARC
  8
LY_3
  6
CONTINUOUS
 62
               3
  5
55
 10
68.0
 20
74.5
 30
0.0
 40
2.0
 50
0.0
 51
180.0
  0
ARC
  8
LY_3
  6
CONTINUOUS
 62
               3
  5
56
 10
64.0
 20
69.349999999999994
 30
0.0
 40
2.0
 50
180.0
 51
0.0
  0
ARC
  8
LY_3
  6
CONTINUOUS
 62
               3
  5
57
 10
60.0
 20
74.5
 30
0.0
 40
2.0
 50
0.0
 51
180.0
  0
ARC
  8
LY_3
  6
CONTINUOUS
 62
               3
  5
58
 10
60.0
 20
-74.5
 30
0.0
 40
2.0
 50
180.0
 51
0.0
  0
ARC
  8
LY_3
  6
CONTINUOUS
 62
               3
  5
59
 10
64.0
 20
-69.349999999999994
 30
0.0
 40
2.0
 50
0.0
 51
180.0
  0
ARC
  8
LY_3
  6
CONTINUOUS
 62
               3
  5
5A
 10
68.0
 20
-74.5
 30
0.0
 40
2.0
 50
180.0
 51
0.0
  0
ARC
  8
LY_3
  6
CONTINUOUS
 62
               3
  5
5B
 10
72.0
 20
-74.200000000000003
 30
0.0
 40
2.0
 50
180.0
 51
270.0
  0
ARC
  8
LY_3
  6
CONTINUOUS
 62
               3
  5
5C
 10
18.0
 20
74.200000000000003
 30
0.0
 40
2.0
 50
0.0
 51
90.0
  0
ARC
  8
LY_3
  6
CONTINUOUS
 62
               3
  5
5D
 10
22.0
 20
74.5
 30
0.0
 40
2.0
 50
0.0
 51
180.0
  0
ARC
  8
LY_3
  6
CONTINUOUS
 62
               3
  5
5E
 10
26.0
 20
69.349999999999994
 30
0.0
 40
2.0
 50
180.0
 51
0.0
  0
ARC
  8
LY_3
  6
CONTINUOUS
 62
               3
  5
5F
 10
30.0
 20
74.5
 30
0.0
 40
2.0
 50
0.0
 51
180.0
  0
ARC
  8
LY_3
  6
CONTINUOUS
 62
               3
  5
60
 10
30.0
 20
-74.5
 30
0.0
 40
2.0
 50
180.0
 51
0.0
  0
ARC
  8
LY_3
  6
CONTINUOUS
 62
               3
  5
61
 10
26.0
 20
-69.349999999999994
 30
0.0
 40
2.0
 50
0.0
 51
180.0
  0
ARC
  8
LY_3
  6
CONTINUOUS
 62
               3
  5
62
 10
22.0
 20
-74.5
 30
0.0
 40
2.0
 50
180.0
 51
0.0
  0
ARC
  8
LY_3
  6
CONTINUOUS
 62
               3
  5
63
 10
18.0
 20
-74.200000000000003
 30
0.0
 40
2.0
 50
270.0
 51
0.0
  0
ARC
  8
LY_3
  6
CONTINUOUS
 62
               3
  5
64
 10
16.5
 20
70.799999999999997
 30
0.0
 40
3.5
 50
270.0
 51
0.0
  0
ARC
  8
LY_3
  6
CONTINUOUS
 62
               3
  5
65
 10
16.5
 20
-70.799999999999997
 30
0.0
 40
3.5
 50
0.0
 51
90.0
  0
ARC
  8
LY_3
  6
CONTINUOUS
 62
               3
  5
66
 10
73.5
 20
-70.799999999999997
 30
0.0
 40
3.5
 50
90.0
 51
180.0
  0
ARC
  8
LY_3
  6
CONTINUOUS
 62
               3
  5
67
 10
73.5
 20
70.799999999999997
 30
0.0
 40
3.5
 50
180.0
 51
270.0
  0
ENDSEC
  0
EOF
