  0
SECTION
  2
HEADER
  9
$ACADVER
  1
AC1009
  9
$DWGCODEPAGE
  3
dos932
  9
$INSBASE
 10
0.0
 20
0.0
 30
0.0
  9
$EXTMIN
 10
-245.598726
 20
-108.0
 30
0.0
  9
$EXTMAX
 10
124.087479
 20
108.0
 30
0.0
  9
$LIMMIN
 10
-245.598726
 20
-108.0
  9
$LIMMAX
 10
124.087479
 20
108.0
  9
$ORTHOMODE
 70
               0
  9
$REGENMODE
 70
               1
  9
$FILLMODE
 70
               1
  9
$QTEXTMODE
 70
               0
  9
$MIRRTEXT
 70
               1
  9
$DRAGMODE
 70
               2
  9
$LTSCALE
 40
1.0
  9
$OSMODE
 70
               0
  9
$ATTMODE
 70
               1
  9
$TEXTSIZE
 40
3.2000000476837158
  9
$TRACEWID
 40
0.05
  9
$TEXTSTYLE
  7
MX_NOTE_STANDARD
  9
$CLAYER
  8
LY_3
  9
$CELTYPE
  6
CONTINUOUS
  9
$CECOLOR
 62
             256
  9
$DIMSCALE
 40
1.0
  9
$DIMASZ
 40
2.5
  9
$DIMEXO
 40
2.0
  9
$DIMDLI
 40
3.75
  9
$DIMRND
 40
0.0
  9
$DIMDLE
 40
0.0
  9
$DIMEXE
 40
1.0
  9
$DIMTP
 40
0.0
  9
$DIMTM
 40
0.0
  9
$DIMTXT
 40
4.1655998229980469
  9
$DIMCEN
 40
2.5
  9
$DIMTSZ
 40
0.0
  9
$DIMTOL
 70
               0
  9
$DIMLIM
 70
               0
  9
$DIMTIH
 70
               0
  9
$DIMTOH
 70
               0
  9
$DIMSE1
 70
               0
  9
$DIMSE2
 70
               0
  9
$DIMTAD
 70
               1
  9
$DIMZIN
 70
               8
  9
$DIMBLK
  1

  9
$DIMASO
 70
               1
  9
$DIMSHO
 70
               1
  9
$DIMPOST
  1

  9
$DIMAPOST
  1

  9
$DIMALT
 70
               0
  9
$DIMALTD
 70
               4
  9
$DIMALTF
 40
0.03937007874016
  9
$DIMLFAC
 40
1.0
  9
$DIMTOFL
 70
               1
  9
$DIMTVP
 40
0.0
  9
$DIMTIX
 70
               0
  9
$DIMSOXD
 70
               0
  9
$DIMSAH
 70
               1
  9
$DIMBLK1
  1
_OPEN30
  9
$DIMBLK2
  1
_OPEN30
  9
$DIMSTYLE
  2
MXDIMSTYLE
  9
$DIMCLRD
 70
               0
  9
$DIMCLRE
 70
               0
  9
$DIMCLRT
 70
               0
  9
$DIMTFAC
 40
1.0
  9
$DIMGAP
 40
1.0
  9
$LUNITS
 70
               2
  9
$LUPREC
 70
               4
  9
$AXISMODE
 70
               0
  9
$AXISUNIT
 10
0.0
 20
0.0
  9
$SKETCHINC
 40
0.1
  9
$FILLETRAD
 40
0.0
  9
$AUNITS
 70
               0
  9
$AUPREC
 70
               0
  9
$MENU
  1
acad
  9
$ELEVATION
 40
0.0
  9
$PELEVATION
 40
0.0
  9
$THICKNESS
 40
0.0
  9
$LIMCHECK
 70
               0
  9
$BLIPMODE
 70
               1
  9
$CHAMFERA
 40
0.0
  9
$CHAMFERB
 40
0.0
  9
$SKPOLY
 70
               0
  9
$TDCREATE
 40
2455163.478090278
  9
$TDUPDATE
 40
2455163.478090278
  9
$TDINDWG
 40
0.0000000000
  9
$TDUSRTIMER
 40
0.0000000000
  9
$USRTIMER
 70
               1
  9
$ANGBASE
 50
0.0
  9
$ANGDIR
 70
               0
  9
$PDMODE
 70
               0
  9
$PDSIZE
 40
0.0
  9
$PLINEWID
 40
0.0
  9
$COORDS
 70
               1
  9
$SPLFRAME
 70
               0
  9
$SPLINETYPE
 70
               6
  9
$SPLINESEGS
 70
               8
  9
$ATTDIA
 70
               0
  9
$ATTREQ
 70
               1
  9
$HANDLING
 70
               1
  9
$HANDSEED
  5
CC
  9
$SURFTAB1
 70
               6
  9
$SURFTAB2
 70
               6
  9
$SURFTYPE
 70
               6
  9
$SURFU
 70
               6
  9
$SURFV
 70
               6
  9
$UCSNAME
  2

  9
$UCSORG
 10
0.0
 20
0.0
 30
0.0
  9
$UCSXDIR
 10
1.0
 20
0.0
 30
0.0
  9
$UCSYDIR
 10
0.0
 20
1.0
 30
0.0
  9
$PUCSNAME
  2

  9
$PUCSORG
 10
0.0
 20
0.0
 30
0.0
  9
$PUCSXDIR
 10
1.0
 20
0.0
 30
0.0
  9
$PUCSYDIR
 10
0.0
 20
1.0
 30
0.0
  9
$USERI1
 70
               0
  9
$USERI2
 70
               0
  9
$USERI3
 70
               0
  9
$USERI4
 70
               0
  9
$USERI5
 70
               0
  9
$USERR1
 40
0.0
  9
$USERR2
 40
0.0
  9
$USERR3
 40
0.0
  9
$USERR4
 40
0.0
  9
$USERR5
 40
0.0
  9
$WORLDVIEW
 70
               1
  9
$SHADEDGE
 70
               3
  9
$SHADEDIF
 70
              70
  9
$TILEMODE
 70
               1
  9
$MAXACTVP
 70
              16
  9
$PINSBASE
 10
0.0
 20
0.0
 30
0.0
  9
$PLIMCHECK
 70
               0
  9
$PEXTMIN
 10
1.0000000000000000E+20
 20
1.0000000000000000E+20
 30
1.0000000000000000E+20
  9
$PEXTMAX
 10
-1.0000000000000000E+20
 20
-1.0000000000000000E+20
 30
-1.0000000000000000E+20
  9
$PLIMMIN
 10
0.0
 20
0.0
  9
$PLIMMAX
 10
12.0
 20
9.0
  9
$UNITMODE
 70
               0
  9
$VISRETAIN
 70
               0
  9
$PLINEGEN
 70
               1
  9
$PSLTSCALE
 70
               0
  9
$TREEDEPTH
 70
            3020
  0
ENDSEC
  0
SECTION
  2
TABLES
  0
TABLE
  2
VPORT
 70
               1
  0
VPORT
  2
*ACTIVE
 70
               0
 10
0.0
 20
0.0
 11
1.0
 21
1.0
 12
-60.755623500000013
 22
0.0
 13
0.0
 23
0.0
 14
1.0
 24
1.0
 15
0.0
 25
0.0
 16
0.0
 26
0.0
 36
1.0
 17
0.0
 27
0.0
 37
0.0
 40
218.16
 41
1.7320508075688772
 42
50.0
 43
0.0
 44
0.0
 50
0.0
 51
0.0
 71
               0
 72
             100
 73
               1
 74
               1
 75
               0
 76
               0
 77
               0
 78
               0
  0
ENDTAB
  0
TABLE
  2
LTYPE
 70
               3
  0
LTYPE
  2
CONTINUOUS
 70
              64
  3
Solid line
 72
              65
 73
               0
 40
0.0
  0
LTYPE
  2
CENTER
 70
              64
  3
Center ____ _ ____ _ ____ _ ____ _ ____ _ ____
 72
              65
 73
               4
 40
50.800000000000004
 49
31.75
 49
-6.3499999999999996
 49
6.3499999999999996
 49
-6.3499999999999996
  0
LTYPE
  2
PHANTOM
 70
              64
  3
Phantom ______  __  __  ______  __  __  ______
 72
              65
 73
               6
 40
63.500000000000007
 49
31.75
 49
-6.3499999999999996
 49
6.3499999999999996
 49
-6.3499999999999996
 49
6.3499999999999996
 49
-6.3499999999999996
  0
ENDTAB
  0
TABLE
  2
LAYER
 70
               3
  0
LAYER
  2
0
 70
               0
 62
               7
  6
CONTINUOUS
  0
LAYER
  2
DEFPOINTS
 70
               0
 62
               7
  6
CONTINUOUS
  0
LAYER
  2
LY_3
 70
               0
 62
               7
  6
CONTINUOUS
  0
ENDTAB
  0
TABLE
  2
STYLE
 70
               1
  0
STYLE
  2
MX_NOTE_STANDARD
 70
               0
 40
0.0
 41
1.0
 50
0.0
 71
               0
 42
3.2000000476837158
  3
txt.shx
  4
extfont.shx
  0
ENDTAB
  0
TABLE
  2
VIEW
 70
               0
  0
ENDTAB
  0
TABLE
  2
UCS
 70
               0
  0
ENDTAB
  0
TABLE
  2
APPID
 70
               1
  0
APPID
  2
ACAD
 70
               0
  0
ENDTAB
  0
TABLE
  2
DIMSTYLE
 70
               1
  0
DIMSTYLE
  2
MXDIMSTYLE
 70
               0
  3

  4

  5

  6
_OPEN30
  7
_OPEN30
 40
1.0
 41
2.5
 42
2.0
 43
3.75
 44
1.0
 45
0.0
 46
0.0
 47
0.0
 48
0.0
 71
               0
 72
               0
 73
               0
 74
               0
 75
               0
 76
               0
 77
               1
 78
               8
140
4.1655998229980469
141
2.5
142
0.0
143
0.03937007874016
144
1.0
145
0.0
146
1.0
147
1.0
170
               0
171
               4
172
               1
173
               1
174
               0
175
               0
176
               0
177
               0
178
               0
  0
ENDTAB
  0
ENDSEC
  0
SECTION
  2
BLOCKS
  0
BLOCK
  8
0
  6
BYBLOCK
 62
               0
  5
20
  2
_OPEN30
 70
               2
 10
0.0
 20
0.0
 30
0.0
  3
_OPEN30
  0
LINE
  8
0
  6
BYBLOCK
 62
               0
  5
21
 10
-1.0
 20
0.267949
 30
0.0
 11
0.0
 21
0.0
 31
0.0
  0
LINE
  8
0
  6
BYBLOCK
 62
               0
  5
22
 10
0.0
 20
0.0
 30
0.0
 11
-1.0
 21
-0.267949
 31
0.0
  0
LINE
  8
0
  6
BYBLOCK
 62
               0
  5
23
 10
0.0
 20
0.0
 30
0.0
 11
-1.0
 21
0.0
 31
0.0
  0
ENDBLK
  8
0
  6
BYBLOCK
 62
               0
  5
24
  0
ENDSEC
  0
SECTION
  2
ENTITIES
  0
LINE
  8
LY_3
  6
CONTINUOUS
 62
               3
  5
25
 10
0.799999
 20
101.199997
 30
0.0
 11
21.599999
 21
101.199997
 31
0.0
  0
LINE
  8
LY_3
  6
CONTINUOUS
 62
               3
  5
26
 10
0.800007
 20
-101.199997
 30
0.0
 11
21.599992
 21
-101.199997
 31
0.0
  0
LINE
  8
LY_3
  6
CONTINUOUS
 62
               3
  5
27
 10
22.399999000000001
 20
100.400002
 30
0.0
 11
22.399999000000001
 21
71.349999999999994
 31
0.0
  0
LINE
  8
LY_3
  6
CONTINUOUS
 62
               3
  5
28
 10
0.599998
 20
83.050003000000004
 30
0.0
 11
0.599998
 21
-83.050003000000004
 31
0.0
  0
LINE
  8
LY_3
  6
CONTINUOUS
 62
               3
  5
29
 10
-0.000014
 20
-100.400026
 30
0.0
 11
0.799993
 21
-101.200029
 31
0.0
  0
LINE
  8
LY_3
  6
CONTINUOUS
 62
               3
  5
2A
 10
22.399954999999999
 20
-100.399925
 30
0.0
 11
21.599937000000001
 21
-101.199939
 31
0.0
  0
LINE
  8
LY_3
  6
CONTINUOUS
 62
               3
  5
2B
 10
0.799949
 20
101.200067
 30
0.0
 11
-0.000045
 21
100.40007300000001
 31
0.0
  0
LINE
  8
LY_3
  6
CONTINUOUS
 62
               3
  5
2C
 10
21.599986999999999
 20
101.19999199999999
 30
0.0
 11
22.399982999999999
 21
100.39999899999999
 31
0.0
  0
LINE
  8
LY_3
  6
CONTINUOUS
 62
               3
  5
2D
 10
0.0
 20
94.800003000000004
 30
0.0
 11
22.399999000000001
 21
94.800003000000004
 31
0.0
  0
LINE
  8
LY_3
  6
CONTINUOUS
 62
               3
  5
2E
 10
0.0
 20
86.300003000000004
 30
0.0
 11
22.399999000000001
 21
86.300003000000004
 31
0.0
  0
LINE
  8
LY_3
  6
CONTINUOUS
 62
               3
  5
2F
 10
0.59999
 20
-83.050006999999994
 30
0.0
 11
1.4605969999999999
 21
-85.414501000000001
 31
0.0
  0
LINE
  8
LY_3
  6
CONTINUOUS
 62
               3
  5
30
 10
0.599997
 20
-83.050040999999993
 30
0.0
 11
1.2000010000000001
 21
-82.997551000000001
 31
0.0
  0
LINE
  8
LY_3
  6
CONTINUOUS
 62
               3
  5
31
 10
0.59999
 20
83.050006999999994
 30
0.0
 11
1.4605969999999999
 21
85.414501000000001
 31
0.0
  0
LINE
  8
LY_3
  6
CONTINUOUS
 62
               3
  5
32
 10
0.599997
 20
83.050040999999993
 30
0.0
 11
1.2000010000000001
 21
82.997551000000001
 31
0.0
  0
LINE
  8
LY_3
  6
CENTER
 62
             110
  5
34
 10
-4.8000030000000002
 20
90.550003000000004
 30
0.0
 11
27.199998999999998
 21
90.550003000000004
 31
0.0
  0
LINE
  8
LY_3
  6
CENTER
 62
             110
  5
35
 10
-4.8000030000000002
 20
-90.550003000000004
 30
0.0
 11
27.199998999999998
 21
-90.550003000000004
 31
0.0
  0
LINE
  8
LY_3
  6
CONTINUOUS
 62
               3
  5
36
 10
0.0
 20
100.400002
 30
0.0
 11
0.0
 21
-100.39999400000001
 31
0.0
  0
LINE
  8
LY_3
  6
CONTINUOUS
 62
               3
  5
37
 10
1.199997
 20
82.997512999999998
 30
0.0
 11
1.199997
 21
-82.997512999999998
 31
0.0
  0
LINE
  8
LY_3
  6
CONTINUOUS
 62
               3
  5
38
 10
0.0
 20
-85.75
 30
0.0
 11
1.2256769999999999
 21
-85.75
 31
0.0
  0
LINE
  8
LY_3
  6
CONTINUOUS
 62
               3
  5
39
 10
0.0
 20
85.75
 30
0.0
 11
1.2256769999999999
 21
85.75
 31
0.0
  0
LINE
  8
LY_3
  6
PHANTOM
 62
             110
  5
3B
 10
40.399999000000001
 20
76.5
 30
0.0
 11
74.599998999999997
 21
76.5
 31
0.0
  0
LINE
  8
LY_3
  6
CONTINUOUS
 62
               3
  5
3C
 10
26.399999000000001
 20
74.5
 30
0.0
 11
26.399999000000001
 21
69.349999999999994
 31
0.0
  0
LINE
  8
LY_3
  6
CONTINUOUS
 62
               3
  5
3D
 10
30.399999000000001
 20
74.5
 30
0.0
 11
30.399999000000001
 21
69.349999999999994
 31
0.0
  0
LINE
  8
LY_3
  6
CONTINUOUS
 62
               3
  5
3E
 10
34.399999000000001
 20
74.5
 30
0.0
 11
34.399999000000001
 21
69.349999999999994
 31
0.0
  0
LINE
  8
LY_3
  6
CONTINUOUS
 62
               3
  5
3F
 10
38.399999000000001
 20
74.5
 30
0.0
 11
38.399999000000001
 21
69.349999999999994
 31
0.0
  0
LINE
  8
LY_3
  6
CONTINUOUS
 62
               3
  5
40
 10
42.399999000000001
 20
74.5
 30
0.0
 11
42.399999000000001
 21
69.969690999999997
 31
0.0
  0
LINE
  8
LY_3
  6
PHANTOM
 62
             110
  5
41
 10
36.399999000000001
 20
67.349999999999994
 30
0.0
 11
78.599998999999997
 21
67.349999999999994
 31
0.0
  0
LINE
  8
LY_3
  6
CONTINUOUS
 62
               3
  5
42
 10
22.399999000000001
 20
-71.349999999999994
 30
0.0
 11
22.399999000000001
 21
-100.39999400000001
 31
0.0
  0
LINE
  8
LY_3
  6
CONTINUOUS
 62
               3
  5
43
 10
42.399999000000001
 20
-74.5
 30
0.0
 11
42.399999000000001
 21
-69.969690999999997
 31
0.0
  0
LINE
  8
LY_3
  6
CONTINUOUS
 62
               3
  5
44
 10
38.399999000000001
 20
-74.5
 30
0.0
 11
38.399999000000001
 21
-69.349999999999994
 31
0.0
  0
LINE
  8
LY_3
  6
CONTINUOUS
 62
               3
  5
45
 10
34.399999000000001
 20
-74.5
 30
0.0
 11
34.399999000000001
 21
-69.349999999999994
 31
0.0
  0
LINE
  8
LY_3
  6
CONTINUOUS
 62
               3
  5
46
 10
30.399999000000001
 20
-74.5
 30
0.0
 11
30.399999000000001
 21
-69.349999999999994
 31
0.0
  0
LINE
  8
LY_3
  6
CONTINUOUS
 62
               3
  5
47
 10
26.399999000000001
 20
-74.5
 30
0.0
 11
26.399999000000001
 21
-69.349999999999994
 31
0.0
  0
LINE
  8
LY_3
  6
PHANTOM
 62
             110
  5
48
 10
36.399999000000001
 20
-67.349999999999994
 30
0.0
 11
78.599998999999997
 21
-67.349999999999994
 31
0.0
  0
LINE
  8
LY_3
  6
PHANTOM
 62
             110
  5
49
 10
40.399999000000001
 20
-76.5
 30
0.0
 11
74.599998999999997
 21
-76.5
 31
0.0
  0
LINE
  8
LY_3
  6
CONTINUOUS
 62
               3
  5
4A
 10
114.19999799999999
 20
101.199997
 30
0.0
 11
93.399997999999997
 21
101.199997
 31
0.0
  0
LINE
  8
LY_3
  6
CONTINUOUS
 62
               3
  5
4B
 10
114.19999
 20
-101.199997
 30
0.0
 11
93.400006000000005
 21
-101.199997
 31
0.0
  0
LINE
  8
LY_3
  6
CONTINUOUS
 62
               3
  5
4C
 10
92.599998999999997
 20
100.400002
 30
0.0
 11
92.599998999999997
 21
71.349999999999994
 31
0.0
  0
LINE
  8
LY_3
  6
CONTINUOUS
 62
               3
  5
4D
 10
114.39999899999999
 20
83.050003000000004
 30
0.0
 11
114.39999899999999
 21
-83.050003000000004
 31
0.0
  0
LINE
  8
LY_3
  6
CONTINUOUS
 62
               3
  5
4E
 10
115.000012
 20
-100.400026
 30
0.0
 11
114.20000400000001
 21
-101.200029
 31
0.0
  0
LINE
  8
LY_3
  6
CONTINUOUS
 62
               3
  5
4F
 10
92.600042999999999
 20
-100.399925
 30
0.0
 11
93.400059999999996
 21
-101.199939
 31
0.0
  0
LINE
  8
LY_3
  6
CONTINUOUS
 62
               3
  5
50
 10
114.200048
 20
101.200067
 30
0.0
 11
115.00004199999999
 21
100.40007300000001
 31
0.0
  0
LINE
  8
LY_3
  6
CONTINUOUS
 62
               3
  5
51
 10
93.400009999999995
 20
101.19999199999999
 30
0.0
 11
92.600014999999999
 21
100.39999899999999
 31
0.0
  0
LINE
  8
LY_3
  6
CONTINUOUS
 62
               3
  5
52
 10
114.99999699999999
 20
94.800003000000004
 30
0.0
 11
92.599998999999997
 21
94.800003000000004
 31
0.0
  0
LINE
  8
LY_3
  6
CONTINUOUS
 62
               3
  5
53
 10
114.99999699999999
 20
86.300003000000004
 30
0.0
 11
92.599998999999997
 21
86.300003000000004
 31
0.0
  0
LINE
  8
LY_3
  6
CONTINUOUS
 62
               3
  5
54
 10
114.400008
 20
-83.050006999999994
 30
0.0
 11
113.5394
 21
-85.414501000000001
 31
0.0
  0
LINE
  8
LY_3
  6
CONTINUOUS
 62
               3
  5
55
 10
114.40000000000001
 20
-83.050040999999993
 30
0.0
 11
113.799997
 21
-82.997551000000001
 31
0.0
  0
LINE
  8
LY_3
  6
CONTINUOUS
 62
               3
  5
56
 10
114.400008
 20
83.050006999999994
 30
0.0
 11
113.5394
 21
85.414501000000001
 31
0.0
  0
LINE
  8
LY_3
  6
CONTINUOUS
 62
               3
  5
57
 10
114.40000000000001
 20
83.050040999999993
 30
0.0
 11
113.799997
 21
82.997551000000001
 31
0.0
  0
LINE
  8
LY_3
  6
CENTER
 62
             110
  5
58
 10
119.8
 20
90.550003000000004
 30
0.0
 11
87.799998000000002
 21
90.550003000000004
 31
0.0
  0
LINE
  8
LY_3
  6
CENTER
 62
             110
  5
59
 10
119.8
 20
-90.550003000000004
 30
0.0
 11
87.799998000000002
 21
-90.550003000000004
 31
0.0
  0
LINE
  8
LY_3
  6
CONTINUOUS
 62
               3
  5
5A
 10
114.99999699999999
 20
100.400002
 30
0.0
 11
114.99999699999999
 21
-100.39999400000001
 31
0.0
  0
LINE
  8
LY_3
  6
CONTINUOUS
 62
               3
  5
5B
 10
113.8
 20
82.997512999999998
 30
0.0
 11
113.8
 21
-82.997512999999998
 31
0.0
  0
LINE
  8
LY_3
  6
CONTINUOUS
 62
               3
  5
5C
 10
114.99999699999999
 20
-85.75
 30
0.0
 11
113.77432
 21
-85.75
 31
0.0
  0
LINE
  8
LY_3
  6
CONTINUOUS
 62
               3
  5
5D
 10
114.99999699999999
 20
85.75
 30
0.0
 11
113.77432
 21
85.75
 31
0.0
  0
LINE
  8
LY_3
  6
CONTINUOUS
 62
               3
  5
5E
 10
88.599998999999997
 20
74.5
 30
0.0
 11
88.599998999999997
 21
69.349999999999994
 31
0.0
  0
LINE
  8
LY_3
  6
CONTINUOUS
 62
               3
  5
5F
 10
84.599998999999997
 20
74.5
 30
0.0
 11
84.599998999999997
 21
69.349999999999994
 31
0.0
  0
LINE
  8
LY_3
  6
CONTINUOUS
 62
               3
  5
60
 10
80.599998999999997
 20
74.5
 30
0.0
 11
80.599998999999997
 21
69.349999999999994
 31
0.0
  0
LINE
  8
LY_3
  6
CONTINUOUS
 62
               3
  5
61
 10
76.599998999999997
 20
74.5
 30
0.0
 11
76.599998999999997
 21
69.349999999999994
 31
0.0
  0
LINE
  8
LY_3
  6
CONTINUOUS
 62
               3
  5
62
 10
72.599998999999997
 20
74.5
 30
0.0
 11
72.599998999999997
 21
69.969690999999997
 31
0.0
  0
LINE
  8
LY_3
  6
CONTINUOUS
 62
               3
  5
63
 10
92.599998999999997
 20
-71.349999999999994
 30
0.0
 11
92.599998999999997
 21
-100.39999400000001
 31
0.0
  0
LINE
  8
LY_3
  6
CONTINUOUS
 62
               3
  5
64
 10
72.599998999999997
 20
-74.5
 30
0.0
 11
72.599998999999997
 21
-69.969690999999997
 31
0.0
  0
LINE
  8
LY_3
  6
CONTINUOUS
 62
               3
  5
65
 10
76.599998999999997
 20
-74.5
 30
0.0
 11
76.599998999999997
 21
-69.349999999999994
 31
0.0
  0
LINE
  8
LY_3
  6
CONTINUOUS
 62
               3
  5
66
 10
80.599998999999997
 20
-74.5
 30
0.0
 11
80.599998999999997
 21
-69.349999999999994
 31
0.0
  0
LINE
  8
LY_3
  6
CONTINUOUS
 62
               3
  5
67
 10
84.599998999999997
 20
-74.5
 30
0.0
 11
84.599998999999997
 21
-69.349999999999994
 31
0.0
  0
LINE
  8
LY_3
  6
CONTINUOUS
 62
               3
  5
68
 10
88.599998999999997
 20
-74.5
 30
0.0
 11
88.599998999999997
 21
-69.349999999999994
 31
0.0
  0
LINE
  8
LY_3
  6
CENTER
 62
             110
  5
69
 10
-245.598726
 20
0.0
 30
0.0
 11
-117.70807600000001
 21
0.0
 31
0.0
  0
LINE
  8
LY_3
  6
CENTER
 62
             110
  5
6A
 10
-135.0
 20
108.0
 30
0.0
 11
-135.0
 21
-108.0
 31
0.0
  0
LINE
  8
LY_3
  6
CENTER
 62
             110
  5
6B
 10
-150.72943000000001
 20
99.312082000000004
 30
0.0
 11
-147.600751
 21
79.558313999999996
 31
0.0
  0
LINE
  8
LY_3
  6
CENTER
 62
             110
  5
6C
 10
-180.64874699999999
 20
89.590716999999998
 30
0.0
 11
-171.56893700000001
 21
71.770585999999994
 31
0.0
  0
LINE
  8
LY_3
  6
CENTER
 62
             110
  5
6D
 10
-206.09958900000001
 20
71.099599999999995
 30
0.0
 11
-191.95745400000001
 21
56.957464000000002
 31
0.0
  0
LINE
  8
LY_3
  6
CENTER
 62
             110
  5
6E
 10
-224.590711
 20
45.648758999999998
 30
0.0
 11
-206.77058099999999
 21
36.568947999999999
 31
0.0
  0
LINE
  8
LY_3
  6
CENTER
 62
             110
  5
6F
 10
-234.312071
 20
15.729501000000001
 30
0.0
 11
-214.55830499999999
 21
12.600809
 31
0.0
  0
LINE
  8
LY_3
  6
CENTER
 62
             110
  5
70
 10
-234.31207599999999
 20
-15.729471
 30
0.0
 11
-214.55830900000001
 21
-12.600784000000001
 31
0.0
  0
LINE
  8
LY_3
  6
CENTER
 62
             110
  5
71
 10
-224.59072399999999
 20
-45.648733
 30
0.0
 11
-206.77059199999999
 21
-36.568925999999998
 31
0.0
  0
LINE
  8
LY_3
  6
CENTER
 62
             110
  5
72
 10
-206.09960899999999
 20
-71.099580000000003
 30
0.0
 11
-191.957471
 21
-56.957445999999997
 31
0.0
  0
LINE
  8
LY_3
  6
CENTER
 62
             110
  5
73
 10
-180.64876899999999
 20
-89.590705999999997
 30
0.0
 11
-171.56895599999999
 21
-71.770577000000003
 31
0.0
  0
LINE
  8
LY_3
  6
CENTER
 62
             110
  5
74
 10
-150.729511
 20
-99.312068999999994
 30
0.0
 11
-147.600818
 21
-79.558302999999995
 31
0.0
  0
LINE
  8
LY_3
  6
CENTER
 62
             110
  5
75
 10
-119.27054
 20
-99.312077000000002
 30
0.0
 11
-122.399224
 21
-79.558310000000006
 31
0.0
  0
LINE
  8
LY_3
  6
CENTER
 62
             110
  5
76
 10
-119.27045699999999
 20
99.312064000000007
 30
0.0
 11
-122.399157
 21
79.558299000000005
 31
0.0
  0
LINE
  8
LY_3
  6
CONTINUOUS
 62
               3
  5
77
 10
-136.0
 20
101.195053
 30
0.0
 11
-136.0
 21
85.744170999999994
 31
0.0
  0
LINE
  8
LY_3
  6
CONTINUOUS
 62
               3
  5
78
 10
-134.0
 20
101.195053
 30
0.0
 11
-134.0
 21
85.744170999999994
 31
0.0
  0
LINE
  8
LY_3
  6
CONTINUOUS
 62
               3
  5
79
 10
-136.0
 20
-85.744170999999994
 30
0.0
 11
-136.0
 21
-101.195053
 31
0.0
  0
LINE
  8
LY_3
  6
CONTINUOUS
 62
               3
  5
7A
 10
-134.0
 20
-85.744170999999994
 30
0.0
 11
-134.0
 21
-101.195053
 31
0.0
  0
LINE
  8
LY_3
  6
CENTER
 62
             110
  5
7B
 10
-15.918899
 20
0.0
 30
0.0
 11
124.087479
 21
0.0
 31
0.0
  0
LINE
  8
LY_3
  6
CONTINUOUS
 62
               3
  5
7C
 10
10.399998999999999
 20
67.349999999999994
 30
0.0
 11
18.399999000000001
 21
67.349999999999994
 31
0.0
  0
LINE
  8
LY_3
  6
CONTINUOUS
 62
               3
  5
7D
 10
1.199997
 20
76.450000000000003
 30
0.0
 11
9.6999999999999993
 21
76.450000000000003
 31
0.0
  0
LINE
  8
LY_3
  6
CONTINUOUS
 62
               3
  5
7E
 10
10.399998999999999
 20
67.849999999999994
 30
0.0
 11
11.899998999999999
 21
68.716025000000002
 31
0.0
  0
LINE
  8
LY_3
  6
CONTINUOUS
 62
               3
  5
7F
 10
10.399998999999999
 20
69.582051000000007
 30
0.0
 11
11.899998999999999
 21
68.716025000000002
 31
0.0
  0
LINE
  8
LY_3
  6
CONTINUOUS
 62
               3
  5
80
 10
10.399998999999999
 20
71.0
 30
0.0
 11
10.399998999999999
 21
69.582051000000007
 31
0.0
  0
LINE
  8
LY_3
  6
CONTINUOUS
 62
               3
  5
81
 10
9.6999999999999993
 20
76.450000000000003
 30
0.0
 11
9.6999999999999993
 21
-76.450000000000003
 31
0.0
  0
LINE
  8
LY_3
  6
CONTINUOUS
 62
               3
  5
82
 10
10.399998999999999
 20
67.849999999999994
 30
0.0
 11
10.399998999999999
 21
-67.849999999999994
 31
0.0
  0
LINE
  8
LY_3
  6
CONTINUOUS
 62
               3
  5
83
 10
10.399998999999999
 20
-67.349999999999994
 30
0.0
 11
18.399999000000001
 21
-67.349999999999994
 31
0.0
  0
LINE
  8
LY_3
  6
CONTINUOUS
 62
               3
  5
84
 10
1.199997
 20
-76.450000000000003
 30
0.0
 11
9.6999999999999993
 21
-76.450000000000003
 31
0.0
  0
LINE
  8
LY_3
  6
CONTINUOUS
 62
               3
  5
85
 10
10.399998999999999
 20
-67.849999999999994
 30
0.0
 11
11.899998999999999
 21
-68.716025000000002
 31
0.0
  0
LINE
  8
LY_3
  6
CONTINUOUS
 62
               3
  5
86
 10
10.399998999999999
 20
-69.582051000000007
 30
0.0
 11
11.899998999999999
 21
-68.716025000000002
 31
0.0
  0
LINE
  8
LY_3
  6
CONTINUOUS
 62
               3
  5
87
 10
10.399998999999999
 20
-71.0
 30
0.0
 11
10.399998999999999
 21
-69.582051000000007
 31
0.0
  0
LINE
  8
LY_3
  6
CONTINUOUS
 62
               3
  5
88
 10
104.599999
 20
67.349999999999994
 30
0.0
 11
96.599998999999997
 21
67.349999999999994
 31
0.0
  0
LINE
  8
LY_3
  6
CONTINUOUS
 62
               3
  5
89
 10
113.8
 20
76.450000000000003
 30
0.0
 11
105.299997
 21
76.450000000000003
 31
0.0
  0
LINE
  8
LY_3
  6
CONTINUOUS
 62
               3
  5
8A
 10
104.599999
 20
67.849999999999994
 30
0.0
 11
103.099999
 21
68.716025000000002
 31
0.0
  0
LINE
  8
LY_3
  6
CONTINUOUS
 62
               3
  5
8B
 10
104.599999
 20
69.582051000000007
 30
0.0
 11
103.099999
 21
68.716025000000002
 31
0.0
  0
LINE
  8
LY_3
  6
CONTINUOUS
 62
               3
  5
8C
 10
104.599999
 20
71.0
 30
0.0
 11
104.599999
 21
69.582051000000007
 31
0.0
  0
LINE
  8
LY_3
  6
CONTINUOUS
 62
               3
  5
8D
 10
105.299997
 20
76.450000000000003
 30
0.0
 11
105.299997
 21
-76.450000000000003
 31
0.0
  0
LINE
  8
LY_3
  6
CONTINUOUS
 62
               3
  5
8E
 10
104.599999
 20
67.849999999999994
 30
0.0
 11
104.599999
 21
-67.849999999999994
 31
0.0
  0
LINE
  8
LY_3
  6
CONTINUOUS
 62
               3
  5
8F
 10
104.599999
 20
-67.349999999999994
 30
0.0
 11
96.599998999999997
 21
-67.349999999999994
 31
0.0
  0
LINE
  8
LY_3
  6
CONTINUOUS
 62
               3
  5
90
 10
113.8
 20
-76.450000000000003
 30
0.0
 11
105.299997
 21
-76.450000000000003
 31
0.0
  0
LINE
  8
LY_3
  6
CONTINUOUS
 62
               3
  5
91
 10
104.599999
 20
-67.849999999999994
 30
0.0
 11
103.099999
 21
-68.716025000000002
 31
0.0
  0
LINE
  8
LY_3
  6
CONTINUOUS
 62
               3
  5
92
 10
104.599999
 20
-69.582051000000007
 30
0.0
 11
103.099999
 21
-68.716025000000002
 31
0.0
  0
LINE
  8
LY_3
  6
CONTINUOUS
 62
               3
  5
93
 10
104.599999
 20
-71.0
 30
0.0
 11
104.599999
 21
-69.582051000000007
 31
0.0
  0
LINE
  8
LY_3
  6
CONTINUOUS
 62
               3
  5
94
 10
104.599999
 20
71.0
 30
0.0
 11
105.299997
 21
71.0
 31
0.0
  0
LINE
  8
LY_3
  6
CONTINUOUS
 62
               3
  5
95
 10
104.599999
 20
-71.0
 30
0.0
 11
105.299997
 21
-71.0
 31
0.0
  0
LINE
  8
LY_3
  6
CONTINUOUS
 62
               3
  5
96
 10
10.399998999999999
 20
71.0
 30
0.0
 11
9.6999999999999993
 21
71.0
 31
0.0
  0
LINE
  8
LY_3
  6
CONTINUOUS
 62
               3
  5
97
 10
10.399998999999999
 20
-71.0
 30
0.0
 11
9.6999999999999993
 21
-71.0
 31
0.0
  0
ARC
  8
LY_3
  6
CONTINUOUS
 62
               3
  5
98
 10
1.2256769999999999
 20
85.5
 30
0.0
 40
0.25
 50
340.00057299999997
 51
90.000018000000026
  0
ARC
  8
LY_3
  6
CONTINUOUS
 62
               3
  5
99
 10
1.2256769999999999
 20
-85.5
 30
0.0
 40
0.25
 50
270.00005399999998
 51
19.999499000000007
  0
ARC
  8
LY_3
  6
CONTINUOUS
 62
               3
  5
9A
 10
24.399999000000001
 20
74.5
 30
0.0
 40
2.0
 50
0.0
 51
180.0
  0
ARC
  8
LY_3
  6
CONTINUOUS
 62
               3
  5
9B
 10
28.399999000000001
 20
69.349999999999994
 30
0.0
 40
2.0
 50
180.0
 51
0.0
  0
ARC
  8
LY_3
  6
CONTINUOUS
 62
               3
  5
9C
 10
32.399999000000001
 20
74.5
 30
0.0
 40
2.0
 50
0.0
 51
180.0
  0
ARC
  8
LY_3
  6
CONTINUOUS
 62
               3
  5
9D
 10
36.399999000000001
 20
69.349999999999994
 30
0.0
 40
2.0
 50
180.0
 51
0.0
  0
ARC
  8
LY_3
  6
CONTINUOUS
 62
               3
  5
9E
 10
40.399999000000001
 20
74.5
 30
0.0
 40
2.0
 50
0.0
 51
180.0
  0
ARC
  8
LY_3
  6
CONTINUOUS
 62
               3
  5
9F
 10
40.399999000000001
 20
-74.5
 30
0.0
 40
2.0
 50
180.0
 51
0.0
  0
ARC
  8
LY_3
  6
CONTINUOUS
 62
               3
  5
A0
 10
28.399999000000001
 20
-69.349999999999994
 30
0.0
 40
2.0
 50
0.0
 51
180.0
  0
ARC
  8
LY_3
  6
CONTINUOUS
 62
               3
  5
A1
 10
24.399999000000001
 20
-74.5
 30
0.0
 40
2.0
 50
180.0
 51
0.0
  0
ARC
  8
LY_3
  6
CONTINUOUS
 62
               3
  5
A2
 10
32.399999000000001
 20
-74.5
 30
0.0
 40
2.0
 50
180.0
 51
0.0
  0
ARC
  8
LY_3
  6
CONTINUOUS
 62
               3
  5
A3
 10
36.399999000000001
 20
-69.349999999999994
 30
0.0
 40
2.0
 50
0.0
 51
180.0
  0
ARC
  8
LY_3
  6
CONTINUOUS
 62
               3
  5
A4
 10
82.599998999999997
 20
-74.5
 30
0.0
 40
2.0
 50
180.0
 51
0.0
  0
ARC
  8
LY_3
  6
CONTINUOUS
 62
               3
  5
A5
 10
78.599998999999997
 20
-69.349999999999994
 30
0.0
 40
2.0
 50
0.0
 51
180.0
  0
ARC
  8
LY_3
  6
CONTINUOUS
 62
               3
  5
A6
 10
90.599998999999997
 20
-74.5
 30
0.0
 40
2.0
 50
180.0
 51
0.0
  0
ARC
  8
LY_3
  6
CONTINUOUS
 62
               3
  5
A7
 10
86.599998999999997
 20
-69.349999999999994
 30
0.0
 40
2.0
 50
0.0
 51
180.0
  0
ARC
  8
LY_3
  6
CONTINUOUS
 62
               3
  5
A8
 10
113.77432
 20
85.5
 30
0.0
 40
0.25
 50
89.999982000000003
 51
199.999427
  0
ARC
  8
LY_3
  6
CONTINUOUS
 62
               3
  5
A9
 10
113.77432
 20
-85.5
 30
0.0
 40
0.25
 50
160.00050100000001
 51
269.99994600000002
  0
ARC
  8
LY_3
  6
CONTINUOUS
 62
               3
  5
AA
 10
90.599998999999997
 20
74.5
 30
0.0
 40
2.0
 50
0.0
 51
180.0
  0
ARC
  8
LY_3
  6
CONTINUOUS
 62
               3
  5
AB
 10
86.599998999999997
 20
69.349999999999994
 30
0.0
 40
2.0
 50
180.0
 51
0.0
  0
ARC
  8
LY_3
  6
CONTINUOUS
 62
               3
  5
AC
 10
82.599998999999997
 20
74.5
 30
0.0
 40
2.0
 50
0.0
 51
180.0
  0
ARC
  8
LY_3
  6
CONTINUOUS
 62
               3
  5
AD
 10
78.599998999999997
 20
69.349999999999994
 30
0.0
 40
2.0
 50
180.0
 51
0.0
  0
ARC
  8
LY_3
  6
CONTINUOUS
 62
               3
  5
AE
 10
74.599998999999997
 20
74.5
 30
0.0
 40
2.0
 50
0.0
 51
180.0
  0
ARC
  8
LY_3
  6
CONTINUOUS
 62
               3
  5
AF
 10
74.599998999999997
 20
-74.5
 30
0.0
 40
2.0
 50
180.0
 51
0.0
  0
ARC
  8
LY_3
  6
CENTER
 62
             110
  5
B0
 10
-135.0
 20
0.0
 30
0.0
 40
90.550003000000004
 50
73.028728999999998
 51
285.20194500000008
  0
ARC
  8
LY_3
  6
CONTINUOUS
 62
               3
  5
B1
 10
-135.0
 20
0.0
 30
0.0
 40
101.199997
 50
73.028728999999998
 51
285.20194500000008
  0
CIRCLE
  8
LY_3
  6
CONTINUOUS
 62
               3
  5
B2
 10
-120.83480400000001
 20
89.435196000000005
 30
0.0
 40
4.25
  0
CIRCLE
  8
LY_3
  6
CONTINUOUS
 62
               3
  5
B3
 10
-149.16514100000001
 20
89.435181
 30
0.0
 40
4.25
  0
CIRCLE
  8
LY_3
  6
CONTINUOUS
 62
               3
  5
B4
 10
-176.10884100000001
 20
80.680649000000003
 30
0.0
 40
4.25
  0
CIRCLE
  8
LY_3
  6
CONTINUOUS
 62
               3
  5
B5
 10
-199.02851899999999
 20
64.028525999999999
 30
0.0
 40
4.25
  0
CIRCLE
  8
LY_3
  6
CONTINUOUS
 62
               3
  5
B6
 10
-215.68064100000001
 20
41.108848999999999
 30
0.0
 40
4.25
  0
CIRCLE
  8
LY_3
  6
CONTINUOUS
 62
               3
  5
B7
 10
-224.435181
 20
14.165152000000001
 30
0.0
 40
4.25
  0
CIRCLE
  8
LY_3
  6
CONTINUOUS
 62
               3
  5
B8
 10
-224.43518800000001
 20
-14.165127999999999
 30
0.0
 40
4.25
  0
CIRCLE
  8
LY_3
  6
CONTINUOUS
 62
               3
  5
B9
 10
-215.680656
 20
-41.108829
 30
0.0
 40
4.25
  0
CIRCLE
  8
LY_3
  6
CONTINUOUS
 62
               3
  5
BA
 10
-199.02854199999999
 20
-64.028510999999995
 30
0.0
 40
4.25
  0
CIRCLE
  8
LY_3
  6
CONTINUOUS
 62
               3
  5
BB
 10
-176.108868
 20
-80.680640999999994
 30
0.0
 40
4.25
  0
CIRCLE
  8
LY_3
  6
CONTINUOUS
 62
               3
  5
BC
 10
-149.16516999999999
 20
-89.435187999999997
 30
0.0
 40
4.25
  0
CIRCLE
  8
LY_3
  6
CONTINUOUS
 62
               3
  5
BD
 10
-120.83488699999999
 20
-89.435196000000005
 30
0.0
 40
4.25
  0
ARC
  8
LY_3
  6
CONTINUOUS
 62
               3
  5
BE
 10
-135.0
 20
0.0
 30
0.0
 40
76.449996999999996
 50
73.028728999999998
 51
285.20194500000008
  0
ARC
  8
LY_3
  6
CONTINUOUS
 62
               3
  5
BF
 10
-135.0
 20
0.0
 30
0.0
 40
83.050003000000004
 50
73.028728999999998
 51
285.20194500000008
  0
ARC
  8
LY_3
  6
CONTINUOUS
 62
               3
  5
C0
 10
-135.0
 20
0.0
 30
0.0
 40
85.75
 50
73.028728999999998
 51
285.20194500000008
  0
ARC
  8
LY_3
  6
CONTINUOUS
 62
               3
  5
C1
 10
18.399999000000001
 20
71.349999999999994
 30
0.0
 40
4.0
 50
270.0
 51
0.0
  0
ARC
  8
LY_3
  6
CONTINUOUS
 62
               3
  5
C2
 10
18.399999000000001
 20
-71.349999999999994
 30
0.0
 40
4.0
 50
0.0
 51
90.0
  0
ARC
  8
LY_3
  6
CONTINUOUS
 62
               3
  5
C3
 10
96.599998999999997
 20
-71.349999999999994
 30
0.0
 40
4.0
 50
90.0
 51
180.0
  0
ARC
  8
LY_3
  6
CONTINUOUS
 62
               3
  5
C4
 10
96.599998999999997
 20
71.349999999999994
 30
0.0
 40
4.0
 50
180.0
 51
270.0
  0
ARC
  8
LY_3
  6
CONTINUOUS
 62
               3
  5
C5
 10
-135.0
 20
0.0
 30
0.0
 40
71.0
 50
73.028728999999998
 51
285.20194500000008
  0
ARC
  8
LY_3
  6
CONTINUOUS
 62
               3
  5
C6
 10
-135.0
 20
0.0
 30
0.0
 40
69.582051000000007
 50
73.028728999999998
 51
285.20194500000008
  0
ARC
  8
LY_3
  6
CONTINUOUS
 62
               3
  5
C7
 10
-135.0
 20
0.0
 30
0.0
 40
68.716025000000002
 50
73.028728999999998
 51
285.20194500000008
  0
ARC
  8
LY_3
  6
CONTINUOUS
 62
               3
  5
C8
 10
-135.0
 20
0.0
 30
0.0
 40
67.849999999999994
 50
73.028728999999998
 51
285.20194500000008
  0
ARC
  8
LY_3
  6
CONTINUOUS
 62
               3
  5
C9
 10
-135.0
 20
0.0
 30
0.0
 40
67.349999999999994
 50
73.028728999999998
 51
285.20194500000008
  0
ENDSEC
  0
EOF
