  0
SECTION
  2
HEADER
  9
$ACADVER
  1
AC1009
  9
$DWGCODEPAGE
  3
dos932
  9
$INSBASE
 10
0.0
 20
0.0
 30
0.0
  9
$EXTMIN
 10
-190.0
 20
-90.112710000000007
 30
0.0
  9
$EXTMAX
 10
120.051446
 20
91.076811000000006
 30
0.0
  9
$LIMMIN
 10
-190.0
 20
-90.112710000000007
  9
$LIMMAX
 10
120.051446
 20
91.076811000000006
  9
$ORTHOMODE
 70
               0
  9
$REGENMODE
 70
               1
  9
$FILLMODE
 70
               1
  9
$QTEXTMODE
 70
               0
  9
$MIRRTEXT
 70
               1
  9
$DRAGMODE
 70
               2
  9
$LTSCALE
 40
1.0
  9
$OSMODE
 70
               0
  9
$ATTMODE
 70
               1
  9
$TEXTSIZE
 40
3.2000000476837158
  9
$TRACEWID
 40
0.05
  9
$TEXTSTYLE
  7
MX_NOTE_STANDARD
  9
$CLAYER
  8
LY_3
  9
$CELTYPE
  6
CONTINUOUS
  9
$CECOLOR
 62
             256
  9
$DIMSCALE
 40
1.0
  9
$DIMASZ
 40
2.5
  9
$DIMEXO
 40
2.0
  9
$DIMDLI
 40
3.75
  9
$DIMRND
 40
0.0
  9
$DIMDLE
 40
0.0
  9
$DIMEXE
 40
1.0
  9
$DIMTP
 40
0.0
  9
$DIMTM
 40
0.0
  9
$DIMTXT
 40
4.1655998229980469
  9
$DIMCEN
 40
2.5
  9
$DIMTSZ
 40
0.0
  9
$DIMTOL
 70
               0
  9
$DIMLIM
 70
               0
  9
$DIMTIH
 70
               0
  9
$DIMTOH
 70
               0
  9
$DIMSE1
 70
               0
  9
$DIMSE2
 70
               0
  9
$DIMTAD
 70
               1
  9
$DIMZIN
 70
               8
  9
$DIMBLK
  1

  9
$DIMASO
 70
               1
  9
$DIMSHO
 70
               1
  9
$DIMPOST
  1

  9
$DIMAPOST
  1

  9
$DIMALT
 70
               0
  9
$DIMALTD
 70
               4
  9
$DIMALTF
 40
0.03937007874016
  9
$DIMLFAC
 40
1.0
  9
$DIMTOFL
 70
               1
  9
$DIMTVP
 40
0.0
  9
$DIMTIX
 70
               0
  9
$DIMSOXD
 70
               0
  9
$DIMSAH
 70
               1
  9
$DIMBLK1
  1
_OPEN30
  9
$DIMBLK2
  1
_OPEN30
  9
$DIMSTYLE
  2
MXDIMSTYLE
  9
$DIMCLRD
 70
               0
  9
$DIMCLRE
 70
               0
  9
$DIMCLRT
 70
               0
  9
$DIMTFAC
 40
1.0
  9
$DIMGAP
 40
1.0
  9
$LUNITS
 70
               2
  9
$LUPREC
 70
               4
  9
$AXISMODE
 70
               0
  9
$AXISUNIT
 10
0.0
 20
0.0
  9
$SKETCHINC
 40
0.1
  9
$FILLETRAD
 40
0.0
  9
$AUNITS
 70
               0
  9
$AUPREC
 70
               0
  9
$MENU
  1
acad
  9
$ELEVATION
 40
0.0
  9
$PELEVATION
 40
0.0
  9
$THICKNESS
 40
0.0
  9
$LIMCHECK
 70
               0
  9
$BLIPMODE
 70
               1
  9
$CHAMFERA
 40
0.0
  9
$CHAMFERB
 40
0.0
  9
$SKPOLY
 70
               0
  9
$TDCREATE
 40
2455163.477858796
  9
$TDUPDATE
 40
2455163.477858796
  9
$TDINDWG
 40
0.0000000000
  9
$TDUSRTIMER
 40
0.0000000000
  9
$USRTIMER
 70
               1
  9
$ANGBASE
 50
0.0
  9
$ANGDIR
 70
               0
  9
$PDMODE
 70
               0
  9
$PDSIZE
 40
0.0
  9
$PLINEWID
 40
0.0
  9
$COORDS
 70
               1
  9
$SPLFRAME
 70
               0
  9
$SPLINETYPE
 70
               6
  9
$SPLINESEGS
 70
               8
  9
$ATTDIA
 70
               0
  9
$ATTREQ
 70
               1
  9
$HANDLING
 70
               1
  9
$HANDSEED
  5
C4
  9
$SURFTAB1
 70
               6
  9
$SURFTAB2
 70
               6
  9
$SURFTYPE
 70
               6
  9
$SURFU
 70
               6
  9
$SURFV
 70
               6
  9
$UCSNAME
  2

  9
$UCSORG
 10
0.0
 20
0.0
 30
0.0
  9
$UCSXDIR
 10
1.0
 20
0.0
 30
0.0
  9
$UCSYDIR
 10
0.0
 20
1.0
 30
0.0
  9
$PUCSNAME
  2

  9
$PUCSORG
 10
0.0
 20
0.0
 30
0.0
  9
$PUCSXDIR
 10
1.0
 20
0.0
 30
0.0
  9
$PUCSYDIR
 10
0.0
 20
1.0
 30
0.0
  9
$USERI1
 70
               0
  9
$USERI2
 70
               0
  9
$USERI3
 70
               0
  9
$USERI4
 70
               0
  9
$USERI5
 70
               0
  9
$USERR1
 40
0.0
  9
$USERR2
 40
0.0
  9
$USERR3
 40
0.0
  9
$USERR4
 40
0.0
  9
$USERR5
 40
0.0
  9
$WORLDVIEW
 70
               1
  9
$SHADEDGE
 70
               3
  9
$SHADEDIF
 70
              70
  9
$TILEMODE
 70
               1
  9
$MAXACTVP
 70
              16
  9
$PINSBASE
 10
0.0
 20
0.0
 30
0.0
  9
$PLIMCHECK
 70
               0
  9
$PEXTMIN
 10
1.0000000000000000E+20
 20
1.0000000000000000E+20
 30
1.0000000000000000E+20
  9
$PEXTMAX
 10
-1.0000000000000000E+20
 20
-1.0000000000000000E+20
 30
-1.0000000000000000E+20
  9
$PLIMMIN
 10
0.0
 20
0.0
  9
$PLIMMAX
 10
12.0
 20
9.0
  9
$UNITMODE
 70
               0
  9
$VISRETAIN
 70
               0
  9
$PLINEGEN
 70
               1
  9
$PSLTSCALE
 70
               0
  9
$TREEDEPTH
 70
            3020
  0
ENDSEC
  0
SECTION
  2
TABLES
  0
TABLE
  2
VPORT
 70
               1
  0
VPORT
  2
*ACTIVE
 70
               0
 10
0.0
 20
0.0
 11
1.0
 21
1.0
 12
-34.974277000000001
 22
0.4820504999999997
 13
0.0
 23
0.0
 14
1.0
 24
1.0
 15
0.0
 25
0.0
 16
0.0
 26
0.0
 36
1.0
 17
0.0
 27
0.0
 37
0.0
 40
183.00141621
 41
1.7320508075688772
 42
50.0
 43
0.0
 44
0.0
 50
0.0
 51
0.0
 71
               0
 72
             100
 73
               1
 74
               1
 75
               0
 76
               0
 77
               0
 78
               0
  0
ENDTAB
  0
TABLE
  2
LTYPE
 70
               3
  0
LTYPE
  2
CONTINUOUS
 70
              64
  3
Solid line
 72
              65
 73
               0
 40
0.0
  0
LTYPE
  2
CENTER
 70
              64
  3
Center ____ _ ____ _ ____ _ ____ _ ____ _ ____
 72
              65
 73
               4
 40
50.800000000000004
 49
31.75
 49
-6.3499999999999996
 49
6.3499999999999996
 49
-6.3499999999999996
  0
LTYPE
  2
PHANTOM
 70
              64
  3
Phantom ______  __  __  ______  __  __  ______
 72
              65
 73
               6
 40
63.500000000000007
 49
31.75
 49
-6.3499999999999996
 49
6.3499999999999996
 49
-6.3499999999999996
 49
6.3499999999999996
 49
-6.3499999999999996
  0
ENDTAB
  0
TABLE
  2
LAYER
 70
               3
  0
LAYER
  2
0
 70
               0
 62
               7
  6
CONTINUOUS
  0
LAYER
  2
DEFPOINTS
 70
               0
 62
               7
  6
CONTINUOUS
  0
LAYER
  2
LY_3
 70
               0
 62
               7
  6
CONTINUOUS
  0
ENDTAB
  0
TABLE
  2
STYLE
 70
               1
  0
STYLE
  2
MX_NOTE_STANDARD
 70
               0
 40
0.0
 41
1.0
 50
0.0
 71
               0
 42
3.2000000476837158
  3
txt.shx
  4
extfont.shx
  0
ENDTAB
  0
TABLE
  2
VIEW
 70
               0
  0
ENDTAB
  0
TABLE
  2
UCS
 70
               0
  0
ENDTAB
  0
TABLE
  2
APPID
 70
               1
  0
APPID
  2
ACAD
 70
               0
  0
ENDTAB
  0
TABLE
  2
DIMSTYLE
 70
               1
  0
DIMSTYLE
  2
MXDIMSTYLE
 70
               0
  3

  4

  5

  6
_OPEN30
  7
_OPEN30
 40
1.0
 41
2.5
 42
2.0
 43
3.75
 44
1.0
 45
0.0
 46
0.0
 47
0.0
 48
0.0
 71
               0
 72
               0
 73
               0
 74
               0
 75
               0
 76
               0
 77
               1
 78
               8
140
4.1655998229980469
141
2.5
142
0.0
143
0.03937007874016
144
1.0
145
0.0
146
1.0
147
1.0
170
               0
171
               4
172
               1
173
               1
174
               0
175
               0
176
               0
177
               0
178
               0
  0
ENDTAB
  0
ENDSEC
  0
SECTION
  2
BLOCKS
  0
BLOCK
  8
0
  6
BYBLOCK
 62
               0
  5
20
  2
_OPEN30
 70
               2
 10
0.0
 20
0.0
 30
0.0
  3
_OPEN30
  0
LINE
  8
0
  6
BYBLOCK
 62
               0
  5
21
 10
-1.0
 20
0.267949
 30
0.0
 11
0.0
 21
0.0
 31
0.0
  0
LINE
  8
0
  6
BYBLOCK
 62
               0
  5
22
 10
0.0
 20
0.0
 30
0.0
 11
-1.0
 21
-0.267949
 31
0.0
  0
LINE
  8
0
  6
BYBLOCK
 62
               0
  5
23
 10
0.0
 20
0.0
 30
0.0
 11
-1.0
 21
0.0
 31
0.0
  0
ENDBLK
  8
0
  6
BYBLOCK
 62
               0
  5
24
  0
ENDSEC
  0
SECTION
  2
ENTITIES
  0
LINE
  8
LY_3
  6
CONTINUOUS
 62
               3
  5
25
 10
0.799999
 20
75.800003000000004
 30
0.0
 11
18.999995999999999
 21
75.800003000000004
 31
0.0
  0
LINE
  8
LY_3
  6
CONTINUOUS
 62
               3
  5
26
 10
0.800005
 20
-75.800003000000004
 30
0.0
 11
18.999995999999999
 21
-75.800003000000004
 31
0.0
  0
LINE
  8
LY_3
  6
CONTINUOUS
 62
               3
  5
27
 10
1.2000010000000001
 20
57.597518000000001
 30
0.0
 11
1.2000010000000001
 21
-57.597518000000001
 31
0.0
  0
LINE
  8
LY_3
  6
CONTINUOUS
 62
               3
  5
28
 10
7.800001
 20
49.0
 30
0.0
 11
7.800001
 21
47.532051000000003
 31
0.0
  0
LINE
  8
LY_3
  6
CONTINUOUS
 62
               3
  5
29
 10
1.2000010000000001
 20
51.0
 30
0.0
 11
4.7999999999999998
 21
51.0
 31
0.0
  0
LINE
  8
LY_3
  6
CONTINUOUS
 62
               3
  5
2A
 10
0.0
 20
69.400002000000001
 30
0.0
 11
19.799999
 21
69.400002000000001
 31
0.0
  0
LINE
  8
LY_3
  6
CONTINUOUS
 62
               3
  5
2B
 10
0.0
 20
60.900002000000001
 30
0.0
 11
19.799999
 21
60.900002000000001
 31
0.0
  0
LINE
  8
LY_3
  6
CONTINUOUS
 62
               3
  5
2C
 10
19.799987999999999
 20
74.999986000000007
 30
0.0
 11
18.999984999999999
 21
75.799988999999997
 31
0.0
  0
LINE
  8
LY_3
  6
CONTINUOUS
 62
               3
  5
2D
 10
0.799979
 20
75.800032999999999
 30
0.0
 11
-0.00002
 21
75.000038000000004
 31
0.0
  0
LINE
  8
LY_3
  6
CONTINUOUS
 62
               3
  5
2E
 10
0.000007
 20
-74.999993000000003
 30
0.0
 11
0.800014
 21
-75.799995999999993
 31
0.0
  0
LINE
  8
LY_3
  6
CONTINUOUS
 62
               3
  5
2F
 10
19.799987999999999
 20
-74.999986000000007
 30
0.0
 11
18.999984999999999
 21
-75.799988999999997
 31
0.0
  0
LINE
  8
LY_3
  6
CENTER
 62
             110
  5
31
 10
-6.0999999999999996
 20
65.150002000000001
 30
0.0
 11
25.899999999999999
 21
65.150002000000001
 31
0.0
  0
LINE
  8
LY_3
  6
CENTER
 62
             110
  5
32
 10
-190.0
 20
0.0
 30
0.0
 11
-87.222363999999999
 21
0.0
 31
0.0
  0
LINE
  8
LY_3
  6
CENTER
 62
             110
  5
33
 10
-6.0999999999999996
 20
-65.150002000000001
 30
0.0
 11
25.899999999999999
 21
-65.150002000000001
 31
0.0
  0
LINE
  8
LY_3
  6
CONTINUOUS
 62
               3
  5
34
 10
0.599993
 20
57.649999999999999
 30
0.0
 11
1.460601
 21
60.014498000000003
 31
0.0
  0
LINE
  8
LY_3
  6
CONTINUOUS
 62
               3
  5
35
 10
0.600003
 20
57.650011999999997
 30
0.0
 11
1.200002
 21
57.597518000000001
 31
0.0
  0
LINE
  8
LY_3
  6
CONTINUOUS
 62
               3
  5
36
 10
0.599993
 20
-57.649999999999999
 30
0.0
 11
1.460601
 21
-60.014498000000003
 31
0.0
  0
LINE
  8
LY_3
  6
CONTINUOUS
 62
               3
  5
37
 10
0.600003
 20
-57.650011999999997
 30
0.0
 11
1.200002
 21
-57.597518000000001
 31
0.0
  0
LINE
  8
LY_3
  6
CONTINUOUS
 62
               3
  5
38
 10
0.0
 20
75.000057999999996
 30
0.0
 11
0.0
 21
-74.999984999999995
 31
0.0
  0
LINE
  8
LY_3
  6
CONTINUOUS
 62
               3
  5
39
 10
19.799999
 20
74.999975000000006
 30
0.0
 11
19.799999
 21
48.299999999999997
 31
0.0
  0
LINE
  8
LY_3
  6
CONTINUOUS
 62
               3
  5
3A
 10
0.0
 20
60.349997999999999
 30
0.0
 11
1.225681
 21
60.349997999999999
 31
0.0
  0
LINE
  8
LY_3
  6
CONTINUOUS
 62
               3
  5
3B
 10
0.0
 20
-60.349997999999999
 30
0.0
 11
1.225681
 21
-60.349997999999999
 31
0.0
  0
LINE
  8
LY_3
  6
CONTINUOUS
 62
               3
  5
3C
 10
0.599998
 20
57.650013000000001
 30
0.0
 11
0.599998
 21
-57.650013000000001
 31
0.0
  0
LINE
  8
LY_3
  6
CONTINUOUS
 62
               3
  5
3D
 10
7.800001
 20
45.799999999999997
 30
0.0
 11
7.800001
 21
-45.799999999999997
 31
0.0
  0
LINE
  8
LY_3
  6
CONTINUOUS
 62
               3
  5
3E
 10
7.800001
 20
-45.299999999999997
 30
0.0
 11
16.799999
 21
-45.299999999999997
 31
0.0
  0
LINE
  8
LY_3
  6
CONTINUOUS
 62
               3
  5
3F
 10
22.799999
 20
52.0
 30
0.0
 11
22.799999
 21
46.549999999999997
 31
0.0
  0
LINE
  8
LY_3
  6
CONTINUOUS
 62
               3
  5
40
 10
25.799999
 20
52.0
 30
0.0
 11
25.799999
 21
46.549999999999997
 31
0.0
  0
LINE
  8
LY_3
  6
CONTINUOUS
 62
               3
  5
41
 10
28.799999
 20
52.0
 30
0.0
 11
28.799999
 21
46.549999999999997
 31
0.0
  0
LINE
  8
LY_3
  6
CONTINUOUS
 62
               3
  5
42
 10
31.799999
 20
52.0
 30
0.0
 11
31.799999
 21
46.549999999999997
 31
0.0
  0
LINE
  8
LY_3
  6
CONTINUOUS
 62
               3
  5
43
 10
34.799999
 20
52.0
 30
0.0
 11
34.799999
 21
47.087454000000001
 31
0.0
  0
LINE
  8
LY_3
  6
PHANTOM
 62
             110
  5
45
 10
30.299999
 20
45.049999999999997
 30
0.0
 11
74.700001
 21
45.049999999999997
 31
0.0
  0
LINE
  8
LY_3
  6
PHANTOM
 62
             110
  5
46
 10
33.299999
 20
53.5
 30
0.0
 11
71.700001
 21
53.5
 31
0.0
  0
LINE
  8
LY_3
  6
CONTINUOUS
 62
               3
  5
47
 10
22.799999
 20
-52.0
 30
0.0
 11
22.799999
 21
-46.549999999999997
 31
0.0
  0
LINE
  8
LY_3
  6
CONTINUOUS
 62
               3
  5
48
 10
25.799999
 20
-52.0
 30
0.0
 11
25.799999
 21
-46.549999999999997
 31
0.0
  0
LINE
  8
LY_3
  6
CONTINUOUS
 62
               3
  5
49
 10
28.799999
 20
-52.0
 30
0.0
 11
28.799999
 21
-46.549999999999997
 31
0.0
  0
LINE
  8
LY_3
  6
CONTINUOUS
 62
               3
  5
4A
 10
31.799999
 20
-52.0
 30
0.0
 11
31.799999
 21
-46.549999999999997
 31
0.0
  0
LINE
  8
LY_3
  6
CONTINUOUS
 62
               3
  5
4B
 10
34.799999
 20
-52.0
 30
0.0
 11
34.799999
 21
-47.087454000000001
 31
0.0
  0
LINE
  8
LY_3
  6
PHANTOM
 62
             110
  5
4C
 10
30.299999
 20
-45.049999999999997
 30
0.0
 11
74.700001
 21
-45.049999999999997
 31
0.0
  0
LINE
  8
LY_3
  6
PHANTOM
 62
             110
  5
4D
 10
33.299999
 20
-53.5
 30
0.0
 11
71.700001
 21
-53.5
 31
0.0
  0
LINE
  8
LY_3
  6
CONTINUOUS
 62
               3
  5
4E
 10
104.200001
 20
75.800003000000004
 30
0.0
 11
86.000004000000004
 21
75.800003000000004
 31
0.0
  0
LINE
  8
LY_3
  6
CONTINUOUS
 62
               3
  5
4F
 10
104.199995
 20
-75.800003000000004
 30
0.0
 11
86.000004000000004
 21
-75.800003000000004
 31
0.0
  0
LINE
  8
LY_3
  6
CONTINUOUS
 62
               3
  5
50
 10
103.799999
 20
57.597518000000001
 30
0.0
 11
103.799999
 21
-57.597518000000001
 31
0.0
  0
LINE
  8
LY_3
  6
CONTINUOUS
 62
               3
  5
51
 10
105.0
 20
69.400002000000001
 30
0.0
 11
85.200001
 21
69.400002000000001
 31
0.0
  0
LINE
  8
LY_3
  6
CONTINUOUS
 62
               3
  5
52
 10
105.0
 20
60.900002000000001
 30
0.0
 11
85.200001
 21
60.900002000000001
 31
0.0
  0
LINE
  8
LY_3
  6
CONTINUOUS
 62
               3
  5
53
 10
85.200012000000001
 20
74.999986000000007
 30
0.0
 11
86.000015000000005
 21
75.799988999999997
 31
0.0
  0
LINE
  8
LY_3
  6
CONTINUOUS
 62
               3
  5
54
 10
104.20002100000001
 20
75.800032999999999
 30
0.0
 11
105.00002000000001
 21
75.000038000000004
 31
0.0
  0
LINE
  8
LY_3
  6
CONTINUOUS
 62
               3
  5
55
 10
104.999993
 20
-74.999993000000003
 30
0.0
 11
104.199986
 21
-75.799995999999993
 31
0.0
  0
LINE
  8
LY_3
  6
CONTINUOUS
 62
               3
  5
56
 10
85.200012000000001
 20
-74.999986000000007
 30
0.0
 11
86.000015000000005
 21
-75.799988999999997
 31
0.0
  0
LINE
  8
LY_3
  6
CENTER
 62
             110
  5
57
 10
111.09999999999999
 20
65.150002000000001
 30
0.0
 11
79.099999999999994
 21
65.150002000000001
 31
0.0
  0
LINE
  8
LY_3
  6
CENTER
 62
             110
  5
58
 10
111.09999999999999
 20
-65.150002000000001
 30
0.0
 11
79.099999999999994
 21
-65.150002000000001
 31
0.0
  0
LINE
  8
LY_3
  6
CONTINUOUS
 62
               3
  5
59
 10
104.400007
 20
57.649999999999999
 30
0.0
 11
103.539399
 21
60.014498000000003
 31
0.0
  0
LINE
  8
LY_3
  6
CONTINUOUS
 62
               3
  5
5A
 10
104.399997
 20
57.650011999999997
 30
0.0
 11
103.799998
 21
57.597518000000001
 31
0.0
  0
LINE
  8
LY_3
  6
CONTINUOUS
 62
               3
  5
5B
 10
104.400007
 20
-57.649999999999999
 30
0.0
 11
103.539399
 21
-60.014498000000003
 31
0.0
  0
LINE
  8
LY_3
  6
CONTINUOUS
 62
               3
  5
5C
 10
104.399997
 20
-57.650011999999997
 30
0.0
 11
103.799998
 21
-57.597518000000001
 31
0.0
  0
LINE
  8
LY_3
  6
CONTINUOUS
 62
               3
  5
5D
 10
105.0
 20
75.000057999999996
 30
0.0
 11
105.0
 21
-74.999984999999995
 31
0.0
  0
LINE
  8
LY_3
  6
CONTINUOUS
 62
               3
  5
5E
 10
85.200001
 20
74.999975000000006
 30
0.0
 11
85.200001
 21
48.299999999999997
 31
0.0
  0
LINE
  8
LY_3
  6
CONTINUOUS
 62
               3
  5
5F
 10
105.0
 20
60.349997999999999
 30
0.0
 11
103.77431900000001
 21
60.349997999999999
 31
0.0
  0
LINE
  8
LY_3
  6
CONTINUOUS
 62
               3
  5
60
 10
105.0
 20
-60.349997999999999
 30
0.0
 11
103.77431900000001
 21
-60.349997999999999
 31
0.0
  0
LINE
  8
LY_3
  6
CONTINUOUS
 62
               3
  5
61
 10
104.400002
 20
57.650013000000001
 30
0.0
 11
104.400002
 21
-57.650013000000001
 31
0.0
  0
LINE
  8
LY_3
  6
CONTINUOUS
 62
               3
  5
62
 10
82.200001
 20
52.0
 30
0.0
 11
82.200001
 21
46.549999999999997
 31
0.0
  0
LINE
  8
LY_3
  6
CONTINUOUS
 62
               3
  5
63
 10
79.200001
 20
52.0
 30
0.0
 11
79.200001
 21
46.549999999999997
 31
0.0
  0
LINE
  8
LY_3
  6
CONTINUOUS
 62
               3
  5
64
 10
76.200001
 20
52.0
 30
0.0
 11
76.200001
 21
46.549999999999997
 31
0.0
  0
LINE
  8
LY_3
  6
CONTINUOUS
 62
               3
  5
65
 10
73.200001
 20
52.0
 30
0.0
 11
73.200001
 21
46.549999999999997
 31
0.0
  0
LINE
  8
LY_3
  6
CONTINUOUS
 62
               3
  5
66
 10
70.200001
 20
52.0
 30
0.0
 11
70.200001
 21
47.087454000000001
 31
0.0
  0
LINE
  8
LY_3
  6
CONTINUOUS
 62
               3
  5
67
 10
82.200001
 20
-52.0
 30
0.0
 11
82.200001
 21
-46.549999999999997
 31
0.0
  0
LINE
  8
LY_3
  6
CONTINUOUS
 62
               3
  5
68
 10
79.200001
 20
-52.0
 30
0.0
 11
79.200001
 21
-46.549999999999997
 31
0.0
  0
LINE
  8
LY_3
  6
CONTINUOUS
 62
               3
  5
69
 10
76.200001
 20
-52.0
 30
0.0
 11
76.200001
 21
-46.549999999999997
 31
0.0
  0
LINE
  8
LY_3
  6
CONTINUOUS
 62
               3
  5
6A
 10
73.200001
 20
-52.0
 30
0.0
 11
73.200001
 21
-46.549999999999997
 31
0.0
  0
LINE
  8
LY_3
  6
CONTINUOUS
 62
               3
  5
6B
 10
70.200001
 20
-52.0
 30
0.0
 11
70.200001
 21
-47.087454000000001
 31
0.0
  0
LINE
  8
LY_3
  6
CENTER
 62
             110
  5
6C
 10
-100.0
 20
91.076811000000006
 30
0.0
 11
-100.0
 21
-90.112710000000007
 31
0.0
  0
LINE
  8
LY_3
  6
CENTER
 62
             110
  5
6D
 10
-115.560121
 20
-77.518675000000002
 30
0.0
 11
-110.30792
 21
-51.352834999999999
 31
0.0
  0
LINE
  8
LY_3
  6
CONTINUOUS
 62
               3
  5
6E
 10
19.799999
 20
-48.299999999999997
 30
0.0
 11
19.799999
 21
-74.999975000000006
 31
0.0
  0
LINE
  8
LY_3
  6
CONTINUOUS
 62
               3
  5
6F
 10
85.200001
 20
-48.299999999999997
 30
0.0
 11
85.200001
 21
-74.999975000000006
 31
0.0
  0
LINE
  8
LY_3
  6
CENTER
 62
             110
  5
70
 10
-11.908588
 20
0.0
 30
0.0
 11
120.051446
 21
0.0
 31
0.0
  0
LINE
  8
LY_3
  6
CONTINUOUS
 62
               3
  5
71
 10
4.7999999999999998
 20
51.0
 30
0.0
 11
4.7999999999999998
 21
-51.0
 31
0.0
  0
LINE
  8
LY_3
  6
CONTINUOUS
 62
               3
  5
72
 10
7.800001
 20
45.799999999999997
 30
0.0
 11
9.300001
 21
46.666024999999998
 31
0.0
  0
LINE
  8
LY_3
  6
CONTINUOUS
 62
               3
  5
73
 10
7.800001
 20
47.532051000000003
 30
0.0
 11
9.300001
 21
46.666024999999998
 31
0.0
  0
LINE
  8
LY_3
  6
CONTINUOUS
 62
               3
  5
74
 10
7.800001
 20
-49.0
 30
0.0
 11
7.800001
 21
-47.532051000000003
 31
0.0
  0
LINE
  8
LY_3
  6
CONTINUOUS
 62
               3
  5
75
 10
1.2000010000000001
 20
-51.0
 30
0.0
 11
4.7999999999999998
 21
-51.0
 31
0.0
  0
LINE
  8
LY_3
  6
CONTINUOUS
 62
               3
  5
76
 10
7.800001
 20
-47.532051000000003
 30
0.0
 11
9.300001
 21
-46.666024999999998
 31
0.0
  0
LINE
  8
LY_3
  6
CONTINUOUS
 62
               3
  5
77
 10
7.800001
 20
-45.799999999999997
 30
0.0
 11
9.300001
 21
-46.666024999999998
 31
0.0
  0
LINE
  8
LY_3
  6
CONTINUOUS
 62
               3
  5
78
 10
7.800001
 20
45.299999999999997
 30
0.0
 11
16.799999
 21
45.299999999999997
 31
0.0
  0
LINE
  8
LY_3
  6
CONTINUOUS
 62
               3
  5
79
 10
97.199999000000005
 20
49.0
 30
0.0
 11
97.199999000000005
 21
47.532051000000003
 31
0.0
  0
LINE
  8
LY_3
  6
CONTINUOUS
 62
               3
  5
7A
 10
103.799999
 20
51.0
 30
0.0
 11
100.2
 21
51.0
 31
0.0
  0
LINE
  8
LY_3
  6
CONTINUOUS
 62
               3
  5
7B
 10
97.199999000000005
 20
45.799999999999997
 30
0.0
 11
97.199999000000005
 21
-45.799999999999997
 31
0.0
  0
LINE
  8
LY_3
  6
CONTINUOUS
 62
               3
  5
7C
 10
97.199999000000005
 20
-45.299999999999997
 30
0.0
 11
88.200001
 21
-45.299999999999997
 31
0.0
  0
LINE
  8
LY_3
  6
CONTINUOUS
 62
               3
  5
7D
 10
97.199999000000005
 20
45.299999999999997
 30
0.0
 11
88.200001
 21
45.299999999999997
 31
0.0
  0
LINE
  8
LY_3
  6
CONTINUOUS
 62
               3
  5
7E
 10
100.2
 20
51.0
 30
0.0
 11
100.2
 21
-51.0
 31
0.0
  0
LINE
  8
LY_3
  6
CONTINUOUS
 62
               3
  5
7F
 10
97.199999000000005
 20
45.799999999999997
 30
0.0
 11
95.699999000000005
 21
46.666024999999998
 31
0.0
  0
LINE
  8
LY_3
  6
CONTINUOUS
 62
               3
  5
80
 10
97.199999000000005
 20
47.532051000000003
 30
0.0
 11
95.699999000000005
 21
46.666024999999998
 31
0.0
  0
LINE
  8
LY_3
  6
CONTINUOUS
 62
               3
  5
81
 10
97.199999000000005
 20
-49.0
 30
0.0
 11
97.199999000000005
 21
-47.532051000000003
 31
0.0
  0
LINE
  8
LY_3
  6
CONTINUOUS
 62
               3
  5
82
 10
103.799999
 20
-51.0
 30
0.0
 11
100.2
 21
-51.0
 31
0.0
  0
LINE
  8
LY_3
  6
CONTINUOUS
 62
               3
  5
83
 10
97.199999000000005
 20
-47.532051000000003
 30
0.0
 11
95.699999000000005
 21
-46.666024999999998
 31
0.0
  0
LINE
  8
LY_3
  6
CONTINUOUS
 62
               3
  5
84
 10
97.199999000000005
 20
-45.799999999999997
 30
0.0
 11
95.699999000000005
 21
-46.666024999999998
 31
0.0
  0
LINE
  8
LY_3
  6
CENTER
 62
             110
  5
85
 10
-115.289435
 20
77.572517000000005
 30
0.0
 11
-110.128603
 21
51.388503999999998
 31
0.0
  0
LINE
  8
LY_3
  6
CENTER
 62
             110
  5
86
 10
-143.81131400000001
 20
65.816648000000001
 30
0.0
 11
-129.02313799999999
 21
43.600738999999997
 31
0.0
  0
LINE
  8
LY_3
  6
CENTER
 62
             110
  5
87
 10
-165.66331700000001
 20
44.040790000000001
 30
0.0
 11
-143.49916300000001
 21
29.175156000000001
 31
0.0
  0
LINE
  8
LY_3
  6
CENTER
 62
             110
  5
88
 10
-177.518675
 20
15.560121000000001
 30
0.0
 11
-151.352835
 21
10.307919999999999
 31
0.0
  0
LINE
  8
LY_3
  6
CENTER
 62
             110
  5
89
 10
-177.572517
 20
-15.289434999999999
 30
0.0
 11
-151.38850400000001
 21
-10.128603
 31
0.0
  0
LINE
  8
LY_3
  6
CENTER
 62
             110
  5
8A
 10
-165.81664799999999
 20
-43.811314000000003
 30
0.0
 11
-143.600739
 21
-29.023137999999999
 31
0.0
  0
LINE
  8
LY_3
  6
CENTER
 62
             110
  5
8B
 10
-144.04078999999999
 20
-65.663317000000006
 30
0.0
 11
-129.17515599999999
 21
-43.499163000000003
 31
0.0
  0
LINE
  8
LY_3
  6
CONTINUOUS
 62
               3
  5
8C
 10
-101.0
 20
75.793402999999998
 30
0.0
 11
-101.0
 21
60.341714000000003
 31
0.0
  0
LINE
  8
LY_3
  6
CONTINUOUS
 62
               3
  5
8D
 10
-99.0
 20
75.793402999999998
 30
0.0
 11
-99.0
 21
60.341714000000003
 31
0.0
  0
LINE
  8
LY_3
  6
CONTINUOUS
 62
               3
  5
8E
 10
-101.0
 20
-60.341714000000003
 30
0.0
 11
-101.0
 21
-75.793402999999998
 31
0.0
  0
LINE
  8
LY_3
  6
CONTINUOUS
 62
               3
  5
8F
 10
-99.0
 20
-60.341714000000003
 30
0.0
 11
-99.0
 21
-75.793402999999998
 31
0.0
  0
LINE
  8
LY_3
  6
CONTINUOUS
 62
               3
  5
90
 10
97.199999000000005
 20
49.0
 30
0.0
 11
100.2
 21
49.0
 31
0.0
  0
LINE
  8
LY_3
  6
CONTINUOUS
 62
               3
  5
91
 10
97.199999000000005
 20
-49.0
 30
0.0
 11
100.2
 21
-49.0
 31
0.0
  0
LINE
  8
LY_3
  6
CONTINUOUS
 62
               3
  5
92
 10
7.800001
 20
49.0
 30
0.0
 11
4.7999999999999998
 21
49.0
 31
0.0
  0
LINE
  8
LY_3
  6
CONTINUOUS
 62
               3
  5
93
 10
7.800001
 20
-49.0
 30
0.0
 11
4.7999999999999998
 21
-49.0
 31
0.0
  0
ARC
  8
LY_3
  6
CONTINUOUS
 62
               3
  5
94
 10
1.225681
 20
-60.099997999999999
 30
0.0
 40
0.25
 50
270.00005399999998
 51
20.000346000000022
  0
ARC
  8
LY_3
  6
CONTINUOUS
 62
               3
  5
95
 10
1.225681
 20
60.099997999999999
 30
0.0
 40
0.25
 50
339.99973899999998
 51
90.000018000000026
  0
ARC
  8
LY_3
  6
CONTINUOUS
 62
               3
  5
96
 10
21.299999
 20
52.0
 30
0.0
 40
1.5
 50
0.0
 51
180.0
  0
ARC
  8
LY_3
  6
CONTINUOUS
 62
               3
  5
97
 10
24.299999
 20
46.549999999999997
 30
0.0
 40
1.5
 50
180.0
 51
0.0
  0
ARC
  8
LY_3
  6
CONTINUOUS
 62
               3
  5
98
 10
27.299999
 20
52.0
 30
0.0
 40
1.5
 50
0.0
 51
180.0
  0
ARC
  8
LY_3
  6
CONTINUOUS
 62
               3
  5
99
 10
30.299999
 20
46.549999999999997
 30
0.0
 40
1.5
 50
180.0
 51
0.0
  0
ARC
  8
LY_3
  6
CONTINUOUS
 62
               3
  5
9A
 10
33.299999
 20
52.0
 30
0.0
 40
1.5
 50
0.0
 51
180.0
  0
ARC
  8
LY_3
  6
CONTINUOUS
 62
               3
  5
9B
 10
21.299999
 20
-52.0
 30
0.0
 40
1.5
 50
180.0
 51
0.0
  0
ARC
  8
LY_3
  6
CONTINUOUS
 62
               3
  5
9C
 10
24.299999
 20
-46.549999999999997
 30
0.0
 40
1.5
 50
0.0
 51
180.0
  0
ARC
  8
LY_3
  6
CONTINUOUS
 62
               3
  5
9D
 10
27.299999
 20
-52.0
 30
0.0
 40
1.5
 50
180.0
 51
0.0
  0
ARC
  8
LY_3
  6
CONTINUOUS
 62
               3
  5
9E
 10
30.299999
 20
-46.549999999999997
 30
0.0
 40
1.5
 50
0.0
 51
180.0
  0
ARC
  8
LY_3
  6
CONTINUOUS
 62
               3
  5
9F
 10
33.299999
 20
-52.0
 30
0.0
 40
1.5
 50
180.0
 51
0.0
  0
ARC
  8
LY_3
  6
CONTINUOUS
 62
               3
  5
A0
 10
77.700001
 20
-52.0
 30
0.0
 40
1.5
 50
180.0
 51
0.0
  0
ARC
  8
LY_3
  6
CONTINUOUS
 62
               3
  5
A1
 10
80.700001
 20
-46.549999999999997
 30
0.0
 40
1.5
 50
0.0
 51
180.0
  0
ARC
  8
LY_3
  6
CONTINUOUS
 62
               3
  5
A2
 10
83.700001
 20
-52.0
 30
0.0
 40
1.5
 50
180.0
 51
0.0
  0
ARC
  8
LY_3
  6
CONTINUOUS
 62
               3
  5
A3
 10
71.700001
 20
-52.0
 30
0.0
 40
1.5
 50
180.0
 51
0.0
  0
ARC
  8
LY_3
  6
CONTINUOUS
 62
               3
  5
A4
 10
74.700001
 20
-46.549999999999997
 30
0.0
 40
1.5
 50
0.0
 51
180.0
  0
ARC
  8
LY_3
  6
CONTINUOUS
 62
               3
  5
A5
 10
103.77431900000001
 20
-60.099997999999999
 30
0.0
 40
0.25
 50
159.99965399999999
 51
269.99994600000002
  0
ARC
  8
LY_3
  6
CONTINUOUS
 62
               3
  5
A6
 10
103.77431900000001
 20
60.099997999999999
 30
0.0
 40
0.25
 50
89.999982000000003
 51
200.00026099999999
  0
ARC
  8
LY_3
  6
CONTINUOUS
 62
               3
  5
A7
 10
83.700001
 20
52.0
 30
0.0
 40
1.5
 50
0.0
 51
180.0
  0
ARC
  8
LY_3
  6
CONTINUOUS
 62
               3
  5
A8
 10
80.700001
 20
46.549999999999997
 30
0.0
 40
1.5
 50
180.0
 51
0.0
  0
ARC
  8
LY_3
  6
CONTINUOUS
 62
               3
  5
A9
 10
77.700001
 20
52.0
 30
0.0
 40
1.5
 50
0.0
 51
180.0
  0
ARC
  8
LY_3
  6
CONTINUOUS
 62
               3
  5
AA
 10
74.700001
 20
46.549999999999997
 30
0.0
 40
1.5
 50
180.0
 51
0.0
  0
ARC
  8
LY_3
  6
CONTINUOUS
 62
               3
  5
AB
 10
71.700001
 20
52.0
 30
0.0
 40
1.5
 50
0.0
 51
180.0
  0
ARC
  8
LY_3
  6
CONTINUOUS
 62
               3
  5
AC
 10
-100.0
 20
0.0
 30
0.0
 40
75.799999999999997
 50
80.496076000000002
 51
280.63485100000003
  0
ARC
  8
LY_3
  6
CENTER
 62
             110
  5
AD
 10
-100.0
 20
0.0
 30
0.0
 40
65.150000000000006
 50
80.496076000000002
 51
280.63485100000003
  0
ARC
  8
LY_3
  6
CONTINUOUS
 62
               3
  5
AE
 10
-100.0
 20
0.0
 30
0.0
 40
60.350000000000001
 50
80.496076000000002
 51
280.63485100000003
  0
ARC
  8
LY_3
  6
CONTINUOUS
 62
               3
  5
AF
 10
-100.0
 20
0.0
 30
0.0
 40
51.0
 50
80.496076000000002
 51
280.63485100000003
  0
CIRCLE
  8
LY_3
  6
CONTINUOUS
 62
               3
  5
B0
 10
-112.82163799999999
 20
-63.875880000000002
 30
0.0
 40
4.25
  0
ARC
  8
LY_3
  6
CONTINUOUS
 62
               3
  5
B1
 10
16.799999
 20
48.299999999999997
 30
0.0
 40
3.0
 50
270.0
 51
0.0
  0
ARC
  8
LY_3
  6
CONTINUOUS
 62
               3
  5
B2
 10
16.799999
 20
-48.299999999999997
 30
0.0
 40
3.0
 50
0.0
 51
90.0
  0
ARC
  8
LY_3
  6
CONTINUOUS
 62
               3
  5
B3
 10
88.200001
 20
48.299999999999997
 30
0.0
 40
3.0
 50
180.0
 51
270.0
  0
ARC
  8
LY_3
  6
CONTINUOUS
 62
               3
  5
B4
 10
88.200001
 20
-48.299999999999997
 30
0.0
 40
3.0
 50
90.0
 51
180.0
  0
CIRCLE
  8
LY_3
  6
CONTINUOUS
 62
               3
  5
B5
 10
-112.598592
 20
63.920247000000003
 30
0.0
 40
4.25
  0
CIRCLE
  8
LY_3
  6
CONTINUOUS
 62
               3
  5
B6
 10
-136.10080099999999
 20
54.233336000000001
 30
0.0
 40
4.25
  0
CIRCLE
  8
LY_3
  6
CONTINUOUS
 62
               3
  5
B7
 10
-154.10699
 20
36.28989
 30
0.0
 40
4.25
  0
CIRCLE
  8
LY_3
  6
CONTINUOUS
 62
               3
  5
B8
 10
-163.87588
 20
12.821638
 30
0.0
 40
4.25
  0
CIRCLE
  8
LY_3
  6
CONTINUOUS
 62
               3
  5
B9
 10
-163.92024699999999
 20
-12.598592
 30
0.0
 40
4.25
  0
CIRCLE
  8
LY_3
  6
CONTINUOUS
 62
               3
  5
BA
 10
-154.23333600000001
 20
-36.100800999999997
 30
0.0
 40
4.25
  0
CIRCLE
  8
LY_3
  6
CONTINUOUS
 62
               3
  5
BB
 10
-136.28989000000001
 20
-54.106990000000003
 30
0.0
 40
4.25
  0
ARC
  8
LY_3
  6
CONTINUOUS
 62
               3
  5
BC
 10
-100.0
 20
0.0
 30
0.0
 40
49.0
 50
80.496076000000002
 51
280.63485100000003
  0
ARC
  8
LY_3
  6
CONTINUOUS
 62
               3
  5
BD
 10
-100.0
 20
0.0
 30
0.0
 40
47.532051000000003
 50
80.496076000000002
 51
280.63485100000003
  0
ARC
  8
LY_3
  6
CONTINUOUS
 62
               3
  5
BE
 10
-100.0
 20
0.0
 30
0.0
 40
45.299999999999997
 50
80.496076000000002
 51
280.63485100000003
  0
ARC
  8
LY_3
  6
CONTINUOUS
 62
               3
  5
BF
 10
-100.0
 20
0.0
 30
0.0
 40
45.799999999999997
 50
80.496076000000002
 51
280.63485100000003
  0
ARC
  8
LY_3
  6
CONTINUOUS
 62
               3
  5
C0
 10
-100.0
 20
0.0
 30
0.0
 40
46.666024999999998
 50
80.496076000000002
 51
280.63485100000003
  0
ARC
  8
LY_3
  6
CONTINUOUS
 62
               3
  5
C1
 10
-100.0
 20
0.0
 30
0.0
 40
57.649999999999999
 50
80.496076000000002
 51
280.63485100000003
  0
ENDSEC
  0
EOF
