  0
SECTION
  2
HEADER
  9
$ACADVER
  1
AC1015
  9
$ACADMAINTVER
 70
    10
  9
$DWGCODEPAGE
  3
ANSI_932
  9
$INSBASE
 10
0.0
 20
0.0
 30
0.0
  9
$EXTMIN
 10
-184.5837917120055
 20
-162.8839718852467
 30
-0.0015258207003583
  9
$EXTMAX
 10
77.55399993260517
 20
162.0996324938373
 30
0.0000000349246037
  9
$LIMMIN
 10
-184.5757929999999
 20
-162.874
  9
$LIMMAX
 10
77.546
 20
163.9096669999998
  9
$ORTHOMODE
 70
     0
  9
$REGENMODE
 70
     1
  9
$FILLMODE
 70
     1
  9
$QTEXTMODE
 70
     0
  9
$MIRRTEXT
 70
     1
  9
$LTSCALE
 40
0.2
  9
$ATTMODE
 70
     1
  9
$TEXTSIZE
 40
3.2
  9
$TRACEWID
 40
0.05
  9
$TEXTSTYLE
  7
MX_NOTE_STANDARD
  9
$CLAYER
  8
0
  9
$CELTYPE
  6
CONTINUOUS
  9
$CECOLOR
 62
   256
  9
$CELTSCALE
 40
1.0
  9
$DISPSILH
 70
     0
  9
$DIMSCALE
 40
1.0
  9
$DIMASZ
 40
2.5
  9
$DIMEXO
 40
2.54
  9
$DIMDLI
 40
3.75
  9
$DIMRND
 40
0.0
  9
$DIMDLE
 40
0.0
  9
$DIMEXE
 40
2.286
  9
$DIMTP
 40
0.0
  9
$DIMTM
 40
0.0
  9
$DIMTXT
 40
3.2
  9
$DIMCEN
 40
2.5
  9
$DIMTSZ
 40
0.0
  9
$DIMTOL
 70
     0
  9
$DIMLIM
 70
     0
  9
$DIMTIH
 70
     0
  9
$DIMTOH
 70
     0
  9
$DIMSE1
 70
     0
  9
$DIMSE2
 70
     0
  9
$DIMTAD
 70
     1
  9
$DIMZIN
 70
     8
  9
$DIMBLK
  1

  9
$DIMASO
 70
     1
  9
$DIMSHO
 70
     1
  9
$DIMPOST
  1

  9
$DIMAPOST
  1

  9
$DIMALT
 70
     0
  9
$DIMALTD
 70
     4
  9
$DIMALTF
 40
0.03937
  9
$DIMLFAC
 40
1.0
  9
$DIMTOFL
 70
     1
  9
$DIMTVP
 40
0.0
  9
$DIMTIX
 70
     0
  9
$DIMSOXD
 70
     0
  9
$DIMSAH
 70
     1
  9
$DIMBLK1
  1
OPEN30
  9
$DIMBLK2
  1
OPEN30
  9
$DIMSTYLE
  2
MXDIMSTYLE
  9
$DIMCLRD
 70
     0
  9
$DIMCLRE
 70
     0
  9
$DIMCLRT
 70
     0
  9
$DIMTFAC
 40
1.0
  9
$DIMGAP
 40
1.0
  9
$DIMJUST
 70
     0
  9
$DIMSD1
 70
     0
  9
$DIMSD2
 70
     0
  9
$DIMTOLJ
 70
     0
  9
$DIMTZIN
 70
     0
  9
$DIMALTZ
 70
     0
  9
$DIMALTTZ
 70
     0
  9
$DIMUPT
 70
     1
  9
$DIMDEC
 70
     2
  9
$DIMTDEC
 70
     2
  9
$DIMALTU
 70
     2
  9
$DIMALTTD
 70
     4
  9
$DIMTXSTY
  7
MX_NOTE_STANDARD
  9
$DIMAUNIT
 70
     0
  9
$DIMADEC
 70
     0
  9
$DIMALTRND
 40
0.0
  9
$DIMAZIN
 70
     0
  9
$DIMDSEP
 70
    46
  9
$DIMATFIT
 70
     3
  9
$DIMFRAC
 70
     0
  9
$DIMLDRBLK
  1
OPEN30
  9
$DIMLUNIT
 70
     2
  9
$DIMLWD
 70
    -2
  9
$DIMLWE
 70
    -2
  9
$DIMTMOVE
 70
     0
  9
$LUNITS
 70
     2
  9
$LUPREC
 70
     4
  9
$SKETCHINC
 40
0.1
  9
$FILLETRAD
 40
0.0
  9
$AUNITS
 70
     0
  9
$AUPREC
 70
     0
  9
$MENU
  1
acad
  9
$ELEVATION
 40
0.0
  9
$PELEVATION
 40
0.0
  9
$THICKNESS
 40
0.0
  9
$LIMCHECK
 70
     0
  9
$CHAMFERA
 40
0.0
  9
$CHAMFERB
 40
0.0
  9
$CHAMFERC
 40
0.0
  9
$CHAMFERD
 40
0.0
  9
$SKPOLY
 70
     0
  9
$TDCREATE
 40
2455289.560754456
  9
$TDUCREATE
 40
2455289.185754456
  9
$TDUPDATE
 40
2455289.561487755
  9
$TDUUPDATE
 40
2455289.186487755
  9
$TDINDWG
 40
0.0006665741
  9
$TDUSRTIMER
 40
0.0006662037
  9
$USRTIMER
 70
     1
  9
$ANGBASE
 50
0.0
  9
$ANGDIR
 70
     0
  9
$PDMODE
 70
     0
  9
$PDSIZE
 40
0.0
  9
$PLINEWID
 40
0.0
  9
$SPLFRAME
 70
     0
  9
$SPLINETYPE
 70
     6
  9
$SPLINESEGS
 70
     8
  9
$HANDSEED
  5
3E4
  9
$SURFTAB1
 70
     6
  9
$SURFTAB2
 70
     6
  9
$SURFTYPE
 70
     6
  9
$SURFU
 70
     6
  9
$SURFV
 70
     6
  9
$UCSBASE
  2

  9
$UCSNAME
  2

  9
$UCSORG
 10
0.0
 20
0.0
 30
0.0
  9
$UCSXDIR
 10
1.0
 20
0.0
 30
0.0
  9
$UCSYDIR
 10
0.0
 20
1.0
 30
0.0
  9
$UCSORTHOREF
  2

  9
$UCSORTHOVIEW
 70
     0
  9
$UCSORGTOP
 10
0.0
 20
0.0
 30
0.0
  9
$UCSORGBOTTOM
 10
0.0
 20
0.0
 30
0.0
  9
$UCSORGLEFT
 10
0.0
 20
0.0
 30
0.0
  9
$UCSORGRIGHT
 10
0.0
 20
0.0
 30
0.0
  9
$UCSORGFRONT
 10
0.0
 20
0.0
 30
0.0
  9
$UCSORGBACK
 10
0.0
 20
0.0
 30
0.0
  9
$PUCSBASE
  2

  9
$PUCSNAME
  2

  9
$PUCSORG
 10
0.0
 20
0.0
 30
0.0
  9
$PUCSXDIR
 10
1.0
 20
0.0
 30
0.0
  9
$PUCSYDIR
 10
0.0
 20
1.0
 30
0.0
  9
$PUCSORTHOREF
  2

  9
$PUCSORTHOVIEW
 70
     0
  9
$PUCSORGTOP
 10
0.0
 20
0.0
 30
0.0
  9
$PUCSORGBOTTOM
 10
0.0
 20
0.0
 30
0.0
  9
$PUCSORGLEFT
 10
0.0
 20
0.0
 30
0.0
  9
$PUCSORGRIGHT
 10
0.0
 20
0.0
 30
0.0
  9
$PUCSORGFRONT
 10
0.0
 20
0.0
 30
0.0
  9
$PUCSORGBACK
 10
0.0
 20
0.0
 30
0.0
  9
$USERI1
 70
     0
  9
$USERI2
 70
     0
  9
$USERI3
 70
     0
  9
$USERI4
 70
     0
  9
$USERI5
 70
     0
  9
$USERR1
 40
0.0
  9
$USERR2
 40
0.0
  9
$USERR3
 40
0.0
  9
$USERR4
 40
0.0
  9
$USERR5
 40
0.0
  9
$WORLDVIEW
 70
     1
  9
$SHADEDGE
 70
     3
  9
$SHADEDIF
 70
    70
  9
$TILEMODE
 70
     1
  9
$MAXACTVP
 70
    16
  9
$PINSBASE
 10
0.0
 20
0.0
 30
0.0
  9
$PLIMCHECK
 70
     0
  9
$PEXTMIN
 10
1.000000000000000E+20
 20
1.000000000000000E+20
 30
1.000000000000000E+20
  9
$PEXTMAX
 10
-1.000000000000000E+20
 20
-1.000000000000000E+20
 30
-1.000000000000000E+20
  9
$PLIMMIN
 10
0.0
 20
0.0
  9
$PLIMMAX
 10
12.0
 20
9.0
  9
$UNITMODE
 70
     0
  9
$VISRETAIN
 70
     0
  9
$PLINEGEN
 70
     1
  9
$PSLTSCALE
 70
     0
  9
$TREEDEPTH
 70
  3020
  9
$CMLSTYLE
  2
Standard
  9
$CMLJUST
 70
     0
  9
$CMLSCALE
 40
1.0
  9
$PROXYGRAPHICS
 70
     0
  9
$MEASUREMENT
 70
     1
  9
$CELWEIGHT
370
     0
  9
$ENDCAPS
280
     0
  9
$JOINSTYLE
280
     0
  9
$LWDISPLAY
290
     0
  9
$INSUNITS
 70
     0
  9
$HYPERLINKBASE
  1

  9
$STYLESHEET
  1

  9
$XEDIT
290
     1
  9
$CEPSNTYPE
380
     0
  9
$PSTYLEMODE
290
     1
  9
$FINGERPRINTGUID
  2

  9
$VERSIONGUID
  2
{46C1549F-EEBA-4C75-A595-9B1555A3B370}
  9
$EXTNAMES
290
     1
  9
$PSVPSCALE
 40
0.0
  9
$OLESTARTUP
290
     0
  0
ENDSEC
  0
SECTION
  2
CLASSES
  0
CLASS
  1
LWPOLYLINE
  2
AcDbPolyline
  3
AutoCAD 2000
 90
    32768
280
     0
281
     1
  0
CLASS
  1
IMAGE
  2
AcDbRasterImage
  3
ISM
 90
    32895
280
     0
281
     1
  0
CLASS
  1
OLE2FRAME
  2
AcDbOle2Frame
  3
AutoCAD 2000
 90
    32768
280
     0
281
     1
  0
CLASS
  1
HATCH
  2
AcDbHatch
  3
AutoCAD 2000
 90
    32768
280
     0
281
     1
  0
CLASS
  1
DICTIONARYVAR
  2
AcDbDictionaryVar
  3
AutoCAD 2000
 90
    32768
280
     0
281
     0
  0
CLASS
  1
RASTERVARIABLES
  2
AcDbRasterVariables
  3
ISM
 90
    32768
280
     0
281
     0
  0
CLASS
  1
IMAGEDEF
  2
AcDbRasterImageDef
  3
ISM
 90
    32768
280
     0
281
     0
  0
CLASS
  1
IMAGEDEF_REACTOR
  2
AcDbRasterImageDefReactor
  3
ISM
 90
    32769
280
     0
281
     0
  0
CLASS
  1
IDBUFFER
  2
AcDbIdBuffer
  3
AutoCAD 2000
 90
    32768
280
     0
281
     0
  0
CLASS
  1
SPATIAL_FILTER
  2
AcDbSpatialFilter
  3
AutoCAD 2000
 90
    32768
280
     0
281
     0
  0
CLASS
  1
XRECORD
  2
AcDbXrecord
  3
AutoCAD 2000
 90
    32768
280
     0
281
     0
  0
CLASS
  1
SORTENTSTABLE
  2
AcDbSortentsTable
  3
AutoCAD 2000
 90
    32768
280
     0
281
     0
  0
CLASS
  1
LAYER_INDEX
  2
AcDbLayerIndex
  3
AutoCAD 2000
 90
    32768
280
     0
281
     0
  0
CLASS
  1
SPATIAL_INDEX
  2
AcDbSpatialIndex
  3
AutoCAD 2000
 90
    32768
280
     0
281
     0
  0
CLASS
  1
OBJECT_PTR
  2
CAseDLPNTableRecord
  3
"ASE-LPNTableRecord"
 90
    32769
280
     0
281
     0
  0
CLASS
  1
LAYOUT
  2
AcDbLayout
  3
AutoCAD 2000
 90
        0
280
     0
281
     0
  0
CLASS
  1
PLOTSETTINGS
  2
AcDbPlotSettings
  3
AutoCAD 2000
 90
    32768
280
     0
281
     0
  0
CLASS
  1
ACDBDICTIONARYWDFLT
  2
AcDbDictionaryWithDefault
  3
AutoCAD 2000
 90
        0
280
     0
281
     0
  0
CLASS
  1
ACDBPLACEHOLDER
  2
AcDbPlaceHolder
  3
AutoCAD 2000
 90
        0
280
     0
281
     0
  0
ENDSEC
  0
SECTION
  2
TABLES
  0
TABLE
  2
VPORT
  5
7
330
0
100
AcDbSymbolTable
 70
     2
  0
VPORT
  5
3E3
330
7
100
AcDbSymbolTableRecord
100
AcDbViewportTableRecord
  2
*Active
 70
     0
 10
0.0
 20
0.0
 11
1.0
 21
1.0
 12
-53.51489599999974
 22
-9.638392663708316
 13
0.0
 23
0.0
 14
1.0
 24
1.0
 15
0.0
 25
0.0
 16
0.0
 26
0.0
 36
1.0
 17
0.0
 27
0.0
 37
0.0
 40
372.2658665244104
 41
1.535714285714285
 42
50.0
 43
0.0
 44
0.0
 50
0.0
 51
0.0
 71
     0
 72
   100
 73
     1
 74
     1
 75
     0
 76
     0
 77
     0
 78
     0
281
     0
 65
     0
110
0.0
120
0.0
130
0.0
111
1.0
121
0.0
131
0.0
112
0.0
122
1.0
132
0.0
 79
     0
146
0.0
  0
ENDTAB
  0
TABLE
  2
LTYPE
  5
4
330
0
100
AcDbSymbolTable
 70
     4
  0
LTYPE
  5
11
330
4
100
AcDbSymbolTableRecord
100
AcDbLinetypeTableRecord
  2
BYBLOCK
 70
     0
  3

 72
    65
 73
     0
 40
0.0
  0
LTYPE
  5
12
330
4
100
AcDbSymbolTableRecord
100
AcDbLinetypeTableRecord
  2
BYLAYER
 70
     0
  3

 72
    65
 73
     0
 40
0.0
  0
LTYPE
  5
13
330
4
100
AcDbSymbolTableRecord
100
AcDbLinetypeTableRecord
  2
CONTINUOUS
 70
     0
  3
Solid line
 72
    65
 73
     0
 40
0.0
  0
LTYPE
  5
43
330
4
100
AcDbSymbolTableRecord
100
AcDbLinetypeTableRecord
  2
CENTER
 70
     0
  3
Center ____ _ ____ _ ____ _ ____ _ ____ _ ____
 72
    65
 73
     4
 40
50.8
 49
31.75
 74
     0
 49
-6.349999999999998
 74
     0
 49
6.349999999999998
 74
     0
 49
-6.349999999999998
 74
     0
  0
LTYPE
  5
6D
330
4
100
AcDbSymbolTableRecord
100
AcDbLinetypeTableRecord
  2
PHANTOM
 70
     0
  3
Phantom ______  __  __  ______  __  __  ______
 72
    65
 73
     6
 40
63.5
 49
31.75
 74
     0
 49
-6.349999999999998
 74
     0
 49
6.349999999999998
 74
     0
 49
-6.349999999999998
 74
     0
 49
6.349999999999998
 74
     0
 49
-6.349999999999998
 74
     0
  0
LTYPE
  5
75
330
4
100
AcDbSymbolTableRecord
100
AcDbLinetypeTableRecord
  2
DASHED
 70
     0
  3
Dashed __ __ __ __ __ __ __ __ __ __ __ __ __ _
 72
    65
 73
     2
 40
19.05
 49
12.7
 74
     0
 49
-6.349999999999998
 74
     0
  0
ENDTAB
  0
TABLE
  2
LAYER
  5
2
330
0
100
AcDbSymbolTable
 70
     4
  0
LAYER
  5
14
330
2
100
AcDbSymbolTableRecord
100
AcDbLayerTableRecord
  2
0
 70
     0
 62
     7
  6
CONTINUOUS
370
    -3
390
1D
  0
LAYER
  5
23
330
2
100
AcDbSymbolTableRecord
100
AcDbLayerTableRecord
  2
DEFPOINTS
 70
     0
 62
     7
  6
CONTINUOUS
290
     0
370
    -3
390
1D
  0
LAYER
  5
24
330
2
100
AcDbSymbolTableRecord
100
AcDbLayerTableRecord
  2
PV
 70
     0
 62
     7
  6
CONTINUOUS
370
    -3
390
1D
  0
LAYER
  5
25
330
2
100
AcDbSymbolTableRecord
100
AcDbLayerTableRecord
  2
WV
 70
     0
 62
     7
  6
CONTINUOUS
370
    -3
390
1D
  0
ENDTAB
  0
TABLE
  2
STYLE
  5
3
330
0
100
AcDbSymbolTable
 70
     2
  0
STYLE
  5
17
330
3
100
AcDbSymbolTableRecord
100
AcDbTextStyleTableRecord
  2
MX_NOTE_STANDARD
 70
     0
 40
0.0
 41
1.0
 50
0.0
 71
     0
 42
3.2
  3
txt.shx
  4
extfont.shx
  0
STYLE
  5
3D9
330
3
100
AcDbSymbolTableRecord
100
AcDbTextStyleTableRecord
  2
Standard
 70
     0
 40
0.0
 41
1.0
 50
0.0
 71
     0
 42
0.2
  3

  4

  0
ENDTAB
  0
TABLE
  2
VIEW
  5
5
330
0
100
AcDbSymbolTable
 70
     0
  0
ENDTAB
  0
TABLE
  2
UCS
  5
6
330
0
100
AcDbSymbolTable
 70
     0
  0
ENDTAB
  0
TABLE
  2
APPID
  5
8
330
0
100
AcDbSymbolTable
 70
     1
  0
APPID
  5
16
330
8
100
AcDbSymbolTableRecord
100
AcDbRegAppTableRecord
  2
ACAD
 70
     0
  0
ENDTAB
  0
TABLE
  2
DIMSTYLE
  5
9
330
0
100
AcDbSymbolTable
 70
     1
100
AcDbDimStyleTable
 71
     0
  0
DIMSTYLE
105
18
330
9
100
AcDbSymbolTableRecord
100
AcDbDimStyleTableRecord
  2
MXDIMSTYLE
 70
     0
 41
2.5
 42
2.54
 43
3.75
 44
2.286
 73
     0
 74
     0
 77
     1
 78
     8
140
3.2
141
2.5
143
0.03937
147
1.0
171
     4
172
     1
173
     1
271
     2
272
     2
274
     4
283
     0
288
     1
340
17
341
26
343
26
344
26
  0
ENDTAB
  0
TABLE
  2
BLOCK_RECORD
  5
1
330
0
100
AcDbSymbolTable
 70
     1
  0
BLOCK_RECORD
  5
A
330
1
100
AcDbSymbolTableRecord
100
AcDbBlockTableRecord
  2
*MODEL_SPACE
340
20
  0
BLOCK_RECORD
  5
B
330
1
100
AcDbSymbolTableRecord
100
AcDbBlockTableRecord
  2
*PAPER_SPACE
340
21
  0
BLOCK_RECORD
  5
26
330
1
100
AcDbSymbolTableRecord
100
AcDbBlockTableRecord
  2
_OPEN30
340
0
  0
ENDTAB
  0
ENDSEC
  0
SECTION
  2
BLOCKS
  0
BLOCK
  5
D
330
A
100
AcDbEntity
  8
0
100
AcDbBlockBegin
  2
*MODEL_SPACE
 70
     0
 10
0.0
 20
0.0
 30
0.0
  3
*MODEL_SPACE
  1

  0
ENDBLK
  5
E
330
A
100
AcDbEntity
  8
0
100
AcDbBlockEnd
  0
BLOCK
  5
F
330
B
100
AcDbEntity
 67
     1
  8
0
100
AcDbBlockBegin
  2
*PAPER_SPACE
 70
     0
 10
0.0
 20
0.0
 30
0.0
  3
*PAPER_SPACE
  1

  0
ENDBLK
  5
10
330
B
100
AcDbEntity
 67
     1
  8
0
100
AcDbBlockEnd
  0
BLOCK
  5
27
330
26
100
AcDbEntity
  8
0
  6
ByBlock
 62
     0
370
    -2
100
AcDbBlockBegin
  2
_OPEN30
 70
     2
 10
0.0
 20
0.0
 30
0.0
  3
_OPEN30
  1

  0
LINE
  5
28
330
26
100
AcDbEntity
  8
0
  6
ByBlock
 62
     0
370
    -2
100
AcDbLine
 10
-1.0
 20
0.267949
 30
0.0
 11
0.0
 21
0.0
 31
0.0
  0
LINE
  5
29
330
26
100
AcDbEntity
  8
0
  6
ByBlock
 62
     0
370
    -2
100
AcDbLine
 10
0.0
 20
0.0
 30
0.0
 11
-1.0
 21
-0.267949
 31
0.0
  0
LINE
  5
2A
330
26
100
AcDbEntity
  8
0
  6
ByBlock
 62
     0
370
    -2
100
AcDbLine
 10
0.0
 20
0.0
 30
0.0
 11
-1.0
 21
0.0
 31
0.0
  0
ENDBLK
  5
2B
330
26
100
AcDbEntity
  8
0
  6
ByBlock
 62
     0
370
    -2
100
AcDbBlockEnd
  0
ENDSEC
  0
SECTION
  2
ENTITIES
  0
LINE
  5
2C
330
A
100
AcDbEntity
  8
0
  6
Continuous
 62
     7
100
AcDbLine
 10
-59.972413
 20
-84.50000000000001
 30
0.0
 11
-75.32458000000002
 21
-84.50000000000001
 31
0.0
  0
LINE
  5
2D
330
A
100
AcDbEntity
  8
PV
  6
Continuous
 62
     7
100
AcDbLine
 10
-14.82099999999999
 20
87.337
 30
0.0
 11
-15.609
 21
86.881
 31
0.0
  0
LINE
  5
2E
330
A
100
AcDbEntity
  8
PV
  6
Continuous
 62
     7
100
AcDbLine
 10
-9.820999999999999
 20
78.676
 30
0.0
 11
-10.609
 21
78.221
 31
0.0
  0
LINE
  5
2F
330
A
100
AcDbEntity
  8
PV
  6
Continuous
 62
     7
100
AcDbLine
 10
-14.137
 20
87.154
 30
0.0
 11
-9.637
 21
79.359
 31
0.0
  0
LINE
  5
30
330
A
100
AcDbEntity
  8
PV
  6
Continuous
 62
     7
100
AcDbLine
 10
0.0
 20
73.006
 30
0.0
 11
0.0
 21
72.096
 31
0.0
  0
LINE
  5
31
330
A
100
AcDbEntity
  8
PV
  6
Continuous
 62
     7
100
AcDbLine
 10
0.5
 20
73.506
 30
0.0
 11
9.5
 21
73.506
 31
0.0
  0
LINE
  5
32
330
A
100
AcDbEntity
  8
PV
  6
Continuous
 62
     7
100
AcDbLine
 10
10.0
 20
73.006
 30
0.0
 11
10.0
 21
72.096
 31
0.0
  0
LINE
  5
33
330
A
100
AcDbEntity
  8
PV
  6
Continuous
 62
     7
100
AcDbLine
 10
19.82099999999998
 20
78.676
 30
0.0
 11
20.609
 21
78.221
 31
0.0
  0
LINE
  5
34
330
A
100
AcDbEntity
  8
PV
  6
Continuous
 62
     7
100
AcDbLine
 10
19.637
 20
79.359
 30
0.0
 11
24.13699999999999
 21
87.154
 31
0.0
  0
LINE
  5
35
330
A
100
AcDbEntity
  8
PV
  6
Continuous
 62
     7
100
AcDbLine
 10
24.82099999999999
 20
87.337
 30
0.0
 11
25.609
 21
86.881
 31
0.0
  0
LINE
  5
36
330
A
100
AcDbEntity
  8
PV
  6
Continuous
 62
     7
100
AcDbLine
 10
24.82099999999999
 20
98.67600000000001
 30
0.0
 11
25.609
 21
99.13200000000001
 31
0.0
  0
LINE
  5
37
330
A
100
AcDbEntity
  8
PV
  6
Continuous
 62
     7
100
AcDbLine
 10
24.13699999999999
 20
98.85899999999999
 30
0.0
 11
19.637
 21
106.654
 31
0.0
  0
LINE
  5
38
330
A
100
AcDbEntity
  8
PV
  6
Continuous
 62
     7
100
AcDbLine
 10
19.82099999999998
 20
107.337
 30
0.0
 11
20.609
 21
107.7919999999999
 31
0.0
  0
LINE
  5
39
330
A
100
AcDbEntity
  8
PV
  6
Continuous
 62
     7
100
AcDbLine
 10
10.0
 20
113.006
 30
0.0
 11
10.0
 21
113.917
 31
0.0
  0
LINE
  5
3A
330
A
100
AcDbEntity
  8
PV
  6
Continuous
 62
     7
100
AcDbLine
 10
9.5
 20
112.5059999999999
 30
0.0
 11
0.5
 21
112.5059999999999
 31
0.0
  0
LINE
  5
3B
330
A
100
AcDbEntity
  8
PV
  6
Continuous
 62
     7
100
AcDbLine
 10
0.0
 20
113.006
 30
0.0
 11
0.0
 21
113.917
 31
0.0
  0
LINE
  5
3C
330
A
100
AcDbEntity
  8
PV
  6
Continuous
 62
     7
100
AcDbLine
 10
-9.820999999999999
 20
107.337
 30
0.0
 11
-10.609
 21
107.7919999999999
 31
0.0
  0
LINE
  5
3D
330
A
100
AcDbEntity
  8
PV
  6
Continuous
 62
     7
100
AcDbLine
 10
-9.637
 20
106.654
 30
0.0
 11
-14.137
 21
98.85899999999999
 31
0.0
  0
LINE
  5
3E
330
A
100
AcDbEntity
  8
PV
  6
Continuous
 62
     7
100
AcDbLine
 10
-14.82099999999999
 20
98.67600000000001
 30
0.0
 11
-15.609
 21
99.13200000000001
 31
0.0
  0
LINE
  5
3F
330
A
100
AcDbEntity
  8
PV
  6
Continuous
 62
     7
100
AcDbLine
 10
-25.0
 20
116.33
 30
0.0
 11
-25.0
 21
69.68300000000001
 31
0.0
  0
LINE
  5
40
330
A
100
AcDbEntity
  8
PV
  6
Continuous
 62
     7
100
AcDbLine
 10
35.0
 20
116.33
 30
0.0
 11
35.0
 21
69.68300000000001
 31
0.0
  0
LINE
  5
41
330
A
100
AcDbEntity
  8
PV
  6
Continuous
 62
     7
100
AcDbLine
 10
28.324
 20
63.006
 30
0.0
 11
-18.324
 21
63.006
 31
0.0
  0
LINE
  5
42
330
A
100
AcDbEntity
  8
PV
  6
Continuous
 62
     7
100
AcDbLine
 10
28.324
 20
123.0059999999999
 30
0.0
 11
-18.324
 21
123.0059999999999
 31
0.0
  0
LINE
  5
44
330
A
100
AcDbEntity
  8
PV
  6
CENTER
 62
     7
100
AcDbLine
 10
5.0
 20
125.606
 30
0.0
 11
5.0
 21
60.40600000000001
 31
0.0
  0
LINE
  5
45
330
A
100
AcDbEntity
  8
PV
  6
CENTER
 62
     7
100
AcDbLine
 10
-63.624
 20
93.00600000000001
 30
0.0
 11
53.475
 21
93.00600000000001
 31
0.0
  0
LINE
  5
46
330
A
100
AcDbEntity
  8
PV
  6
CENTER
 62
     7
100
AcDbLine
 10
-17.5
 20
77.006
 30
0.0
 11
-17.5
 21
64.006
 31
0.0
  0
LINE
  5
47
330
A
100
AcDbEntity
  8
PV
  6
CENTER
 62
     7
100
AcDbLine
 10
-24.0
 20
70.506
 30
0.0
 11
-11.0
 21
70.506
 31
0.0
  0
LINE
  5
48
330
A
100
AcDbEntity
  8
PV
  6
CENTER
 62
     7
100
AcDbLine
 10
-17.5
 20
109.006
 30
0.0
 11
-17.5
 21
122.0059999999999
 31
0.0
  0
LINE
  5
49
330
A
100
AcDbEntity
  8
PV
  6
CENTER
 62
     7
100
AcDbLine
 10
-24.0
 20
115.5059999999999
 30
0.0
 11
-11.0
 21
115.5059999999999
 31
0.0
  0
LINE
  5
4A
330
A
100
AcDbEntity
  8
PV
  6
CENTER
 62
     7
100
AcDbLine
 10
34.0
 20
115.5059999999999
 30
0.0
 11
21.0
 21
115.5059999999999
 31
0.0
  0
LINE
  5
4B
330
A
100
AcDbEntity
  8
PV
  6
CENTER
 62
     7
100
AcDbLine
 10
27.5
 20
109.006
 30
0.0
 11
27.5
 21
122.0059999999999
 31
0.0
  0
LINE
  5
4C
330
A
100
AcDbEntity
  8
PV
  6
CENTER
 62
     7
100
AcDbLine
 10
27.5
 20
77.006
 30
0.0
 11
27.5
 21
64.006
 31
0.0
  0
LINE
  5
4D
330
A
100
AcDbEntity
  8
PV
  6
CENTER
 62
     7
100
AcDbLine
 10
34.0
 20
70.506
 30
0.0
 11
21.0
 21
70.506
 31
0.0
  0
LINE
  5
4E
330
A
100
AcDbEntity
  8
PV
  6
CENTER
 62
     7
100
AcDbLine
 10
-91.705
 20
148.0059999999999
 30
0.0
 11
-91.705
 21
38.006
 31
0.0
  0
LINE
  5
4F
330
A
100
AcDbEntity
  8
PV
  6
CENTER
 62
     7
100
AcDbLine
 10
-146.705
 20
93.00600000000001
 30
0.0
 11
-81.705
 21
93.00600000000001
 31
0.0
  0
LINE
  5
50
330
A
100
AcDbEntity
  8
PV
  6
CENTER
 62
     7
100
AcDbLine
 10
-109.383
 20
110.684
 30
0.0
 11
-123.525
 21
124.826
 31
0.0
  0
LINE
  5
51
330
A
100
AcDbEntity
  8
PV
  6
CENTER
 62
     7
100
AcDbLine
 10
-109.383
 20
75.32899999999997
 30
0.0
 11
-123.525
 21
61.187
 31
0.0
  0
LINE
  5
52
330
A
100
AcDbEntity
  8
PV
  6
Continuous
 62
     7
100
AcDbLine
 10
-47.0
 20
-98.1
 30
0.0
 11
-22.0
 21
-98.1
 31
0.0
  0
LINE
  5
53
330
A
100
AcDbEntity
  8
PV
  6
Continuous
 62
     7
100
AcDbLine
 10
-47.0
 20
-70.9
 30
0.0
 11
-22.0
 21
-70.9
 31
0.0
  0
LINE
  5
54
330
A
100
AcDbEntity
  8
PV
  6
Continuous
 62
     7
100
AcDbLine
 10
-47.0
 20
-39.5
 30
0.0
 11
-47.0
 21
-129.4999999999999
 31
0.0
  0
LINE
  5
55
330
A
100
AcDbEntity
  8
PV
  6
Continuous
 62
     7
100
AcDbLine
 10
-55.0
 20
-39.5
 30
0.0
 11
-55.0
 21
-129.4999999999999
 31
0.0
  0
LINE
  5
56
330
A
100
AcDbEntity
  8
PV
  6
CENTER
 62
     7
100
AcDbLine
 10
-59.80199999999999
 20
-49.5
 30
0.0
 11
-41.626
 21
-49.5
 31
0.0
  0
LINE
  5
57
330
A
100
AcDbEntity
  8
PV
  6
CENTER
 62
     7
100
AcDbLine
 10
-60.277
 20
-119.5
 30
0.0
 11
-43.207
 21
-119.5
 31
0.0
  0
LINE
  5
58
330
A
100
AcDbEntity
  8
PV
  6
Continuous
 62
     7
100
AcDbLine
 10
-55.0
 20
-39.5
 30
0.0
 11
-47.0
 21
-39.5
 31
0.0
  0
LINE
  5
59
330
A
100
AcDbEntity
  8
PV
  6
Continuous
 62
     7
100
AcDbLine
 10
-55.0
 20
-129.4999999999999
 30
0.0
 11
-47.0
 21
-129.4999999999999
 31
0.0
  0
LINE
  5
5A
330
A
100
AcDbEntity
  8
PV
  6
Continuous
 62
     7
100
AcDbLine
 10
-55.0
 20
138.5059999999999
 30
0.0
 11
-47.0
 21
138.5059999999999
 31
0.0
  0
LINE
  5
5B
330
A
100
AcDbEntity
  8
PV
  6
Continuous
 62
     7
100
AcDbLine
 10
-55.0
 20
138.5059999999999
 30
0.0
 11
-55.0
 21
48.506
 31
0.0
  0
LINE
  5
5C
330
A
100
AcDbEntity
  8
PV
  6
Continuous
 62
     7
100
AcDbLine
 10
-47.0
 20
93.506
 30
0.0
 11
-47.0
 21
48.506
 31
0.0
  0
LINE
  5
5D
330
A
100
AcDbEntity
  8
PV
  6
Continuous
 62
     7
100
AcDbLine
 10
-55.0
 20
48.506
 30
0.0
 11
-47.0
 21
48.506
 31
0.0
  0
LINE
  5
5E
330
A
100
AcDbEntity
  8
PV
  6
Continuous
 62
     7
100
AcDbLine
 10
-47.0
 20
79.906
 30
0.0
 11
-24.5
 21
79.906
 31
0.0
  0
LINE
  5
5F
330
A
100
AcDbEntity
  8
PV
  6
Continuous
 62
     7
100
AcDbLine
 10
-47.0
 20
107.106
 30
0.0
 11
-24.5
 21
107.106
 31
0.0
  0
LINE
  5
60
330
A
100
AcDbEntity
  8
PV
  6
Continuous
 62
     7
100
AcDbLine
 10
-47.0
 20
138.5059999999999
 30
0.0
 11
-47.0
 21
93.506
 31
0.0
  0
LINE
  5
61
330
A
100
AcDbEntity
  8
PV
  6
CENTER
 62
     7
100
AcDbLine
 10
-62.097
 20
128.0059999999999
 30
0.0
 11
-40.205
 21
128.0059999999999
 31
0.0
  0
LINE
  5
62
330
A
100
AcDbEntity
  8
PV
  6
CENTER
 62
     7
100
AcDbLine
 10
-62.606
 20
58.006
 30
0.0
 11
-40.205
 21
58.006
 31
0.0
  0
LINE
  5
63
330
A
100
AcDbEntity
  8
PV
  6
CENTER
 62
     7
100
AcDbLine
 10
-59.04230699999999
 20
-84.50000000000001
 30
0.0
 11
-7.282999999999998
 21
-84.50000000000001
 31
0.0
  0
LINE
  5
64
330
A
100
AcDbEntity
  8
PV
  6
CENTER
 62
     7
100
AcDbLine
 10
5.0
 20
5.122999999999998
 30
0.0
 11
5.0
 21
-149.568437
 31
0.0
  0
LINE
  5
65
330
A
100
AcDbEntity
  8
PV
  6
Continuous
 62
     7
100
AcDbLine
 10
30.0
 20
-109.0
 30
0.0
 11
-20.0
 21
-109.0
 31
0.0
  0
LINE
  5
66
330
A
100
AcDbEntity
  8
PV
  6
Continuous
 62
     7
100
AcDbLine
 10
-22.0
 20
-52.5
 30
0.0
 11
-22.0
 21
-70.9
 31
0.0
  0
LINE
  5
67
330
A
100
AcDbEntity
  8
PV
  6
Continuous
 62
     7
100
AcDbLine
 10
32.0
 20
-52.5
 30
0.0
 11
32.0
 21
-107.0
 31
0.0
  0
LINE
  5
68
330
A
100
AcDbEntity
  8
PV
  6
Continuous
 62
     7
100
AcDbLine
 10
1.0
 20
-19.5
 30
0.0
 11
1.0
 21
-28.5
 31
0.0
  0
LINE
  5
69
330
A
100
AcDbEntity
  8
PV
  6
Continuous
 62
     7
100
AcDbLine
 10
9.0
 20
-19.5
 30
0.0
 11
9.0
 21
-28.5
 31
0.0
  0
LINE
  5
6A
330
A
100
AcDbEntity
  8
PV
  6
Continuous
 62
     7
100
AcDbLine
 10
-23.5
 20
-31.5
 30
0.0
 11
33.5
 21
-31.5
 31
0.0
  0
LINE
  5
6B
330
A
100
AcDbEntity
  8
PV
  6
Continuous
 62
     7
100
AcDbLine
 10
-24.5
 20
-41.5
 30
0.0
 11
-24.5
 21
-32.5
 31
0.0
  0
LINE
  5
6C
330
A
100
AcDbEntity
  8
PV
  6
Continuous
 62
     7
100
AcDbLine
 10
34.5
 20
-41.5
 30
0.0
 11
34.5
 21
-32.5
 31
0.0
  0
LINE
  5
6E
330
A
100
AcDbEntity
  8
PV
  6
PHANTOM
 62
     7
100
AcDbLine
 10
-16.5
 20
-11.5
 30
0.0
 11
26.5
 21
-11.5
 31
0.0
  0
LINE
  5
6F
330
A
100
AcDbEntity
  8
PV
  6
PHANTOM
 62
     7
100
AcDbLine
 10
-13.59799999999999
 20
8.5
 30
0.0
 11
23.598
 21
8.5
 31
0.0
  0
LINE
  5
70
330
A
100
AcDbEntity
  8
PV
  6
PHANTOM
 62
     7
100
AcDbLine
 10
-16.5
 20
-11.5
 30
0.0
 11
-15.595
 21
6.599999999999998
 31
0.0
  0
LINE
  5
71
330
A
100
AcDbEntity
  8
PV
  6
PHANTOM
 62
     7
100
AcDbLine
 10
25.59499999999999
 20
6.599999999999998
 30
0.0
 11
26.5
 21
-11.5
 31
0.0
  0
LINE
  5
72
330
A
100
AcDbEntity
  8
PV
  6
Continuous
 62
     7
100
AcDbLine
 10
0.0
 20
0.5
 30
0.0
 11
0.0
 21
-9.5
 31
0.0
  0
LINE
  5
73
330
A
100
AcDbEntity
  8
PV
  6
Continuous
 62
     7
100
AcDbLine
 10
10.0
 20
0.5
 30
0.0
 11
10.0
 21
-9.5
 31
0.0
  0
LINE
  5
74
330
A
100
AcDbEntity
  8
PV
  6
PHANTOM
 62
     7
100
AcDbLine
 10
-12.5
 20
9.5
 30
0.0
 11
22.5
 21
9.5
 31
0.0
  0
LINE
  5
76
330
A
100
AcDbEntity
  8
PV
  6
DASHED
 62
     7
100
AcDbLine
 10
21.0
 20
1.5
 30
0.0
 11
21.0
 21
1.199999999999999
 31
0.0
  0
LINE
  5
77
330
A
100
AcDbEntity
  8
PV
  6
DASHED
 62
     7
100
AcDbLine
 10
-11.0
 20
1.5
 30
0.0
 11
-11.0
 21
1.199999999999999
 31
0.0
  0
LINE
  5
78
330
A
100
AcDbEntity
  8
PV
  6
DASHED
 62
     7
100
AcDbLine
 10
-11.0
 20
1.199999999999999
 30
0.0
 11
21.0
 21
1.199999999999999
 31
0.0
  0
LINE
  5
79
330
A
100
AcDbEntity
  8
PV
  6
Continuous
 62
     7
100
AcDbLine
 10
-10.609
 20
0.5
 30
0.0
 11
-10.609
 21
-9.5
 31
0.0
  0
LINE
  5
7A
330
A
100
AcDbEntity
  8
PV
  6
Continuous
 62
     7
100
AcDbLine
 10
-15.609
 20
-1.681
 30
0.0
 11
-15.609
 21
-9.5
 31
0.0
  0
LINE
  5
7B
330
A
100
AcDbEntity
  8
PV
  6
Continuous
 62
     7
100
AcDbLine
 10
-14.609
 20
0.225
 30
0.0
 11
-14.609
 21
-9.5
 31
0.0
  0
LINE
  5
7C
330
A
100
AcDbEntity
  8
PV
  6
Continuous
 62
     7
100
AcDbLine
 10
-13.623
 20
-13.152
 30
0.0
 11
-12.585
 21
-14.389
 31
0.0
  0
LINE
  5
7D
330
A
100
AcDbEntity
  8
PV
  6
Continuous
 62
     7
100
AcDbLine
 10
23.623
 20
-13.152
 30
0.0
 11
22.585
 21
-14.389
 31
0.0
  0
LINE
  5
7E
330
A
100
AcDbEntity
  8
PV
  6
Continuous
 62
     7
100
AcDbLine
 10
24.609
 20
0.225
 30
0.0
 11
24.609
 21
-9.5
 31
0.0
  0
LINE
  5
7F
330
A
100
AcDbEntity
  8
PV
  6
Continuous
 62
     7
100
AcDbLine
 10
25.609
 20
-1.681
 30
0.0
 11
25.609
 21
-9.5
 31
0.0
  0
LINE
  5
80
330
A
100
AcDbEntity
  8
PV
  6
Continuous
 62
     7
100
AcDbLine
 10
20.609
 20
0.5
 30
0.0
 11
20.609
 21
-9.5
 31
0.0
  0
LINE
  5
81
330
A
100
AcDbEntity
  8
PV
  6
Continuous
 62
     7
100
AcDbLine
 10
-15.0
 20
-28.5
 30
0.0
 11
25.0
 21
-28.5
 31
0.0
  0
LINE
  5
82
330
A
100
AcDbEntity
  8
PV
  6
Continuous
 62
     7
100
AcDbLine
 10
-16.5
 20
-19.5
 30
0.0
 11
26.5
 21
-19.5
 31
0.0
  0
LINE
  5
83
330
A
100
AcDbEntity
  8
PV
  6
Continuous
 62
     7
100
AcDbLine
 10
-16.5
 20
-19.5
 30
0.0
 11
-15.595
 21
-1.399999999999999
 31
0.0
  0
LINE
  5
84
330
A
100
AcDbEntity
  8
PV
  6
Continuous
 62
     7
100
AcDbLine
 10
-13.59799999999999
 20
0.5
 30
0.0
 11
23.598
 21
0.5
 31
0.0
  0
LINE
  5
85
330
A
100
AcDbEntity
  8
PV
  6
Continuous
 62
     7
100
AcDbLine
 10
-12.5
 20
1.5
 30
0.0
 11
22.5
 21
1.5
 31
0.0
  0
LINE
  5
86
330
A
100
AcDbEntity
  8
PV
  6
Continuous
 62
     7
100
AcDbLine
 10
25.59499999999999
 20
-1.399999999999999
 30
0.0
 11
26.5
 21
-19.5
 31
0.0
  0
LINE
  5
87
330
A
100
AcDbEntity
  8
PV
  6
Continuous
 62
     7
100
AcDbLine
 10
-24.5
 20
-41.5
 30
0.0
 11
34.5
 21
-41.5
 31
0.0
  0
LINE
  5
88
330
A
100
AcDbEntity
  8
PV
  6
Continuous
 62
     7
100
AcDbLine
 10
-24.5
 20
-52.5
 30
0.0
 11
34.5
 21
-52.5
 31
0.0
  0
LINE
  5
89
330
A
100
AcDbEntity
  8
PV
  6
Continuous
 62
     7
100
AcDbLine
 10
-19.0
 20
-41.5
 30
0.0
 11
-19.0
 21
-52.5
 31
0.0
  0
LINE
  5
8A
330
A
100
AcDbEntity
  8
PV
  6
Continuous
 62
     7
100
AcDbLine
 10
29.0
 20
-41.5
 30
0.0
 11
29.0
 21
-52.5
 31
0.0
  0
LINE
  5
8B
330
A
100
AcDbEntity
  8
PV
  6
Continuous
 62
     7
100
AcDbLine
 10
-19.0
 20
-41.5
 30
0.0
 11
-19.0
 21
-31.5
 31
0.0
  0
LINE
  5
8C
330
A
100
AcDbEntity
  8
PV
  6
Continuous
 62
     7
100
AcDbLine
 10
29.0
 20
-41.5
 30
0.0
 11
29.0
 21
-31.5
 31
0.0
  0
LINE
  5
8D
330
A
100
AcDbEntity
  8
PV
  6
Continuous
 62
     7
100
AcDbLine
 10
-22.0
 20
-98.1
 30
0.0
 11
-22.0
 21
-107.0
 31
0.0
  0
LINE
  5
8E
330
A
100
AcDbEntity
  8
PV
  6
CENTER
 62
     7
100
AcDbLine
 10
-17.5
 20
-29.894
 30
0.0
 11
-17.5
 21
-54.16199999999999
 31
0.0
  0
LINE
  5
8F
330
A
100
AcDbEntity
  8
PV
  6
CENTER
 62
     7
100
AcDbLine
 10
27.5
 20
-29.894
 30
0.0
 11
27.5
 21
-54.16199999999999
 31
0.0
  0
LINE
  5
90
330
A
100
AcDbEntity
  8
PV
  6
Continuous
 62
     7
100
AcDbLine
 10
-23.5
 20
-31.5
 30
0.0
 11
-24.5
 21
-32.5
 31
0.0
  0
LINE
  5
91
330
A
100
AcDbEntity
  8
PV
  6
Continuous
 62
     7
100
AcDbLine
 10
33.5
 20
-31.5
 30
0.0
 11
34.5
 21
-32.5
 31
0.0
  0
LINE
  5
92
330
A
100
AcDbEntity
  8
PV
  6
Continuous
 62
     7
100
AcDbLine
 10
-22.0
 20
-107.0
 30
0.0
 11
-20.0
 21
-109.0
 31
0.0
  0
LINE
  5
93
330
A
100
AcDbEntity
  8
PV
  6
Continuous
 62
     7
100
AcDbLine
 10
32.0
 20
-107.0
 30
0.0
 11
30.0
 21
-109.0
 31
0.0
  0
LINE
  5
94
330
A
100
AcDbEntity
  8
PV
  6
Continuous
 62
     7
100
AcDbLine
 10
31.92099999999999
 20
-107.0
 30
0.0
 11
-21.929
 21
-107.0
 31
0.0
  0
LINE
  5
95
330
A
100
AcDbEntity
  8
PV
  6
Continuous
 62
     7
100
AcDbLine
 10
-24.5
 20
-41.5
 30
0.0
 11
-24.5
 21
-52.5
 31
0.0
  0
LINE
  5
96
330
A
100
AcDbEntity
  8
PV
  6
Continuous
 62
     7
100
AcDbLine
 10
34.5
 20
-41.5
 30
0.0
 11
34.5
 21
-52.5
 31
0.0
  0
LINE
  5
97
330
A
100
AcDbEntity
  8
PV
  6
Continuous
 62
     7
100
AcDbLine
 10
18.6
 20
-136.4999999999999
 30
0.0
 11
18.6
 21
-109.0
 31
0.0
  0
LINE
  5
98
330
A
100
AcDbEntity
  8
PV
  6
Continuous
 62
     7
100
AcDbLine
 10
-8.599999999999999
 20
-136.4999999999999
 30
0.0
 11
-8.599999999999999
 21
-109.0
 31
0.0
  0
LINE
  5
99
330
A
100
AcDbEntity
  8
PV
  6
Continuous
 62
     7
100
AcDbLine
 10
-40.0
 20
-136.4999999999999
 30
0.0
 11
50.0
 21
-136.4999999999999
 31
0.0
  0
LINE
  5
9A
330
A
100
AcDbEntity
  8
PV
  6
Continuous
 62
     7
100
AcDbLine
 10
-40.0
 20
-144.5
 30
0.0
 11
50.0
 21
-144.5
 31
0.0
  0
LINE
  5
9B
330
A
100
AcDbEntity
  8
PV
  6
CENTER
 62
     7
100
AcDbLine
 10
-30.0
 20
-149.8409999999998
 30
0.0
 11
-30.0
 21
-131.44
 31
0.0
  0
LINE
  5
9C
330
A
100
AcDbEntity
  8
PV
  6
CENTER
 62
     7
100
AcDbLine
 10
40.0
 20
-149.432
 30
0.0
 11
40.0
 21
-131.235
 31
0.0
  0
LINE
  5
9D
330
A
100
AcDbEntity
  8
PV
  6
Continuous
 62
     7
100
AcDbLine
 10
-40.0
 20
-144.5
 30
0.0
 11
-40.0
 21
-136.4999999999999
 31
0.0
  0
LINE
  5
9E
330
A
100
AcDbEntity
  8
PV
  6
Continuous
 62
     7
100
AcDbLine
 10
50.0
 20
-144.5
 30
0.0
 11
50.0
 21
-136.4999999999999
 31
0.0
  0
LINE
  5
9F
330
A
100
AcDbEntity
  8
PV
  6
DASHED
 62
     7
100
AcDbLine
 10
-55.0
 20
-64.5
 30
0.0
 11
-52.0
 21
-64.5
 31
0.0
  0
LINE
  5
A0
330
A
100
AcDbEntity
  8
PV
  6
DASHED
 62
     7
100
AcDbLine
 10
-55.0
 20
-59.5
 30
0.0
 11
-52.0
 21
-59.5
 31
0.0
  0
LINE
  5
A1
330
A
100
AcDbEntity
  8
PV
  6
DASHED
 62
     7
100
AcDbLine
 10
-52.0
 20
-59.5
 30
0.0
 11
-52.0
 21
-64.5
 31
0.0
  0
LINE
  5
A2
330
A
100
AcDbEntity
  8
PV
  6
DASHED
 62
     7
100
AcDbLine
 10
-55.0
 20
-104.4999999999999
 30
0.0
 11
-52.0
 21
-104.4999999999999
 31
0.0
  0
LINE
  5
A3
330
A
100
AcDbEntity
  8
PV
  6
DASHED
 62
     7
100
AcDbLine
 10
-55.0
 20
-109.4999999999999
 30
0.0
 11
-52.0
 21
-109.4999999999999
 31
0.0
  0
LINE
  5
A4
330
A
100
AcDbEntity
  8
PV
  6
DASHED
 62
     7
100
AcDbLine
 10
-52.0
 20
-109.4999999999999
 30
0.0
 11
-52.0
 21
-104.4999999999999
 31
0.0
  0
LINE
  5
A5
330
A
100
AcDbEntity
  8
PV
  6
DASHED
 62
     7
100
AcDbLine
 10
-52.0
 20
118.006
 30
0.0
 11
-52.0
 21
113.006
 31
0.0
  0
LINE
  5
A6
330
A
100
AcDbEntity
  8
PV
  6
DASHED
 62
     7
100
AcDbLine
 10
-55.0
 20
118.006
 30
0.0
 11
-52.0
 21
118.006
 31
0.0
  0
LINE
  5
A7
330
A
100
AcDbEntity
  8
PV
  6
DASHED
 62
     7
100
AcDbLine
 10
-55.0
 20
73.006
 30
0.0
 11
-52.0
 21
73.006
 31
0.0
  0
LINE
  5
A8
330
A
100
AcDbEntity
  8
PV
  6
DASHED
 62
     7
100
AcDbLine
 10
-55.0
 20
68.006
 30
0.0
 11
-52.0
 21
68.006
 31
0.0
  0
LINE
  5
A9
330
A
100
AcDbEntity
  8
PV
  6
DASHED
 62
     7
100
AcDbLine
 10
-52.0
 20
68.006
 30
0.0
 11
-52.0
 21
73.006
 31
0.0
  0
LINE
  5
AA
330
A
100
AcDbEntity
  8
PV
  6
DASHED
 62
     7
100
AcDbLine
 10
-55.0
 20
113.006
 30
0.0
 11
-52.0
 21
113.006
 31
0.0
  0
CIRCLE
  5
AB
330
A
100
AcDbEntity
  8
PV
  6
Continuous
 62
     7
100
AcDbCircle
 10
5.0
 20
93.00600000000001
 30
0.0
 40
21.49999999999999
  0
ARC
  5
AC
330
A
100
AcDbEntity
  8
PV
  6
Continuous
 62
     7
100
AcDbCircle
 10
5.0
 20
93.00600000000001
 30
0.0
 40
20.5
100
AcDbArc
 50
284.116981
 51
315.9221259999998
  0
ARC
  5
AD
330
A
100
AcDbEntity
  8
PV
  6
Continuous
 62
     7
100
AcDbCircle
 10
-14.57
 20
86.904
 30
0.0
 40
0.5
100
AcDbArc
 50
30.000001
 51
120.0000029999999
  0
ARC
  5
AE
330
A
100
AcDbEntity
  8
PV
  6
Continuous
 62
     7
100
AcDbCircle
 10
-10.07
 20
79.10899999999998
 30
0.0
 40
0.5
100
AcDbArc
 50
299.999998
 51
30.000001
  0
ARC
  5
AF
330
A
100
AcDbEntity
  8
PV
  6
Continuous
 62
     7
100
AcDbCircle
 10
0.5
 20
73.006
 30
0.0
 40
0.5
100
AcDbArc
 50
90.00000300000001
 51
180.000005
  0
ARC
  5
B0
330
A
100
AcDbEntity
  8
PV
  6
Continuous
 62
     7
100
AcDbCircle
 10
9.5
 20
73.006
 30
0.0
 40
0.5
100
AcDbArc
 50
0.0
 51
90.00000300000001
  0
ARC
  5
B1
330
A
100
AcDbEntity
  8
PV
  6
Continuous
 62
     7
100
AcDbCircle
 10
20.07099999999998
 20
79.10899999999998
 30
0.0
 40
0.5
100
AcDbArc
 50
149.999997
 51
240.0000069999999
  0
ARC
  5
B2
330
A
100
AcDbEntity
  8
PV
  6
Continuous
 62
     7
100
AcDbCircle
 10
24.571
 20
86.904
 30
0.0
 40
0.5
100
AcDbArc
 50
60.000002
 51
149.999997
  0
ARC
  5
B3
330
A
100
AcDbEntity
  8
PV
  6
Continuous
 62
     7
100
AcDbCircle
 10
24.571
 20
99.10899999999999
 30
0.0
 40
0.5
100
AcDbArc
 50
210.0000029999999
 51
299.999998
  0
ARC
  5
B4
330
A
100
AcDbEntity
  8
PV
  6
Continuous
 62
     7
100
AcDbCircle
 10
20.07099999999998
 20
106.9039999999999
 30
0.0
 40
0.5
100
AcDbArc
 50
120.0000029999999
 51
209.999999
  0
ARC
  5
B5
330
A
100
AcDbEntity
  8
PV
  6
Continuous
 62
     7
100
AcDbCircle
 10
9.5
 20
113.006
 30
0.0
 40
0.5
100
AcDbArc
 50
269.9999969999999
 51
0.0
  0
ARC
  5
B6
330
A
100
AcDbEntity
  8
PV
  6
Continuous
 62
     7
100
AcDbCircle
 10
0.5
 20
113.006
 30
0.0
 40
0.5
100
AcDbArc
 50
179.9999909999999
 51
270.000001
  0
ARC
  5
B7
330
A
100
AcDbEntity
  8
PV
  6
Continuous
 62
     7
100
AcDbCircle
 10
-10.07
 20
106.9039999999999
 30
0.0
 40
0.5
100
AcDbArc
 50
329.9999989999998
 51
60.000002
  0
ARC
  5
B8
330
A
100
AcDbEntity
  8
PV
  6
Continuous
 62
     7
100
AcDbCircle
 10
-14.57
 20
99.10899999999999
 30
0.0
 40
0.5
100
AcDbArc
 50
239.999997
 51
329.9999989999998
  0
ARC
  5
B9
330
A
100
AcDbEntity
  8
PV
  6
Continuous
 62
     7
100
AcDbCircle
 10
5.0
 20
93.00600000000001
 30
0.0
 40
20.5
100
AcDbArc
 50
224.0778689999999
 51
255.8830209999999
  0
ARC
  5
BA
330
A
100
AcDbEntity
  8
PV
  6
Continuous
 62
     7
100
AcDbCircle
 10
5.0
 20
93.00600000000001
 30
0.0
 40
20.5
100
AcDbArc
 50
164.116974
 51
195.883023
  0
ARC
  5
BB
330
A
100
AcDbEntity
  8
PV
  6
Continuous
 62
     7
100
AcDbCircle
 10
5.0
 20
93.00600000000001
 30
0.0
 40
20.5
100
AcDbArc
 50
104.116979
 51
135.8830209999998
  0
ARC
  5
BC
330
A
100
AcDbEntity
  8
PV
  6
Continuous
 62
     7
100
AcDbCircle
 10
5.0
 20
93.00600000000001
 30
0.0
 40
20.5
100
AcDbArc
 50
44.11698100000001
 51
75.88301899999997
  0
ARC
  5
BD
330
A
100
AcDbEntity
  8
PV
  6
Continuous
 62
     7
100
AcDbCircle
 10
5.0
 20
93.00600000000001
 30
0.0
 40
20.5
100
AcDbArc
 50
344.116981
 51
15.883019
  0
CIRCLE
  5
BE
330
A
100
AcDbEntity
  8
PV
  6
Continuous
 62
     7
100
AcDbCircle
 10
5.0
 20
93.00600000000001
 30
0.0
 40
23.0
  0
ARC
  5
BF
330
A
100
AcDbEntity
  8
PV
  6
Continuous
 62
     7
100
AcDbCircle
 10
5.0
 20
93.00600000000001
 30
0.0
 40
38.0
100
AcDbArc
 50
127.863627
 51
142.13636
  0
ARC
  5
C0
330
A
100
AcDbEntity
  8
PV
  6
Continuous
 62
     7
100
AcDbCircle
 10
5.0
 20
93.00600000000001
 30
0.0
 40
38.0
100
AcDbArc
 50
307.863646
 51
322.1363549999998
  0
CIRCLE
  5
C1
330
A
100
AcDbEntity
  8
PV
  6
Continuous
 62
     7
100
AcDbCircle
 10
27.5
 20
70.506
 30
0.0
 40
5.5
  0
CIRCLE
  5
C2
330
A
100
AcDbEntity
  8
PV
  6
Continuous
 62
     7
100
AcDbCircle
 10
-17.5
 20
70.506
 30
0.0
 40
5.5
  0
CIRCLE
  5
C3
330
A
100
AcDbEntity
  8
PV
  6
Continuous
 62
     7
100
AcDbCircle
 10
-17.5
 20
115.5059999999999
 30
0.0
 40
5.5
  0
CIRCLE
  5
C4
330
A
100
AcDbEntity
  8
PV
  6
Continuous
 62
     7
100
AcDbCircle
 10
27.5
 20
115.5059999999999
 30
0.0
 40
5.5
  0
ARC
  5
C5
330
A
100
AcDbEntity
  8
PV
  6
Continuous
 62
     7
100
AcDbCircle
 10
5.0
 20
93.00600000000001
 30
0.0
 40
38.0
100
AcDbArc
 50
218.324897
 51
232.136359
  0
ARC
  5
C6
330
A
100
AcDbEntity
  8
PV
  6
Continuous
 62
     7
100
AcDbCircle
 10
5.0
 20
93.00600000000001
 30
0.0
 40
38.0
100
AcDbArc
 50
37.503134
 51
52.136371
  0
ARC
  5
C7
330
A
100
AcDbEntity
  8
PV
  6
Continuous
 62
     7
100
AcDbCircle
 10
-91.705
 20
93.00600000000001
 30
0.0
 40
45.0
100
AcDbArc
 50
89.99998199999998
 51
270.000001
  0
ARC
  5
C8
330
A
100
AcDbEntity
  8
PV
  6
CENTER
 62
     7
100
AcDbCircle
 10
-91.705
 20
93.00600000000001
 30
0.0
 40
35.0
100
AcDbArc
 50
89.99998199999998
 51
270.000001
  0
ARC
  5
C9
330
A
100
AcDbEntity
  8
PV
  6
Continuous
 62
     7
100
AcDbCircle
 10
-91.705
 20
93.00600000000001
 30
0.0
 40
25.0
100
AcDbArc
 50
89.99998199999998
 51
270.000001
  0
ARC
  5
CA
330
A
100
AcDbEntity
  8
PV
  6
Continuous
 62
     7
100
AcDbCircle
 10
-91.705
 20
93.00600000000001
 30
0.0
 40
20.0
100
AcDbArc
 50
89.99998199999998
 51
270.000001
  0
ARC
  5
CB
330
A
100
AcDbEntity
  8
PV
  6
Continuous
 62
     7
100
AcDbCircle
 10
-91.705
 20
93.00600000000001
 30
0.0
 40
17.5
100
AcDbArc
 50
89.99998199999998
 51
270.000001
  0
ARC
  5
CC
330
A
100
AcDbEntity
  8
PV
  6
Continuous
 62
     7
100
AcDbCircle
 10
-91.705
 20
93.00600000000001
 30
0.0
 40
16.15
100
AcDbArc
 50
89.99998199999998
 51
270.000001
  0
CIRCLE
  5
CD
330
A
100
AcDbEntity
  8
PV
  6
Continuous
 62
     7
100
AcDbCircle
 10
-116.4539999999999
 20
117.7549999999999
 30
0.0
 40
5.0
  0
CIRCLE
  5
CE
330
A
100
AcDbEntity
  8
PV
  6
Continuous
 62
     7
100
AcDbCircle
 10
-116.4539999999999
 20
68.258
 30
0.0
 40
5.0
  0
ARC
  5
CF
330
A
100
AcDbEntity
  8
PV
  6
Continuous
 62
     7
100
AcDbCircle
 10
5.0
 20
93.506
 30
0.0
 40
45.0
100
AcDbArc
 50
197.5911199999999
 51
0.0
  0
ARC
  5
D0
330
A
100
AcDbEntity
  8
PV
  6
Continuous
 62
     7
100
AcDbCircle
 10
5.0
 20
93.506
 30
0.0
 40
45.0
100
AcDbArc
 50
0.0
 51
162.40888
  0
ARC
  5
D1
330
A
100
AcDbEntity
  8
PV
  6
Continuous
 62
     7
100
AcDbCircle
 10
-45.902
 20
-84.50000000000001
 30
0.0
 40
27.5
100
AcDbArc
 50
330.360206
 51
29.639801
  0
ARC
  5
D2
330
A
100
AcDbEntity
  8
PV
  6
PHANTOM
 62
     7
100
AcDbCircle
 10
-13.59799999999999
 20
6.5
 30
0.0
 40
2.0
100
AcDbArc
 50
90.00000300000001
 51
177.137596
  0
ARC
  5
D3
330
A
100
AcDbEntity
  8
PV
  6
PHANTOM
 62
     7
100
AcDbCircle
 10
23.598
 20
6.5
 30
0.0
 40
2.0
100
AcDbArc
 50
2.862404999999998
 51
90.00000300000001
  0
ARC
  5
D4
330
A
100
AcDbEntity
  8
PV
  6
Continuous
 62
     7
100
AcDbCircle
 10
5.0
 20
-9.5
 30
0.0
 40
5.0
100
AcDbArc
 50
179.9999909999999
 51
270.000001
  0
ARC
  5
D5
330
A
100
AcDbEntity
  8
PV
  6
Continuous
 62
     7
100
AcDbCircle
 10
5.0
 20
-9.5
 30
0.0
 40
5.0
100
AcDbArc
 50
269.9999969999999
 51
0.0
  0
ARC
  5
D6
330
A
100
AcDbEntity
  8
PV
  6
PHANTOM
 62
     7
100
AcDbCircle
 10
-12.5
 20
8.5
 30
0.0
 40
1.0
100
AcDbArc
 50
90.00000300000001
 51
180.000005
  0
ARC
  5
D7
330
A
100
AcDbEntity
  8
PV
  6
PHANTOM
 62
     7
100
AcDbCircle
 10
22.5
 20
8.5
 30
0.0
 40
1.0
100
AcDbArc
 50
0.0
 51
90.00000300000001
  0
ARC
  5
D8
330
A
100
AcDbEntity
  8
PV
  6
Continuous
 62
     7
100
AcDbCircle
 10
-18.0
 20
-28.5
 30
0.0
 40
3.0
100
AcDbArc
 50
269.9999969999999
 51
0.0
  0
ARC
  5
D9
330
A
100
AcDbEntity
  8
PV
  6
Continuous
 62
     7
100
AcDbCircle
 10
28.0
 20
-28.5
 30
0.0
 40
3.0
100
AcDbArc
 50
180.000009
 51
269.9999969999999
  0
ARC
  5
DA
330
A
100
AcDbEntity
  8
PV
  6
Continuous
 62
     7
100
AcDbCircle
 10
-13.59799999999999
 20
-1.5
 30
0.0
 40
2.0
100
AcDbArc
 50
90.00000300000001
 51
177.137596
  0
ARC
  5
DB
330
A
100
AcDbEntity
  8
PV
  6
Continuous
 62
     7
100
AcDbCircle
 10
-12.5
 20
0.5
 30
0.0
 40
1.0
100
AcDbArc
 50
90.00000300000001
 51
180.000005
  0
ARC
  5
DC
330
A
100
AcDbEntity
  8
PV
  6
Continuous
 62
     7
100
AcDbCircle
 10
22.5
 20
0.5
 30
0.0
 40
1.0
100
AcDbArc
 50
0.0
 51
90.00000300000001
  0
ARC
  5
DD
330
A
100
AcDbEntity
  8
PV
  6
Continuous
 62
     7
100
AcDbCircle
 10
23.598
 20
-1.5
 30
0.0
 40
2.0
100
AcDbArc
 50
2.862404999999998
 51
90.00000300000001
  0
ARC
  5
DE
330
A
100
AcDbEntity
  8
PV
  6
CENTER
 62
     7
100
AcDbCircle
 10
5.0
 20
93.00600000000001
 30
0.0
 40
35.0
100
AcDbArc
 50
0.0
 51
31.002731
  0
ARC
  5
DF
330
A
100
AcDbEntity
  8
PV
  6
CENTER
 62
     7
100
AcDbCircle
 10
5.0
 20
93.00600000000001
 30
0.0
 40
35.0
100
AcDbArc
 50
58.997282
 51
121.002716
  0
ARC
  5
E0
330
A
100
AcDbEntity
  8
PV
  6
CENTER
 62
     7
100
AcDbCircle
 10
5.0
 20
93.00600000000001
 30
0.0
 40
35.0
100
AcDbArc
 50
148.9972709999999
 51
156.2431319999999
  0
ARC
  5
E1
330
A
100
AcDbEntity
  8
PV
  6
CENTER
 62
     7
100
AcDbCircle
 10
5.0
 20
93.00600000000001
 30
0.0
 40
35.0
100
AcDbArc
 50
201.980172
 51
211.002729
  0
ARC
  5
E2
330
A
100
AcDbEntity
  8
PV
  6
CENTER
 62
     7
100
AcDbCircle
 10
5.0
 20
93.00600000000001
 30
0.0
 40
35.0
100
AcDbArc
 50
238.9972839999999
 51
301.002718
  0
ARC
  5
E3
330
A
100
AcDbEntity
  8
PV
  6
CENTER
 62
     7
100
AcDbCircle
 10
5.0
 20
93.00600000000001
 30
0.0
 40
35.0
100
AcDbArc
 50
328.997269
 51
359.999994
  0
LWPOLYLINE
  5
E4
330
A
100
AcDbEntity
  8
PV
  6
Continuous
 62
     7
100
AcDbPolyline
 90
       73
 70
     0
 43
0.0
 10
-15.609
 20
-9.5
 10
-15.607
 20
-9.717999999999999
 10
-15.6
 20
-9.935999999999999
 10
-15.58799999999999
 20
-10.15299999999998
 10
-15.571
 20
-10.368
 10
-15.55
 20
-10.582
 10
-15.524
 20
-10.794
 10
-15.493
 20
-11.004
 10
-15.458
 20
-11.21
 10
-15.419
 20
-11.41299999999999
 10
-15.375
 20
-11.61299999999999
 10
-15.327
 20
-11.809
 10
-15.274
 20
-12.0
 10
-15.21799999999999
 20
-12.187
 10
-15.157
 20
-12.368
 10
-15.092
 20
-12.544
 10
-15.024
 20
-12.714
 10
-14.952
 20
-12.878
 10
-14.877
 20
-13.036
 10
-14.798
 20
-13.18599999999999
 10
-14.716
 20
-13.33
 10
-14.63099999999999
 20
-13.467
 10
-14.54299999999999
 20
-13.59599999999999
 10
-14.45199999999999
 20
-13.717
 10
-14.359
 20
-13.83
 10
-14.263
 20
-13.935
 10
-14.16599999999998
 20
-14.032
 10
-14.066
 20
-14.119
 10
-13.964
 20
-14.198
 10
-13.86099999999998
 20
-14.269
 10
-13.75599999999999
 20
-14.33
 10
-13.65
 20
-14.38099999999999
 10
-13.543
 20
-14.424
 10
-13.435
 20
-14.457
 10
-13.32699999999999
 20
-14.481
 10
-13.218
 20
-14.495
 10
-13.109
 20
-14.5
 10
-13.0
 20
-14.495
 10
-12.89099999999999
 20
-14.481
 10
-12.78299999999999
 20
-14.457
 10
-12.675
 20
-14.424
 10
-12.568
 20
-14.38099999999999
 10
-12.46199999999999
 20
-14.33
 10
-12.357
 20
-14.269
 10
-12.254
 20
-14.198
 10
-12.152
 20
-14.119
 10
-12.052
 20
-14.032
 10
-11.955
 20
-13.935
 10
-11.859
 20
-13.83
 10
-11.76599999999999
 20
-13.717
 10
-11.675
 20
-13.59599999999999
 10
-11.587
 20
-13.467
 10
-11.502
 20
-13.33
 10
-11.42
 20
-13.18599999999999
 10
-11.34099999999998
 20
-13.036
 10
-11.26599999999999
 20
-12.878
 10
-11.194
 20
-12.714
 10
-11.126
 20
-12.544
 10
-11.061
 20
-12.368
 10
-11.001
 20
-12.187
 10
-10.944
 20
-12.0
 10
-10.892
 20
-11.809
 10
-10.843
 20
-11.61299999999999
 10
-10.799
 20
-11.41299999999999
 10
-10.76
 20
-11.21
 10
-10.725
 20
-11.004
 10
-10.694
 20
-10.794
 10
-10.66799999999999
 20
-10.582
 10
-10.64699999999999
 20
-10.368
 10
-10.63
 20
-10.15299999999998
 10
-10.619
 20
-9.935999999999999
 10
-10.61099999999999
 20
-9.717999999999999
 10
-10.609
 20
-9.5
  0
LWPOLYLINE
  5
E5
330
A
100
AcDbEntity
  8
PV
  6
Continuous
 62
     7
100
AcDbPolyline
 90
       73
 70
     0
 43
0.0
 10
20.609
 20
-9.5
 10
20.611
 20
-9.717999999999999
 10
20.619
 20
-9.935999999999999
 10
20.63
 20
-10.15299999999998
 10
20.64699999999998
 20
-10.368
 10
20.668
 20
-10.582
 10
20.694
 20
-10.794
 10
20.725
 20
-11.004
 10
20.76
 20
-11.21
 10
20.79899999999998
 20
-11.41299999999999
 10
20.843
 20
-11.61299999999999
 10
20.89199999999999
 20
-11.809
 10
20.944
 20
-12.0
 10
21.00099999999998
 20
-12.187
 10
21.061
 20
-12.368
 10
21.126
 20
-12.544
 10
21.194
 20
-12.714
 10
21.26599999999998
 20
-12.878
 10
21.34099999999998
 20
-13.036
 10
21.42
 20
-13.18599999999999
 10
21.50199999999999
 20
-13.33
 10
21.587
 20
-13.467
 10
21.67499999999999
 20
-13.59599999999999
 10
21.766
 20
-13.717
 10
21.859
 20
-13.83
 10
21.955
 20
-13.935
 10
22.052
 20
-14.032
 10
22.15199999999998
 20
-14.119
 10
22.254
 20
-14.198
 10
22.357
 20
-14.269
 10
22.46199999999999
 20
-14.33
 10
22.568
 20
-14.38099999999999
 10
22.675
 20
-14.424
 10
22.783
 20
-14.457
 10
22.89099999999999
 20
-14.481
 10
23.0
 20
-14.495
 10
23.109
 20
-14.5
 10
23.218
 20
-14.495
 10
23.32699999999999
 20
-14.481
 10
23.435
 20
-14.457
 10
23.543
 20
-14.424
 10
23.64999999999999
 20
-14.38099999999999
 10
23.75599999999999
 20
-14.33
 10
23.861
 20
-14.269
 10
23.964
 20
-14.198
 10
24.066
 20
-14.119
 10
24.166
 20
-14.032
 10
24.263
 20
-13.935
 10
24.359
 20
-13.83
 10
24.45199999999999
 20
-13.717
 10
24.543
 20
-13.59599999999999
 10
24.631
 20
-13.467
 10
24.716
 20
-13.33
 10
24.798
 20
-13.18599999999999
 10
24.877
 20
-13.036
 10
24.952
 20
-12.878
 10
25.024
 20
-12.714
 10
25.09199999999999
 20
-12.544
 10
25.15699999999998
 20
-12.368
 10
25.218
 20
-12.187
 10
25.274
 20
-12.0
 10
25.327
 20
-11.809
 10
25.375
 20
-11.61299999999999
 10
25.419
 20
-11.41299999999999
 10
25.458
 20
-11.21
 10
25.493
 20
-11.004
 10
25.524
 20
-10.794
 10
25.55
 20
-10.582
 10
25.571
 20
-10.368
 10
25.588
 20
-10.15299999999998
 10
25.6
 20
-9.935999999999999
 10
25.607
 20
-9.717999999999999
 10
25.609
 20
-9.5
  0
POINT
  5
E6
330
A
100
AcDbEntity
  8
PV
  6
Continuous
 62
     7
100
AcDbPoint
 10
5.0
 20
76.506
 30
0.0
  0
POINT
  5
E7
330
A
100
AcDbEntity
  8
PV
  6
Continuous
 62
     7
100
AcDbPoint
 10
9.464999999999999
 20
79.344
 30
0.0
  0
POINT
  5
E8
330
A
100
AcDbEntity
  8
PV
  6
Continuous
 62
     7
100
AcDbPoint
 10
-0.6160000000000001
 20
79.69599999999998
 30
0.0
  0
LINE
  5
E9
330
A
100
AcDbEntity
  8
PV
  6
Continuous
 62
     7
100
AcDbLine
 10
8.292999999999999
 20
95.14499999999999
 30
0.0
 11
9.202999999999999
 21
97.64499999999999
 31
0.0
  0
LINE
  5
EA
330
A
100
AcDbEntity
  8
PV
  6
Continuous
 62
     7
100
AcDbLine
 10
9.202999999999999
 20
97.64499999999999
 30
0.0
 11
9.496
 21
97.64499999999999
 31
0.0
  0
LINE
  5
EB
330
A
100
AcDbEntity
  8
PV
  6
Continuous
 62
     7
100
AcDbLine
 10
9.496
 20
97.64499999999999
 30
0.0
 11
10.166
 21
95.14499999999999
 31
0.0
  0
LINE
  5
EC
330
A
100
AcDbEntity
  8
PV
  6
Continuous
 62
     7
100
AcDbLine
 10
8.750999999999999
 20
95.67300000000001
 30
0.0
 11
9.766
 21
95.67300000000001
 31
0.0
  0
LINE
  5
ED
330
A
100
AcDbEntity
  8
PV
  6
Continuous
 62
     7
100
AcDbLine
 10
8.292999999999999
 20
95.14499999999999
 30
0.0
 11
8.558999999999999
 21
95.14499999999999
 31
0.0
  0
LINE
  5
EE
330
A
100
AcDbEntity
  8
PV
  6
Continuous
 62
     7
100
AcDbLine
 10
9.907
 20
95.14499999999999
 30
0.0
 11
10.166
 21
95.14499999999999
 31
0.0
  0
LINE
  5
EF
330
A
100
AcDbEntity
  8
PV
  6
Continuous
 62
     7
100
AcDbLine
 10
-6.275999999999998
 20
95.14499999999999
 30
0.0
 11
-5.834999999999999
 21
97.64499999999999
 31
0.0
  0
LINE
  5
F0
330
A
100
AcDbEntity
  8
PV
  6
Continuous
 62
     7
100
AcDbLine
 10
-5.834999999999999
 20
97.64499999999999
 30
0.0
 11
-5.617
 21
97.64499999999999
 31
0.0
  0
LINE
  5
F1
330
A
100
AcDbEntity
  8
PV
  6
Continuous
 62
     7
100
AcDbLine
 10
-6.275999999999998
 20
95.14499999999999
 30
0.0
 11
-6.022
 21
95.14499999999999
 31
0.0
  0
LINE
  5
F2
330
A
100
AcDbEntity
  8
PV
  6
Continuous
 62
     7
100
AcDbLine
 10
-4.557999999999998
 20
95.14499999999999
 30
0.0
 11
-4.118
 21
97.64499999999999
 31
0.0
  0
LINE
  5
F3
330
A
100
AcDbEntity
  8
PV
  6
Continuous
 62
     7
100
AcDbLine
 10
-4.815999999999998
 20
95.14499999999999
 30
0.0
 11
-4.557999999999998
 21
95.14499999999999
 31
0.0
  0
LINE
  5
F4
330
A
100
AcDbEntity
  8
PV
  6
Continuous
 62
     7
100
AcDbLine
 10
-4.371999999999998
 20
97.64499999999999
 30
0.0
 11
-4.118
 21
97.64499999999999
 31
0.0
  0
LINE
  5
F5
330
A
100
AcDbEntity
  8
PV
  6
Continuous
 62
     7
100
AcDbLine
 10
-4.733999999999999
 20
95.58799999999999
 30
0.0
 11
-5.617
 21
97.64499999999999
 31
0.0
  0
LINE
  5
F6
330
A
100
AcDbEntity
  8
PV
  6
Continuous
 62
     7
100
AcDbLine
 10
8.558999999999999
 20
95.14499999999999
 30
0.0
 11
8.750999999999999
 21
95.67300000000001
 31
0.0
  0
LINE
  5
F7
330
A
100
AcDbEntity
  8
PV
  6
Continuous
 62
     7
100
AcDbLine
 10
9.336
 20
97.27899999999999
 30
0.0
 11
9.698999999999999
 21
95.92299999999999
 31
0.0
  0
LINE
  5
F8
330
A
100
AcDbEntity
  8
PV
  6
Continuous
 62
     7
100
AcDbLine
 10
8.842
 20
95.92299999999999
 30
0.0
 11
9.698999999999999
 21
95.92299999999999
 31
0.0
  0
LINE
  5
F9
330
A
100
AcDbEntity
  8
PV
  6
Continuous
 62
     7
100
AcDbLine
 10
8.842
 20
95.92299999999999
 30
0.0
 11
9.336
 21
97.27899999999999
 31
0.0
  0
LINE
  5
FA
330
A
100
AcDbEntity
  8
PV
  6
Continuous
 62
     7
100
AcDbLine
 10
9.766
 20
95.67300000000001
 30
0.0
 11
9.907
 21
95.14499999999999
 31
0.0
  0
LINE
  5
FB
330
A
100
AcDbEntity
  8
PV
  6
Continuous
 62
     7
100
AcDbLine
 10
-6.022
 20
95.14499999999999
 30
0.0
 11
-5.671
 21
97.13599999999999
 31
0.0
  0
LINE
  5
FC
330
A
100
AcDbEntity
  8
PV
  6
Continuous
 62
     7
100
AcDbLine
 10
-4.815999999999998
 20
95.14499999999999
 30
0.0
 11
-5.671
 21
97.13599999999999
 31
0.0
  0
LINE
  5
FD
330
A
100
AcDbEntity
  8
PV
  6
Continuous
 62
     7
100
AcDbLine
 10
-4.733999999999999
 20
95.58799999999999
 30
0.0
 11
-4.371999999999998
 21
97.64499999999999
 31
0.0
  0
LINE
  5
FE
330
A
100
AcDbEntity
  8
PV
  6
Continuous
 62
     7
100
AcDbLine
 10
-1.833999999999999
 20
96.39499999999999
 30
0.0
 11
-1.039
 21
96.39499999999999
 31
0.0
  0
LINE
  5
FF
330
A
100
AcDbEntity
  8
PV
  6
Continuous
 62
     7
100
AcDbLine
 10
-1.878
 20
96.14499999999999
 30
0.0
 11
-1.328
 21
96.14499999999999
 31
0.0
  0
LINE
  5
100
330
A
100
AcDbEntity
  8
PV
  6
Continuous
 62
     7
100
AcDbLine
 10
-1.878
 20
96.14499999999999
 30
0.0
 11
-1.833999999999999
 21
96.39499999999999
 31
0.0
  0
LINE
  5
101
330
A
100
AcDbEntity
  8
PV
  6
Continuous
 62
     7
100
AcDbLine
 10
-1.34
 20
96.788
 30
0.0
 11
-1.104999999999998
 21
96.873
 31
0.0
  0
LINE
  5
102
330
A
100
AcDbEntity
  8
PV
  6
Continuous
 62
     7
100
AcDbLine
 10
10.97599999999999
 20
95.14499999999999
 30
0.0
 11
11.41699999999999
 21
97.64499999999999
 31
0.0
  0
LINE
  5
103
330
A
100
AcDbEntity
  8
PV
  6
Continuous
 62
     7
100
AcDbLine
 10
10.97599999999999
 20
95.14499999999999
 30
0.0
 11
12.35
 21
95.14499999999999
 31
0.0
  0
LINE
  5
104
330
A
100
AcDbEntity
  8
PV
  6
Continuous
 62
     7
100
AcDbLine
 10
11.274
 20
95.395
 30
0.0
 11
12.394
 21
95.395
 31
0.0
  0
LINE
  5
105
330
A
100
AcDbEntity
  8
PV
  6
Continuous
 62
     7
100
AcDbLine
 10
11.274
 20
95.395
 30
0.0
 11
11.671
 21
97.64499999999999
 31
0.0
  0
LINE
  5
106
330
A
100
AcDbEntity
  8
PV
  6
Continuous
 62
     7
100
AcDbLine
 10
12.35
 20
95.14499999999999
 30
0.0
 11
12.394
 21
95.395
 31
0.0
  0
LINE
  5
107
330
A
100
AcDbEntity
  8
PV
  6
Continuous
 62
     7
100
AcDbLine
 10
11.41699999999999
 20
97.64499999999999
 30
0.0
 11
11.671
 21
97.64499999999999
 31
0.0
  0
LINE
  5
108
330
A
100
AcDbEntity
  8
PV
  6
Continuous
 62
     7
100
AcDbLine
 10
15.442
 20
95.14499999999999
 30
0.0
 11
15.883
 21
97.64499999999999
 31
0.0
  0
LINE
  5
109
330
A
100
AcDbEntity
  8
PV
  6
Continuous
 62
     7
100
AcDbLine
 10
15.442
 20
95.14499999999999
 30
0.0
 11
16.61599999999999
 21
95.14499999999999
 31
0.0
  0
LINE
  5
10A
330
A
100
AcDbEntity
  8
PV
  6
Continuous
 62
     7
100
AcDbLine
 10
15.74
 20
95.395
 30
0.0
 11
16.66
 21
95.395
 31
0.0
  0
LINE
  5
10B
330
A
100
AcDbEntity
  8
PV
  6
Continuous
 62
     7
100
AcDbLine
 10
15.74
 20
95.395
 30
0.0
 11
15.895
 21
96.27
 31
0.0
  0
LINE
  5
10C
330
A
100
AcDbEntity
  8
PV
  6
Continuous
 62
     7
100
AcDbLine
 10
15.883
 20
97.64499999999999
 30
0.0
 11
17.057
 21
97.64499999999999
 31
0.0
  0
LINE
  5
10D
330
A
100
AcDbEntity
  8
PV
  6
Continuous
 62
     7
100
AcDbLine
 10
16.093
 20
97.39499999999999
 30
0.0
 11
17.01299999999999
 21
97.39499999999999
 31
0.0
  0
LINE
  5
10E
330
A
100
AcDbEntity
  8
PV
  6
Continuous
 62
     7
100
AcDbLine
 10
15.939
 20
96.52000000000001
 30
0.0
 11
16.858
 21
96.52000000000001
 31
0.0
  0
LINE
  5
10F
330
A
100
AcDbEntity
  8
PV
  6
Continuous
 62
     7
100
AcDbLine
 10
15.895
 20
96.27
 30
0.0
 11
16.814
 21
96.27
 31
0.0
  0
LINE
  5
110
330
A
100
AcDbEntity
  8
PV
  6
Continuous
 62
     7
100
AcDbLine
 10
15.939
 20
96.52000000000001
 30
0.0
 11
16.093
 21
97.39499999999999
 31
0.0
  0
LINE
  5
111
330
A
100
AcDbEntity
  8
PV
  6
Continuous
 62
     7
100
AcDbLine
 10
16.61599999999999
 20
95.14499999999999
 30
0.0
 11
16.66
 21
95.395
 31
0.0
  0
LINE
  5
112
330
A
100
AcDbEntity
  8
PV
  6
Continuous
 62
     7
100
AcDbLine
 10
16.814
 20
96.27
 30
0.0
 11
16.858
 21
96.52000000000001
 31
0.0
  0
LINE
  5
113
330
A
100
AcDbEntity
  8
PV
  6
Continuous
 62
     7
100
AcDbLine
 10
17.01299999999999
 20
97.39499999999999
 30
0.0
 11
17.057
 21
97.64499999999999
 31
0.0
  0
LINE
  5
114
330
A
100
AcDbEntity
  8
PV
  6
Continuous
 62
     7
100
AcDbLine
 10
13.361
 20
97.64499999999999
 30
0.0
 11
13.738
 21
95.50400000000001
 31
0.0
  0
LINE
  5
115
330
A
100
AcDbEntity
  8
PV
  6
Continuous
 62
     7
100
AcDbLine
 10
13.738
 20
95.50400000000001
 30
0.0
 11
14.51799999999999
 21
97.64499999999999
 31
0.0
  0
LINE
  5
116
330
A
100
AcDbEntity
  8
PV
  6
Continuous
 62
     7
100
AcDbLine
 10
13.107
 20
97.64499999999999
 30
0.0
 11
13.548
 21
95.14499999999999
 31
0.0
  0
LINE
  5
117
330
A
100
AcDbEntity
  8
PV
  6
Continuous
 62
     7
100
AcDbLine
 10
13.874
 20
95.14499999999999
 30
0.0
 11
14.784
 21
97.64499999999999
 31
0.0
  0
LINE
  5
118
330
A
100
AcDbEntity
  8
PV
  6
Continuous
 62
     7
100
AcDbLine
 10
13.107
 20
97.64499999999999
 30
0.0
 11
13.361
 21
97.64499999999999
 31
0.0
  0
LINE
  5
119
330
A
100
AcDbEntity
  8
PV
  6
Continuous
 62
     7
100
AcDbLine
 10
13.548
 20
95.14499999999999
 30
0.0
 11
13.874
 21
95.14499999999999
 31
0.0
  0
LINE
  5
11A
330
A
100
AcDbEntity
  8
PV
  6
Continuous
 62
     7
100
AcDbLine
 10
14.51799999999999
 20
97.64499999999999
 30
0.0
 11
14.784
 21
97.64499999999999
 31
0.0
  0
LINE
  5
11B
330
A
100
AcDbEntity
  8
PV
  6
Continuous
 62
     7
100
AcDbLine
 10
-9.106999999999999
 20
95.14499999999999
 30
0.0
 11
-8.197
 21
97.64499999999999
 31
0.0
  0
LINE
  5
11C
330
A
100
AcDbEntity
  8
PV
  6
Continuous
 62
     7
100
AcDbLine
 10
-8.197
 20
97.64499999999999
 30
0.0
 11
-7.903999999999999
 21
97.64499999999999
 31
0.0
  0
LINE
  5
11D
330
A
100
AcDbEntity
  8
PV
  6
Continuous
 62
     7
100
AcDbLine
 10
-7.903999999999999
 20
97.64499999999999
 30
0.0
 11
-7.233999999999999
 21
95.14499999999999
 31
0.0
  0
LINE
  5
11E
330
A
100
AcDbEntity
  8
PV
  6
Continuous
 62
     7
100
AcDbLine
 10
-8.648999999999999
 20
95.67300000000001
 30
0.0
 11
-7.633999999999998
 21
95.67300000000001
 31
0.0
  0
LINE
  5
11F
330
A
100
AcDbEntity
  8
PV
  6
Continuous
 62
     7
100
AcDbLine
 10
-9.106999999999999
 20
95.14499999999999
 30
0.0
 11
-8.841000000000002
 21
95.14499999999999
 31
0.0
  0
LINE
  5
120
330
A
100
AcDbEntity
  8
PV
  6
Continuous
 62
     7
100
AcDbLine
 10
-7.492999999999998
 20
95.14499999999999
 30
0.0
 11
-7.233999999999999
 21
95.14499999999999
 31
0.0
  0
LINE
  5
121
330
A
100
AcDbEntity
  8
PV
  6
Continuous
 62
     7
100
AcDbLine
 10
-8.841000000000002
 20
95.14499999999999
 30
0.0
 11
-8.648999999999999
 21
95.67300000000001
 31
0.0
  0
LINE
  5
122
330
A
100
AcDbEntity
  8
PV
  6
Continuous
 62
     7
100
AcDbLine
 10
-8.064
 20
97.27899999999999
 30
0.0
 11
-7.701
 21
95.92299999999999
 31
0.0
  0
LINE
  5
123
330
A
100
AcDbEntity
  8
PV
  6
Continuous
 62
     7
100
AcDbLine
 10
-8.557999999999998
 20
95.92299999999999
 30
0.0
 11
-7.701
 21
95.92299999999999
 31
0.0
  0
LINE
  5
124
330
A
100
AcDbEntity
  8
PV
  6
Continuous
 62
     7
100
AcDbLine
 10
-8.557999999999998
 20
95.92299999999999
 30
0.0
 11
-8.064
 21
97.27899999999999
 31
0.0
  0
LINE
  5
125
330
A
100
AcDbEntity
  8
PV
  6
Continuous
 62
     7
100
AcDbLine
 10
-7.633999999999998
 20
95.67300000000001
 30
0.0
 11
-7.492999999999998
 21
95.14499999999999
 31
0.0
  0
LINE
  5
126
330
A
100
AcDbEntity
  8
PV
  6
Continuous
 62
     7
100
AcDbLine
 10
-0.324
 20
95.14499999999999
 30
0.0
 11
0.117
 21
97.64499999999999
 31
0.0
  0
LINE
  5
127
330
A
100
AcDbEntity
  8
PV
  6
Continuous
 62
     7
100
AcDbLine
 10
-0.324
 20
95.14499999999999
 30
0.0
 11
1.05
 21
95.14499999999999
 31
0.0
  0
LINE
  5
128
330
A
100
AcDbEntity
  8
PV
  6
Continuous
 62
     7
100
AcDbLine
 10
-0.026
 20
95.395
 30
0.0
 11
1.094
 21
95.395
 31
0.0
  0
LINE
  5
129
330
A
100
AcDbEntity
  8
PV
  6
Continuous
 62
     7
100
AcDbLine
 10
-0.026
 20
95.395
 30
0.0
 11
0.371
 21
97.64499999999999
 31
0.0
  0
LINE
  5
12A
330
A
100
AcDbEntity
  8
PV
  6
Continuous
 62
     7
100
AcDbLine
 10
1.05
 20
95.14499999999999
 30
0.0
 11
1.094
 21
95.395
 31
0.0
  0
LINE
  5
12B
330
A
100
AcDbEntity
  8
PV
  6
Continuous
 62
     7
100
AcDbLine
 10
0.117
 20
97.64499999999999
 30
0.0
 11
0.371
 21
97.64499999999999
 31
0.0
  0
LINE
  5
12C
330
A
100
AcDbEntity
  8
PV
  6
Continuous
 62
     7
100
AcDbLine
 10
6.461
 20
97.64499999999999
 30
0.0
 11
6.837999999999999
 21
95.50400000000001
 31
0.0
  0
LINE
  5
12D
330
A
100
AcDbEntity
  8
PV
  6
Continuous
 62
     7
100
AcDbLine
 10
6.837999999999999
 20
95.50400000000001
 30
0.0
 11
7.617999999999998
 21
97.64499999999999
 31
0.0
  0
LINE
  5
12E
330
A
100
AcDbEntity
  8
PV
  6
Continuous
 62
     7
100
AcDbLine
 10
6.207
 20
97.64499999999999
 30
0.0
 11
6.647999999999998
 21
95.14499999999999
 31
0.0
  0
LINE
  5
12F
330
A
100
AcDbEntity
  8
PV
  6
Continuous
 62
     7
100
AcDbLine
 10
6.974
 20
95.14499999999999
 30
0.0
 11
7.883999999999998
 21
97.64499999999999
 31
0.0
  0
LINE
  5
130
330
A
100
AcDbEntity
  8
PV
  6
Continuous
 62
     7
100
AcDbLine
 10
6.207
 20
97.64499999999999
 30
0.0
 11
6.461
 21
97.64499999999999
 31
0.0
  0
LINE
  5
131
330
A
100
AcDbEntity
  8
PV
  6
Continuous
 62
     7
100
AcDbLine
 10
6.647999999999998
 20
95.14499999999999
 30
0.0
 11
6.974
 21
95.14499999999999
 31
0.0
  0
LINE
  5
132
330
A
100
AcDbEntity
  8
PV
  6
Continuous
 62
     7
100
AcDbLine
 10
7.617999999999998
 20
97.64499999999999
 30
0.0
 11
7.883999999999998
 21
97.64499999999999
 31
0.0
  0
LINE
  5
133
330
A
100
AcDbEntity
  8
PV
  6
Continuous
 62
     7
100
AcDbLine
 10
2.041999999999998
 20
95.14499999999999
 30
0.0
 11
2.483
 21
97.64499999999999
 31
0.0
  0
LINE
  5
134
330
A
100
AcDbEntity
  8
PV
  6
Continuous
 62
     7
100
AcDbLine
 10
2.041999999999998
 20
95.14499999999999
 30
0.0
 11
3.216
 21
95.14499999999999
 31
0.0
  0
LINE
  5
135
330
A
100
AcDbEntity
  8
PV
  6
Continuous
 62
     7
100
AcDbLine
 10
2.339999999999998
 20
95.395
 30
0.0
 11
3.259999999999998
 21
95.395
 31
0.0
  0
LINE
  5
136
330
A
100
AcDbEntity
  8
PV
  6
Continuous
 62
     7
100
AcDbLine
 10
2.339999999999998
 20
95.395
 30
0.0
 11
2.495
 21
96.27
 31
0.0
  0
LINE
  5
137
330
A
100
AcDbEntity
  8
PV
  6
Continuous
 62
     7
100
AcDbLine
 10
2.483
 20
97.64499999999999
 30
0.0
 11
3.657
 21
97.64499999999999
 31
0.0
  0
LINE
  5
138
330
A
100
AcDbEntity
  8
PV
  6
Continuous
 62
     7
100
AcDbLine
 10
2.693
 20
97.39499999999999
 30
0.0
 11
3.612999999999998
 21
97.39499999999999
 31
0.0
  0
LINE
  5
139
330
A
100
AcDbEntity
  8
PV
  6
Continuous
 62
     7
100
AcDbLine
 10
2.539
 20
96.52000000000001
 30
0.0
 11
3.458
 21
96.52000000000001
 31
0.0
  0
LINE
  5
13A
330
A
100
AcDbEntity
  8
PV
  6
Continuous
 62
     7
100
AcDbLine
 10
2.495
 20
96.27
 30
0.0
 11
3.413999999999998
 21
96.27
 31
0.0
  0
LINE
  5
13B
330
A
100
AcDbEntity
  8
PV
  6
Continuous
 62
     7
100
AcDbLine
 10
2.539
 20
96.52000000000001
 30
0.0
 11
2.693
 21
97.39499999999999
 31
0.0
  0
LINE
  5
13C
330
A
100
AcDbEntity
  8
PV
  6
Continuous
 62
     7
100
AcDbLine
 10
3.216
 20
95.14499999999999
 30
0.0
 11
3.259999999999998
 21
95.395
 31
0.0
  0
LINE
  5
13D
330
A
100
AcDbEntity
  8
PV
  6
Continuous
 62
     7
100
AcDbLine
 10
3.413999999999998
 20
96.27
 30
0.0
 11
3.458
 21
96.52000000000001
 31
0.0
  0
LINE
  5
13E
330
A
100
AcDbEntity
  8
PV
  6
Continuous
 62
     7
100
AcDbLine
 10
3.612999999999998
 20
97.39499999999999
 30
0.0
 11
3.657
 21
97.64499999999999
 31
0.0
  0
LINE
  5
13F
330
A
100
AcDbEntity
  8
PV
  6
Continuous
 62
     7
100
AcDbLine
 10
17.56799999999999
 20
95.632
 30
0.0
 11
17.796
 21
95.77299999999999
 31
0.0
  0
LINE
  5
140
330
A
100
AcDbEntity
  8
PV
  6
Continuous
 62
     7
100
AcDbLine
 10
19.173
 20
97.15800000000001
 30
0.0
 11
18.944
 21
97.016
 31
0.0
  0
LINE
  5
141
330
A
100
AcDbEntity
  8
PV
  6
Continuous
 62
     7
100
AcDbLine
 10
18.17999999999998
 20
96.355
 30
0.0
 11
18.51
 21
96.173
 31
0.0
  0
LINE
  5
142
330
A
100
AcDbEntity
  8
PV
  6
Continuous
 62
     7
100
AcDbLine
 10
18.60599999999998
 20
96.409
 30
0.0
 11
18.271
 21
96.59
 31
0.0
  0
LINE
  5
143
330
A
100
AcDbEntity
  8
PV
  6
Continuous
 62
     7
100
AcDbLine
 10
-10.492
 20
100.0059999999999
 30
0.0
 11
20.49199999999998
 21
100.0059999999999
 31
0.0
  0
LINE
  5
144
330
A
100
AcDbEntity
  8
PV
  6
Continuous
 62
   254
100
AcDbLine
 10
0.345
 20
101.756
 30
0.0
 11
0.6440000000000002
 21
101.756
 31
0.0
  0
LINE
  5
145
330
A
100
AcDbEntity
  8
PV
  6
Continuous
 62
   254
100
AcDbLine
 10
-2.713999999999998
 20
102.204
 30
0.0
 11
-2.043
 21
102.204
 31
0.0
  0
LINE
  5
146
330
A
100
AcDbEntity
  8
PV
  6
Continuous
 62
   254
100
AcDbLine
 10
-6.222
 20
102.5029999999998
 30
0.0
 11
-5.922999999999999
 21
102.5029999999998
 31
0.0
  0
LINE
  5
147
330
A
100
AcDbEntity
  8
PV
  6
Continuous
 62
   254
100
AcDbLine
 10
-6.222
 20
101.0099999999999
 30
0.0
 11
-5.922999999999999
 21
101.0099999999999
 31
0.0
  0
LINE
  5
148
330
A
100
AcDbEntity
  8
PV
  6
Continuous
 62
   254
100
AcDbLine
 10
-6.222
 20
102.5029999999998
 30
0.0
 11
-6.222
 21
101.0099999999999
 31
0.0
  0
LINE
  5
149
330
A
100
AcDbEntity
  8
PV
  6
Continuous
 62
   254
100
AcDbLine
 10
-5.922999999999999
 20
102.5029999999998
 30
0.0
 11
-5.922999999999999
 21
101.0099999999999
 31
0.0
  0
LINE
  5
14A
330
A
100
AcDbEntity
  8
PV
  6
Continuous
 62
   254
100
AcDbLine
 10
-5.625
 20
102.5029999999998
 30
0.0
 11
-5.625
 21
102.055
 31
0.0
  0
LINE
  5
14B
330
A
100
AcDbEntity
  8
PV
  6
Continuous
 62
   254
100
AcDbLine
 10
-5.326
 20
102.204
 30
0.0
 11
-5.326
 21
102.055
 31
0.0
  0
LINE
  5
14C
330
A
100
AcDbEntity
  8
PV
  6
Continuous
 62
   254
100
AcDbLine
 10
5.046999999999998
 20
102.5029999999998
 30
0.0
 11
5.046999999999998
 21
102.204
 31
0.0
  0
LINE
  5
14D
330
A
100
AcDbEntity
  8
PV
  6
Continuous
 62
   254
100
AcDbLine
 10
-5.326
 20
101.607
 30
0.0
 11
-4.915
 21
101.607
 31
0.0
  0
LINE
  5
14E
330
A
100
AcDbEntity
  8
PV
  6
Continuous
 62
   254
100
AcDbLine
 10
-4.58
 20
102.204
 30
0.0
 11
-5.326
 21
102.204
 31
0.0
  0
LINE
  5
14F
330
A
100
AcDbEntity
  8
PV
  6
Continuous
 62
   254
100
AcDbLine
 10
-4.58
 20
101.906
 30
0.0
 11
-5.326
 21
101.906
 31
0.0
  0
LINE
  5
150
330
A
100
AcDbEntity
  8
PV
  6
Continuous
 62
   254
100
AcDbLine
 10
-5.625
 20
101.0099999999999
 30
0.0
 11
-5.326
 21
101.0099999999999
 31
0.0
  0
LINE
  5
151
330
A
100
AcDbEntity
  8
PV
  6
Continuous
 62
   254
100
AcDbLine
 10
-5.625
 20
102.5029999999998
 30
0.0
 11
-4.58
 21
102.5029999999998
 31
0.0
  0
LINE
  5
152
330
A
100
AcDbEntity
  8
PV
  6
Continuous
 62
   254
100
AcDbLine
 10
-5.326
 20
101.607
 30
0.0
 11
-5.326
 21
101.0099999999999
 31
0.0
  0
LINE
  5
153
330
A
100
AcDbEntity
  8
PV
  6
Continuous
 62
   254
100
AcDbLine
 10
-4.496999999999998
 20
101.0099999999999
 30
0.0
 11
-4.131999999999998
 21
101.0099999999999
 31
0.0
  0
LINE
  5
154
330
A
100
AcDbEntity
  8
PV
  6
Continuous
 62
   254
100
AcDbLine
 10
-3.907999999999998
 20
102.5029999999998
 30
0.0
 11
-3.609999999999998
 21
102.5029999999998
 31
0.0
  0
LINE
  5
155
330
A
100
AcDbEntity
  8
PV
  6
Continuous
 62
   254
100
AcDbLine
 10
-3.907999999999998
 20
101.0099999999999
 30
0.0
 11
-3.609999999999998
 21
101.0099999999999
 31
0.0
  0
LINE
  5
156
330
A
100
AcDbEntity
  8
PV
  6
Continuous
 62
   254
100
AcDbLine
 10
-3.907999999999998
 20
102.5029999999998
 30
0.0
 11
-3.907999999999998
 21
101.0099999999999
 31
0.0
  0
LINE
  5
157
330
A
100
AcDbEntity
  8
PV
  6
Continuous
 62
   254
100
AcDbLine
 10
-3.609999999999998
 20
102.5029999999998
 30
0.0
 11
-3.609999999999998
 21
101.0099999999999
 31
0.0
  0
LINE
  5
158
330
A
100
AcDbEntity
  8
PV
  6
Continuous
 62
   254
100
AcDbLine
 10
4.375
 20
102.5029999999998
 30
0.0
 11
5.046999999999998
 21
102.5029999999998
 31
0.0
  0
LINE
  5
159
330
A
100
AcDbEntity
  8
PV
  6
Continuous
 62
   254
100
AcDbLine
 10
4.375
 20
101.0099999999999
 30
0.0
 11
5.046999999999998
 21
101.0099999999999
 31
0.0
  0
LINE
  5
15A
330
A
100
AcDbEntity
  8
PV
  6
Continuous
 62
   254
100
AcDbLine
 10
2.136
 20
102.5029999999998
 30
0.0
 11
2.435
 21
102.5029999999998
 31
0.0
  0
LINE
  5
15B
330
A
100
AcDbEntity
  8
PV
  6
Continuous
 62
   254
100
AcDbLine
 10
2.136
 20
101.0099999999999
 30
0.0
 11
2.435
 21
101.0099999999999
 31
0.0
  0
LINE
  5
15C
330
A
100
AcDbEntity
  8
PV
  6
Continuous
 62
   254
100
AcDbLine
 10
3.953
 20
101.607
 30
0.0
 11
5.046999999999998
 21
101.607
 31
0.0
  0
LINE
  5
15D
330
A
100
AcDbEntity
  8
PV
  6
Continuous
 62
   254
100
AcDbLine
 10
3.953
 20
101.906
 30
0.0
 11
5.046999999999998
 21
101.906
 31
0.0
  0
LINE
  5
15E
330
A
100
AcDbEntity
  8
PV
  6
Continuous
 62
   254
100
AcDbLine
 10
4.375
 20
101.309
 30
0.0
 11
5.046999999999998
 21
101.309
 31
0.0
  0
LINE
  5
15F
330
A
100
AcDbEntity
  8
PV
  6
Continuous
 62
   254
100
AcDbLine
 10
4.375
 20
102.204
 30
0.0
 11
5.046999999999998
 21
102.204
 31
0.0
  0
LINE
  5
160
330
A
100
AcDbEntity
  8
PV
  6
Continuous
 62
   254
100
AcDbLine
 10
5.046999999999998
 20
101.906
 30
0.0
 11
5.046999999999998
 21
101.607
 31
0.0
  0
LINE
  5
161
330
A
100
AcDbEntity
  8
PV
  6
Continuous
 62
   254
100
AcDbLine
 10
5.046999999999998
 20
101.309
 30
0.0
 11
5.046999999999998
 21
101.0099999999999
 31
0.0
  0
LINE
  5
162
330
A
100
AcDbEntity
  8
PV
  6
Continuous
 62
   254
100
AcDbLine
 10
2.136
 20
102.5029999999998
 30
0.0
 11
2.136
 21
101.0099999999999
 31
0.0
  0
LINE
  5
163
330
A
100
AcDbEntity
  8
PV
  6
Continuous
 62
   254
100
AcDbLine
 10
2.435
 20
102.5029999999998
 30
0.0
 11
2.435
 21
101.9789999999999
 31
0.0
  0
LINE
  5
164
330
A
100
AcDbEntity
  8
PV
  6
Continuous
 62
   254
100
AcDbLine
 10
-4.131999999999998
 20
101.0099999999999
 30
0.0
 11
-4.551
 21
101.6079999999998
 31
0.0
  0
LINE
  5
165
330
A
100
AcDbEntity
  8
PV
  6
Continuous
 62
   254
100
AcDbLine
 10
-4.496999999999998
 20
101.0099999999999
 30
0.0
 11
-4.915
 21
101.607
 31
0.0
  0
LINE
  5
166
330
A
100
AcDbEntity
  8
PV
  6
Continuous
 62
   254
100
AcDbLine
 10
3.703999999999998
 20
101.0099999999999
 30
0.0
 11
3.089999999999998
 21
102.0729999999999
 31
0.0
  0
LINE
  5
167
330
A
100
AcDbEntity
  8
PV
  6
Continuous
 62
   254
100
AcDbLine
 10
3.703999999999998
 20
102.5029999999998
 30
0.0
 11
3.089999999999998
 21
102.0729999999999
 31
0.0
  0
LINE
  5
168
330
A
100
AcDbEntity
  8
PV
  6
Continuous
 62
   254
100
AcDbLine
 10
3.183
 20
102.5029999999998
 30
0.0
 11
2.435
 21
101.9789999999999
 31
0.0
  0
LINE
  5
169
330
A
100
AcDbEntity
  8
PV
  6
Continuous
 62
   254
100
AcDbLine
 10
3.358999999999998
 20
101.0099999999999
 30
0.0
 11
2.843999999999999
 21
101.901
 31
0.0
  0
LINE
  5
16A
330
A
100
AcDbEntity
  8
PV
  6
Continuous
 62
   254
100
AcDbLine
 10
2.843999999999999
 20
101.901
 30
0.0
 11
2.435
 21
101.6139999999999
 31
0.0
  0
LINE
  5
16B
330
A
100
AcDbEntity
  8
PV
  6
Continuous
 62
   254
100
AcDbLine
 10
2.435
 20
101.6139999999999
 30
0.0
 11
2.435
 21
101.0099999999999
 31
0.0
  0
LINE
  5
16C
330
A
100
AcDbEntity
  8
PV
  6
Continuous
 62
   254
100
AcDbLine
 10
3.183
 20
102.5029999999998
 30
0.0
 11
3.703999999999998
 21
102.5029999999998
 31
0.0
  0
LINE
  5
16D
330
A
100
AcDbEntity
  8
PV
  6
Continuous
 62
   254
100
AcDbLine
 10
3.358999999999998
 20
101.0099999999999
 30
0.0
 11
3.703999999999998
 21
101.0099999999999
 31
0.0
  0
LINE
  5
16E
330
A
100
AcDbEntity
  8
PV
  6
Continuous
 62
   254
100
AcDbLine
 10
9.747999999999999
 20
101.0099999999999
 30
0.0
 11
9.897999999999999
 21
101.0099999999999
 31
0.0
  0
LINE
  5
16F
330
A
100
AcDbEntity
  8
PV
  6
Continuous
 62
   254
100
AcDbLine
 10
9.747999999999999
 20
102.5029999999998
 30
0.0
 11
9.897999999999999
 21
102.5029999999998
 31
0.0
  0
LINE
  5
170
330
A
100
AcDbEntity
  8
PV
  6
Continuous
 62
   254
100
AcDbLine
 10
8.926999999999997
 20
101.012
 30
0.0
 11
8.926999999999997
 21
101.309
 31
0.0
  0
LINE
  5
171
330
A
100
AcDbEntity
  8
PV
  6
Continuous
 62
   254
100
AcDbLine
 10
9.747999999999999
 20
101.309
 30
0.0
 11
9.897999999999999
 21
101.309
 31
0.0
  0
LINE
  5
172
330
A
100
AcDbEntity
  8
PV
  6
Continuous
 62
   254
100
AcDbLine
 10
9.747999999999999
 20
102.204
 30
0.0
 11
9.897999999999999
 21
102.204
 31
0.0
  0
LINE
  5
173
330
A
100
AcDbEntity
  8
PV
  6
Continuous
 62
   254
100
AcDbLine
 10
-1.147
 20
102.5029999999998
 30
0.0
 11
-0.849
 21
102.5029999999998
 31
0.0
  0
LINE
  5
174
330
A
100
AcDbEntity
  8
PV
  6
Continuous
 62
   254
100
AcDbLine
 10
-1.147
 20
101.0099999999999
 30
0.0
 11
-0.849
 21
101.0099999999999
 31
0.0
  0
LINE
  5
175
330
A
100
AcDbEntity
  8
PV
  6
Continuous
 62
   254
100
AcDbLine
 10
-1.147
 20
102.5029999999998
 30
0.0
 11
-1.147
 21
101.0099999999999
 31
0.0
  0
LINE
  5
176
330
A
100
AcDbEntity
  8
PV
  6
Continuous
 62
   254
100
AcDbLine
 10
-0.849
 20
102.5029999999998
 30
0.0
 11
-0.849
 21
101.9789999999999
 31
0.0
  0
LINE
  5
177
330
A
100
AcDbEntity
  8
PV
  6
Continuous
 62
   254
100
AcDbLine
 10
0.4200000000000001
 20
101.0099999999999
 30
0.0
 11
-0.194
 21
102.0729999999999
 31
0.0
  0
LINE
  5
178
330
A
100
AcDbEntity
  8
PV
  6
Continuous
 62
   254
100
AcDbLine
 10
0.4200000000000001
 20
102.5029999999998
 30
0.0
 11
-0.194
 21
102.0729999999999
 31
0.0
  0
LINE
  5
179
330
A
100
AcDbEntity
  8
PV
  6
Continuous
 62
   254
100
AcDbLine
 10
-0.1
 20
102.5029999999998
 30
0.0
 11
-0.849
 21
101.9789999999999
 31
0.0
  0
LINE
  5
17A
330
A
100
AcDbEntity
  8
PV
  6
Continuous
 62
   254
100
AcDbLine
 10
0.075
 20
101.0099999999999
 30
0.0
 11
-0.439
 21
101.901
 31
0.0
  0
LINE
  5
17B
330
A
100
AcDbEntity
  8
PV
  6
Continuous
 62
   254
100
AcDbLine
 10
-0.439
 20
101.901
 30
0.0
 11
-0.849
 21
101.6139999999999
 31
0.0
  0
LINE
  5
17C
330
A
100
AcDbEntity
  8
PV
  6
Continuous
 62
   254
100
AcDbLine
 10
-0.849
 20
101.6139999999999
 30
0.0
 11
-0.849
 21
101.0099999999999
 31
0.0
  0
LINE
  5
17D
330
A
100
AcDbEntity
  8
PV
  6
Continuous
 62
   254
100
AcDbLine
 10
-0.1
 20
102.5029999999998
 30
0.0
 11
0.4200000000000001
 21
102.5029999999998
 31
0.0
  0
LINE
  5
17E
330
A
100
AcDbEntity
  8
PV
  6
Continuous
 62
   254
100
AcDbLine
 10
0.075
 20
101.0099999999999
 30
0.0
 11
0.4200000000000001
 21
101.0099999999999
 31
0.0
  0
LINE
  5
17F
330
A
100
AcDbEntity
  8
PV
  6
Continuous
 62
   254
100
AcDbLine
 10
-2.043
 20
102.5029999999998
 30
0.0
 11
-2.043
 21
102.204
 31
0.0
  0
LINE
  5
180
330
A
100
AcDbEntity
  8
PV
  6
Continuous
 62
   254
100
AcDbLine
 10
-2.713999999999998
 20
102.5029999999998
 30
0.0
 11
-2.043
 21
102.5029999999998
 31
0.0
  0
LINE
  5
181
330
A
100
AcDbEntity
  8
PV
  6
Continuous
 62
   254
100
AcDbLine
 10
-2.713999999999998
 20
101.0099999999999
 30
0.0
 11
-2.043
 21
101.0099999999999
 31
0.0
  0
LINE
  5
182
330
A
100
AcDbEntity
  8
PV
  6
Continuous
 62
   254
100
AcDbLine
 10
-3.137
 20
101.607
 30
0.0
 11
-2.043
 21
101.607
 31
0.0
  0
LINE
  5
183
330
A
100
AcDbEntity
  8
PV
  6
Continuous
 62
   254
100
AcDbLine
 10
-3.137
 20
101.906
 30
0.0
 11
-2.043
 21
101.906
 31
0.0
  0
LINE
  5
184
330
A
100
AcDbEntity
  8
PV
  6
Continuous
 62
   254
100
AcDbLine
 10
-2.713999999999998
 20
101.309
 30
0.0
 11
-2.043
 21
101.309
 31
0.0
  0
LINE
  5
185
330
A
100
AcDbEntity
  8
PV
  6
Continuous
 62
   254
100
AcDbLine
 10
-2.043
 20
101.906
 30
0.0
 11
-2.043
 21
101.607
 31
0.0
  0
LINE
  5
186
330
A
100
AcDbEntity
  8
PV
  6
Continuous
 62
   254
100
AcDbLine
 10
-2.043
 20
101.309
 30
0.0
 11
-2.043
 21
101.0099999999999
 31
0.0
  0
LINE
  5
187
330
A
100
AcDbEntity
  8
PV
  6
Continuous
 62
   254
100
AcDbLine
 10
8.181
 20
101.0099999999999
 30
0.0
 11
8.926999999999997
 21
101.0099999999999
 31
0.0
  0
LINE
  5
188
330
A
100
AcDbEntity
  8
PV
  6
Continuous
 62
   254
100
AcDbLine
 10
8.181
 20
102.5029999999998
 30
0.0
 11
8.926999999999997
 21
102.5029999999998
 31
0.0
  0
LINE
  5
189
330
A
100
AcDbEntity
  8
PV
  6
Continuous
 62
   254
100
AcDbLine
 10
8.181
 20
101.309
 30
0.0
 11
8.926999999999997
 21
101.309
 31
0.0
  0
LINE
  5
18A
330
A
100
AcDbEntity
  8
PV
  6
Continuous
 62
   254
100
AcDbLine
 10
8.181
 20
102.204
 30
0.0
 11
8.926999999999997
 21
102.204
 31
0.0
  0
LINE
  5
18B
330
A
100
AcDbEntity
  8
PV
  6
Continuous
 62
   254
100
AcDbLine
 10
8.926999999999997
 20
102.204
 30
0.0
 11
8.926999999999997
 21
102.5029999999998
 31
0.0
  0
LINE
  5
18C
330
A
100
AcDbEntity
  8
PV
  6
Continuous
 62
   254
100
AcDbLine
 10
12.21099999999998
 20
101.0099999999999
 30
0.0
 11
12.957
 21
101.0099999999999
 31
0.0
  0
LINE
  5
18D
330
A
100
AcDbEntity
  8
PV
  6
Continuous
 62
   254
100
AcDbLine
 10
5.272999999999998
 20
101.0099999999999
 30
0.0
 11
5.568999999999999
 21
101.0099999999999
 31
0.0
  0
LINE
  5
18E
330
A
100
AcDbEntity
  8
PV
  6
Continuous
 62
   254
100
AcDbLine
 10
5.942
 20
102.5029999999998
 30
0.0
 11
6.092
 21
102.5029999999998
 31
0.0
  0
LINE
  5
18F
330
A
100
AcDbEntity
  8
PV
  6
Continuous
 62
   254
100
AcDbLine
 10
5.270999999999999
 20
101.831
 30
0.0
 11
5.270999999999999
 21
101.0099999999999
 31
0.0
  0
LINE
  5
190
330
A
100
AcDbEntity
  8
PV
  6
Continuous
 62
   254
100
AcDbLine
 10
6.762999999999999
 20
101.831
 30
0.0
 11
6.762999999999999
 21
101.0099999999999
 31
0.0
  0
LINE
  5
191
330
A
100
AcDbEntity
  8
PV
  6
Continuous
 62
   254
100
AcDbLine
 10
5.942
 20
102.204
 30
0.0
 11
6.092
 21
102.204
 31
0.0
  0
LINE
  5
192
330
A
100
AcDbEntity
  8
PV
  6
Continuous
 62
   254
100
AcDbLine
 10
5.568999999999999
 20
101.831
 30
0.0
 11
5.568999999999999
 21
101.0099999999999
 31
0.0
  0
LINE
  5
193
330
A
100
AcDbEntity
  8
PV
  6
Continuous
 62
   254
100
AcDbLine
 10
6.464999999999998
 20
101.831
 30
0.0
 11
6.464999999999998
 21
101.0099999999999
 31
0.0
  0
LINE
  5
194
330
A
100
AcDbEntity
  8
PV
  6
Continuous
 62
   254
100
AcDbLine
 10
6.464999999999998
 20
101.0099999999999
 30
0.0
 11
6.762999999999999
 21
101.0099999999999
 31
0.0
  0
LINE
  5
195
330
A
100
AcDbEntity
  8
PV
  6
Continuous
 62
   254
100
AcDbLine
 10
1.092
 20
101.0099999999999
 30
0.0
 11
1.240999999999998
 21
101.0099999999999
 31
0.0
  0
LINE
  5
196
330
A
100
AcDbEntity
  8
PV
  6
Continuous
 62
   254
100
AcDbLine
 10
1.092
 20
102.5029999999998
 30
0.0
 11
1.240999999999998
 21
102.5029999999998
 31
0.0
  0
LINE
  5
197
330
A
100
AcDbEntity
  8
PV
  6
Continuous
 62
   254
100
AcDbLine
 10
1.092
 20
101.309
 30
0.0
 11
1.240999999999998
 21
101.309
 31
0.0
  0
LINE
  5
198
330
A
100
AcDbEntity
  8
PV
  6
Continuous
 62
   254
100
AcDbLine
 10
1.092
 20
102.204
 30
0.0
 11
1.240999999999998
 21
102.204
 31
0.0
  0
LINE
  5
199
330
A
100
AcDbEntity
  8
PV
  6
Continuous
 62
   254
100
AcDbLine
 10
11.16999999999999
 20
100.7859999999999
 30
0.0
 11
11.414
 21
101.077
 31
0.0
  0
LINE
  5
19A
330
A
100
AcDbEntity
  8
PV
  6
Continuous
 62
   254
100
AcDbLine
 10
11.05599999999999
 20
100.882
 30
0.0
 11
11.182
 21
101.0329999999999
 31
0.0
  0
LINE
  5
19B
330
A
100
AcDbEntity
  8
PV
  6
Continuous
 62
   254
100
AcDbLine
 10
11.05599999999999
 20
100.882
 30
0.0
 11
11.16999999999999
 21
100.7859999999999
 31
0.0
  0
LINE
  5
19C
330
A
100
AcDbEntity
  8
PV
  6
Continuous
 62
   254
100
AcDbLine
 10
11.614
 20
102.5029999999998
 30
0.0
 11
11.614
 21
101.607
 31
0.0
  0
LINE
  5
19D
330
A
100
AcDbEntity
  8
PV
  6
Continuous
 62
   254
100
AcDbLine
 10
12.957
 20
101.309
 30
0.0
 11
12.957
 21
101.0099999999999
 31
0.0
  0
LINE
  5
19E
330
A
100
AcDbEntity
  8
PV
  6
Continuous
 62
   254
100
AcDbLine
 10
11.913
 20
102.5029999999998
 30
0.0
 11
11.913
 21
101.607
 31
0.0
  0
LINE
  5
19F
330
A
100
AcDbEntity
  8
PV
  6
Continuous
 62
   254
100
AcDbLine
 10
12.21099999999998
 20
101.309
 30
0.0
 11
12.957
 21
101.309
 31
0.0
  0
LINE
  5
1A0
330
A
100
AcDbEntity
  8
PV
  6
Continuous
 62
   254
100
AcDbLine
 10
14.45
 20
101.0099999999999
 30
0.0
 11
15.27099999999999
 21
101.0099999999999
 31
0.0
  0
LINE
  5
1A1
330
A
100
AcDbEntity
  8
PV
  6
Continuous
 62
   254
100
AcDbLine
 10
11.614
 20
102.5029999999998
 30
0.0
 11
11.913
 21
102.5029999999998
 31
0.0
  0
LINE
  5
1A2
330
A
100
AcDbEntity
  8
PV
  6
Continuous
 62
   254
100
AcDbLine
 10
12.808
 20
102.5029999999998
 30
0.0
 11
14.30099999999999
 21
102.5029999999998
 31
0.0
  0
LINE
  5
1A3
330
A
100
AcDbEntity
  8
PV
  6
Continuous
 62
   254
100
AcDbLine
 10
12.808
 20
102.5029999999998
 30
0.0
 11
12.808
 21
102.204
 31
0.0
  0
LINE
  5
1A4
330
A
100
AcDbEntity
  8
PV
  6
Continuous
 62
   254
100
AcDbLine
 10
14.30099999999999
 20
102.5029999999998
 30
0.0
 11
14.30099999999999
 21
102.204
 31
0.0
  0
LINE
  5
1A5
330
A
100
AcDbEntity
  8
PV
  6
Continuous
 62
   254
100
AcDbLine
 10
12.808
 20
102.204
 30
0.0
 11
13.405
 21
102.204
 31
0.0
  0
LINE
  5
1A6
330
A
100
AcDbEntity
  8
PV
  6
Continuous
 62
   254
100
AcDbLine
 10
13.704
 20
102.204
 30
0.0
 11
13.704
 21
101.0099999999999
 31
0.0
  0
LINE
  5
1A7
330
A
100
AcDbEntity
  8
PV
  6
Continuous
 62
   254
100
AcDbLine
 10
13.405
 20
102.204
 30
0.0
 11
13.405
 21
101.0099999999999
 31
0.0
  0
LINE
  5
1A8
330
A
100
AcDbEntity
  8
PV
  6
Continuous
 62
   254
100
AcDbLine
 10
14.748
 20
102.204
 30
0.0
 11
15.27099999999999
 21
102.204
 31
0.0
  0
LINE
  5
1A9
330
A
100
AcDbEntity
  8
PV
  6
Continuous
 62
   254
100
AcDbLine
 10
14.45
 20
102.5029999999998
 30
0.0
 11
15.27099999999999
 21
102.5029999999998
 31
0.0
  0
LINE
  5
1AA
330
A
100
AcDbEntity
  8
PV
  6
Continuous
 62
   254
100
AcDbLine
 10
13.704
 20
102.204
 30
0.0
 11
14.30099999999999
 21
102.204
 31
0.0
  0
LINE
  5
1AB
330
A
100
AcDbEntity
  8
PV
  6
Continuous
 62
   254
100
AcDbLine
 10
13.405
 20
101.0099999999999
 30
0.0
 11
13.704
 21
101.0099999999999
 31
0.0
  0
LINE
  5
1AC
330
A
100
AcDbEntity
  8
PV
  6
Continuous
 62
   254
100
AcDbLine
 10
14.45
 20
102.5029999999998
 30
0.0
 11
14.45
 21
101.756
 31
0.0
  0
LINE
  5
1AD
330
A
100
AcDbEntity
  8
PV
  6
Continuous
 62
   254
100
AcDbLine
 10
14.748
 20
101.309
 30
0.0
 11
15.27099999999999
 21
101.309
 31
0.0
  0
LINE
  5
1AE
330
A
100
AcDbEntity
  8
PV
  6
Continuous
 62
   254
100
AcDbLine
 10
14.748
 20
102.204
 30
0.0
 11
14.748
 21
101.756
 31
0.0
  0
LINE
  5
1AF
330
A
100
AcDbEntity
  8
PV
  6
Continuous
 62
   254
100
AcDbLine
 10
-5.625
 20
102.055
 30
0.0
 11
-5.625
 21
101.0099999999999
 31
0.0
  0
LINE
  5
1B0
330
A
100
AcDbEntity
  8
PV
  6
Continuous
 62
   254
100
AcDbLine
 10
-5.326
 20
102.055
 30
0.0
 11
-5.326
 21
101.906
 31
0.0
  0
LINE
  5
1B1
330
A
100
AcDbEntity
  8
PV
  6
Continuous
 62
   254
100
AcDbLine
 10
-5.625
 20
102.055
 30
0.0
 11
-5.326
 21
102.055
 31
0.0
  0
LINE
  5
1B2
330
A
100
AcDbEntity
  8
PV
  6
Continuous
 62
   254
100
AcDbLine
 10
-4.431
 20
102.055
 30
0.0
 11
-4.131999999999998
 21
102.055
 31
0.0
  0
LINE
  5
1B3
330
A
100
AcDbEntity
  8
PV
  6
Continuous
 62
   254
100
AcDbLine
 10
1.689
 20
101.756
 30
0.0
 11
1.986999999999999
 21
101.756
 31
0.0
  0
LINE
  5
1B4
330
A
100
AcDbEntity
  8
PV
  6
Continuous
 62
   254
100
AcDbLine
 10
9.002
 20
101.756
 30
0.0
 11
9.301
 21
101.756
 31
0.0
  0
LINE
  5
1B5
330
A
100
AcDbEntity
  8
PV
  6
Continuous
 62
   254
100
AcDbLine
 10
10.345
 20
101.756
 30
0.0
 11
10.644
 21
101.756
 31
0.0
  0
LINE
  5
1B6
330
A
100
AcDbEntity
  8
PV
  6
Continuous
 62
   254
100
AcDbLine
 10
14.45
 20
101.756
 30
0.0
 11
14.748
 21
101.756
 31
0.0
  0
LINE
  5
1B7
330
A
100
AcDbEntity
  8
PV
  6
Continuous
 62
   254
100
AcDbLine
 10
15.719
 20
101.756
 30
0.0
 11
16.017
 21
101.756
 31
0.0
  0
LINE
  5
1B8
330
A
100
AcDbEntity
  8
PV
  6
Continuous
 62
   254
100
AcDbLine
 10
14.45
 20
101.756
 30
0.0
 11
14.45
 21
101.0099999999999
 31
0.0
  0
LINE
  5
1B9
330
A
100
AcDbEntity
  8
PV
  6
Continuous
 62
   254
100
AcDbLine
 10
14.748
 20
101.756
 30
0.0
 11
14.748
 21
101.309
 31
0.0
  0
LINE
  5
1BA
330
A
100
AcDbEntity
  8
PV
  6
Continuous
 62
     7
100
AcDbLine
 10
0.6850000000000001
 20
106.516
 30
0.0
 11
0.6850000000000001
 21
104.516
 31
0.0
  0
LINE
  5
1BB
330
A
100
AcDbEntity
  8
PV
  6
Continuous
 62
     7
100
AcDbLine
 10
0.6850000000000001
 20
104.516
 30
0.0
 11
2.185
 21
104.516
 31
0.0
  0
LINE
  5
1BC
330
A
100
AcDbEntity
  8
PV
  6
Continuous
 62
     7
100
AcDbLine
 10
2.185
 20
106.516
 30
0.0
 11
2.185
 21
104.516
 31
0.0
  0
LINE
  5
1BD
330
A
100
AcDbEntity
  8
PV
  6
Continuous
 62
     7
100
AcDbLine
 10
2.569999999999998
 20
104.516
 30
0.0
 11
3.919999999999998
 21
104.516
 31
0.0
  0
LINE
  5
1BE
330
A
100
AcDbEntity
  8
PV
  6
Continuous
 62
     7
100
AcDbLine
 10
2.569999999999998
 20
107.266
 30
0.0
 11
3.919999999999998
 21
107.266
 31
0.0
  0
LINE
  5
1BF
330
A
100
AcDbEntity
  8
PV
  6
Continuous
 62
     7
100
AcDbLine
 10
2.569999999999998
 20
107.266
 30
0.0
 11
2.569999999999998
 21
104.516
 31
0.0
  0
LINE
  5
1C0
330
A
100
AcDbEntity
  8
PV
  6
Continuous
 62
     7
100
AcDbLine
 10
3.919999999999998
 20
107.266
 30
0.0
 11
3.919999999999998
 21
104.516
 31
0.0
  0
LINE
  5
1C1
330
A
100
AcDbEntity
  8
PV
  6
Continuous
 62
     7
100
AcDbLine
 10
5.315999999999998
 20
107.2869999999999
 30
0.0
 11
5.315999999999998
 21
106.641
 31
0.0
  0
LINE
  5
1C2
330
A
100
AcDbEntity
  8
PV
  6
Continuous
 62
     7
100
AcDbLine
 10
8.868
 20
106.591
 30
0.0
 11
8.868
 21
105.191
 31
0.0
  0
LINE
  5
1C3
330
A
100
AcDbEntity
  8
PV
  6
Continuous
 62
     7
100
AcDbLine
 10
0.6850000000000001
 20
106.516
 30
0.0
 11
2.185
 21
106.516
 31
0.0
  0
LINE
  5
1C4
330
A
100
AcDbEntity
  8
PV
  6
Continuous
 62
     7
100
AcDbLine
 10
5.315999999999998
 20
105.141
 30
0.0
 11
5.315999999999998
 21
104.495
 31
0.0
  0
LINE
  5
1C5
330
A
100
AcDbEntity
  8
PV
  6
Continuous
 62
     7
100
AcDbLine
 10
5.315999999999998
 20
106.641
 30
0.0
 11
5.315999999999998
 21
105.141
 31
0.0
  0
LINE
  5
1C6
330
A
100
AcDbEntity
  8
PV
  6
Continuous
 62
     7
100
AcDbLine
 10
14.615
 20
82.428
 30
0.0
 11
16.653
 21
83.67700000000002
 31
0.0
  0
LINE
  5
1C7
330
A
100
AcDbEntity
  8
PV
  6
Continuous
 62
     7
100
AcDbLine
 10
15.293
 20
81.712
 30
0.0
 11
16.653
 21
83.67700000000002
 31
0.0
  0
LINE
  5
1C8
330
A
100
AcDbEntity
  8
PV
  6
Continuous
 62
     7
100
AcDbLine
 10
-5.270999999999999
 20
81.753
 30
0.0
 11
-6.596
 21
83.742
 31
0.0
  0
LINE
  5
1C9
330
A
100
AcDbEntity
  8
PV
  6
Continuous
 62
     7
100
AcDbLine
 10
-4.581
 20
82.458
 30
0.0
 11
-6.596
 21
83.742
 31
0.0
  0
ARC
  5
1CA
330
A
100
AcDbEntity
  8
PV
  6
Continuous
 62
     7
100
AcDbCircle
 10
18.245
 20
95.80899999999999
 30
0.0
 40
0.7
100
AcDbArc
 50
194.702455
 51
58.91297
  0
ARC
  5
1CB
330
A
100
AcDbEntity
  8
PV
  6
Continuous
 62
     7
100
AcDbCircle
 10
18.245
 20
95.80899999999999
 30
0.0
 40
0.45
100
AcDbArc
 50
184.58491
 51
53.886818
  0
ARC
  5
1CC
330
A
100
AcDbEntity
  8
PV
  6
Continuous
 62
     7
100
AcDbCircle
 10
18.49599999999998
 20
96.98
 30
0.0
 40
0.7
100
AcDbArc
 50
14.70246199999999
 51
243.207545
  0
ARC
  5
1CD
330
A
100
AcDbEntity
  8
PV
  6
Continuous
 62
     7
100
AcDbCircle
 10
18.49599999999998
 20
96.98
 30
0.0
 40
0.45
100
AcDbArc
 50
4.584908
 51
240.0678709999999
  0
ARC
  5
1CE
330
A
100
AcDbEntity
  8
PV
  6
Continuous
 62
   254
100
AcDbCircle
 10
9.897999999999999
 20
101.756
 30
0.0
 40
0.746
100
AcDbArc
 50
359.999996
 51
89.999975
  0
ARC
  5
1CF
330
A
100
AcDbEntity
  8
PV
  6
Continuous
 62
   254
100
AcDbCircle
 10
-4.58
 20
102.055
 30
0.0
 40
0.448
100
AcDbArc
 50
273.7218359999999
 51
359.999996
  0
ARC
  5
1D0
330
A
100
AcDbEntity
  8
PV
  6
Continuous
 62
   254
100
AcDbCircle
 10
-4.58
 20
102.055
 30
0.0
 40
0.149
100
AcDbArc
 50
270.0000109999999
 51
359.999996
  0
ARC
  5
1D1
330
A
100
AcDbEntity
  8
PV
  6
Continuous
 62
   254
100
AcDbCircle
 10
4.375
 20
101.756
 30
0.0
 40
0.746
100
AcDbArc
 50
89.999975
 51
270.000001
  0
ARC
  5
1D2
330
A
100
AcDbEntity
  8
PV
  6
Continuous
 62
   254
100
AcDbCircle
 10
4.375
 20
101.756
 30
0.0
 40
0.448
100
AcDbArc
 50
89.999975
 51
160.528775
  0
ARC
  5
1D3
330
A
100
AcDbEntity
  8
PV
  6
Continuous
 62
   254
100
AcDbCircle
 10
4.375
 20
101.756
 30
0.0
 40
0.448
100
AcDbArc
 50
199.471211
 51
270.0000109999999
  0
ARC
  5
1D4
330
A
100
AcDbEntity
  8
PV
  6
Continuous
 62
   254
100
AcDbCircle
 10
9.747999999999999
 20
101.756
 30
0.0
 40
0.746
100
AcDbArc
 50
89.999975
 51
179.99995
  0
ARC
  5
1D5
330
A
100
AcDbEntity
  8
PV
  6
Continuous
 62
   254
100
AcDbCircle
 10
9.897999999999999
 20
101.756
 30
0.0
 40
0.746
100
AcDbArc
 50
270.0000109999999
 51
359.999996
  0
ARC
  5
1D6
330
A
100
AcDbEntity
  8
PV
  6
Continuous
 62
   254
100
AcDbCircle
 10
9.747999999999999
 20
101.756
 30
0.0
 40
0.448
100
AcDbArc
 50
89.999975
 51
179.99995
  0
ARC
  5
1D7
330
A
100
AcDbEntity
  8
PV
  6
Continuous
 62
   254
100
AcDbCircle
 10
9.897999999999999
 20
101.756
 30
0.0
 40
0.448
100
AcDbArc
 50
270.0000109999999
 51
359.999996
  0
ARC
  5
1D8
330
A
100
AcDbEntity
  8
PV
  6
Continuous
 62
   254
100
AcDbCircle
 10
-2.713999999999998
 20
101.756
 30
0.0
 40
0.746
100
AcDbArc
 50
89.999975
 51
270.000001
  0
ARC
  5
1D9
330
A
100
AcDbEntity
  8
PV
  6
Continuous
 62
   254
100
AcDbCircle
 10
-2.713999999999998
 20
101.756
 30
0.0
 40
0.448
100
AcDbArc
 50
89.999975
 51
160.528775
  0
ARC
  5
1DA
330
A
100
AcDbEntity
  8
PV
  6
Continuous
 62
   254
100
AcDbCircle
 10
-2.713999999999998
 20
101.756
 30
0.0
 40
0.448
100
AcDbArc
 50
199.471211
 51
270.0000109999999
  0
ARC
  5
1DB
330
A
100
AcDbEntity
  8
PV
  6
Continuous
 62
   254
100
AcDbCircle
 10
5.942
 20
101.831
 30
0.0
 40
0.6720000000000002
100
AcDbArc
 50
89.999975
 51
179.99995
  0
ARC
  5
1DC
330
A
100
AcDbEntity
  8
PV
  6
Continuous
 62
   254
100
AcDbCircle
 10
6.092
 20
101.831
 30
0.0
 40
0.6720000000000002
100
AcDbArc
 50
359.999996
 51
89.999975
  0
ARC
  5
1DD
330
A
100
AcDbEntity
  8
PV
  6
Continuous
 62
   254
100
AcDbCircle
 10
5.942
 20
101.831
 30
0.0
 40
0.373
100
AcDbArc
 50
89.999975
 51
179.99995
  0
ARC
  5
1DE
330
A
100
AcDbEntity
  8
PV
  6
Continuous
 62
   254
100
AcDbCircle
 10
6.092
 20
101.831
 30
0.0
 40
0.373
100
AcDbArc
 50
359.999996
 51
89.999975
  0
ARC
  5
1DF
330
A
100
AcDbEntity
  8
PV
  6
Continuous
 62
   254
100
AcDbCircle
 10
1.092
 20
101.756
 30
0.0
 40
0.746
100
AcDbArc
 50
89.999975
 51
179.99995
  0
ARC
  5
1E0
330
A
100
AcDbEntity
  8
PV
  6
Continuous
 62
   254
100
AcDbCircle
 10
1.240999999999998
 20
101.756
 30
0.0
 40
0.746
100
AcDbArc
 50
270.0000109999999
 51
359.999996
  0
ARC
  5
1E1
330
A
100
AcDbEntity
  8
PV
  6
Continuous
 62
   254
100
AcDbCircle
 10
1.092
 20
101.756
 30
0.0
 40
0.448
100
AcDbArc
 50
89.999975
 51
179.99995
  0
ARC
  5
1E2
330
A
100
AcDbEntity
  8
PV
  6
Continuous
 62
   254
100
AcDbCircle
 10
1.240999999999998
 20
101.756
 30
0.0
 40
0.448
100
AcDbArc
 50
270.0000109999999
 51
359.999996
  0
ARC
  5
1E3
330
A
100
AcDbEntity
  8
PV
  6
Continuous
 62
   254
100
AcDbCircle
 10
11.27099999999999
 20
101.197
 30
0.0
 40
0.187
100
AcDbArc
 50
319.9999189999998
 51
241.536827
  0
CIRCLE
  5
1E4
330
A
100
AcDbEntity
  8
PV
  6
Continuous
 62
   254
100
AcDbCircle
 10
10.79299999999999
 20
101.197
 30
0.0
 40
0.187
  0
ARC
  5
1E5
330
A
100
AcDbEntity
  8
PV
  6
Continuous
 62
   254
100
AcDbCircle
 10
12.21099999999998
 20
101.607
 30
0.0
 40
0.597
100
AcDbArc
 50
179.999978
 51
270.000001
  0
ARC
  5
1E6
330
A
100
AcDbEntity
  8
PV
  6
Continuous
 62
   254
100
AcDbCircle
 10
12.21099999999998
 20
101.607
 30
0.0
 40
0.299
100
AcDbArc
 50
179.999978
 51
270.000001
  0
ARC
  5
1E7
330
A
100
AcDbEntity
  8
PV
  6
Continuous
 62
   254
100
AcDbCircle
 10
15.27099999999999
 20
101.756
 30
0.0
 40
0.746
100
AcDbArc
 50
270.0000109999999
 51
359.999996
  0
ARC
  5
1E8
330
A
100
AcDbEntity
  8
PV
  6
Continuous
 62
   254
100
AcDbCircle
 10
15.27099999999999
 20
101.756
 30
0.0
 40
0.448
100
AcDbArc
 50
270.0000109999999
 51
359.999996
  0
ARC
  5
1E9
330
A
100
AcDbEntity
  8
PV
  6
Continuous
 62
   254
100
AcDbCircle
 10
8.181
 20
101.756
 30
0.0
 40
0.746
100
AcDbArc
 50
89.999975
 51
270.000001
  0
ARC
  5
1EA
330
A
100
AcDbEntity
  8
PV
  6
Continuous
 62
   254
100
AcDbCircle
 10
8.181
 20
101.756
 30
0.0
 40
0.448
100
AcDbArc
 50
89.999975
 51
270.000001
  0
ARC
  5
1EB
330
A
100
AcDbEntity
  8
PV
  6
Continuous
 62
   254
100
AcDbCircle
 10
-4.58
 20
102.055
 30
0.0
 40
0.149
100
AcDbArc
 50
359.999996
 51
89.999975
  0
ARC
  5
1EC
330
A
100
AcDbEntity
  8
PV
  6
Continuous
 62
   254
100
AcDbCircle
 10
-4.58
 20
102.055
 30
0.0
 40
0.448
100
AcDbArc
 50
359.999996
 51
89.999975
  0
ARC
  5
1ED
330
A
100
AcDbEntity
  8
PV
  6
Continuous
 62
   254
100
AcDbCircle
 10
1.240999999999998
 20
101.756
 30
0.0
 40
0.746
100
AcDbArc
 50
359.999996
 51
89.999975
  0
ARC
  5
1EE
330
A
100
AcDbEntity
  8
PV
  6
Continuous
 62
   254
100
AcDbCircle
 10
1.240999999999998
 20
101.756
 30
0.0
 40
0.448
100
AcDbArc
 50
359.999996
 51
89.999975
  0
ARC
  5
1EF
330
A
100
AcDbEntity
  8
PV
  6
Continuous
 62
   254
100
AcDbCircle
 10
1.092
 20
101.756
 30
0.0
 40
0.448
100
AcDbArc
 50
179.999978
 51
270.000001
  0
ARC
  5
1F0
330
A
100
AcDbEntity
  8
PV
  6
Continuous
 62
   254
100
AcDbCircle
 10
1.092
 20
101.756
 30
0.0
 40
0.746
100
AcDbArc
 50
179.999978
 51
270.000001
  0
ARC
  5
1F1
330
A
100
AcDbEntity
  8
PV
  6
Continuous
 62
   254
100
AcDbCircle
 10
9.747999999999999
 20
101.756
 30
0.0
 40
0.746
100
AcDbArc
 50
179.999978
 51
270.000001
  0
ARC
  5
1F2
330
A
100
AcDbEntity
  8
PV
  6
Continuous
 62
   254
100
AcDbCircle
 10
9.747999999999999
 20
101.756
 30
0.0
 40
0.448
100
AcDbArc
 50
179.999978
 51
270.000001
  0
ARC
  5
1F3
330
A
100
AcDbEntity
  8
PV
  6
Continuous
 62
   254
100
AcDbCircle
 10
9.897999999999999
 20
101.756
 30
0.0
 40
0.448
100
AcDbArc
 50
359.999996
 51
89.999975
  0
ARC
  5
1F4
330
A
100
AcDbEntity
  8
PV
  6
Continuous
 62
   254
100
AcDbCircle
 10
15.27099999999999
 20
101.756
 30
0.0
 40
0.448
100
AcDbArc
 50
359.999996
 51
90.00003000000003
  0
ARC
  5
1F5
330
A
100
AcDbEntity
  8
PV
  6
Continuous
 62
   254
100
AcDbCircle
 10
15.27099999999999
 20
101.756
 30
0.0
 40
0.746
100
AcDbArc
 50
359.999996
 51
90.00003000000003
  0
ARC
  5
1F6
330
A
100
AcDbEntity
  8
PV
  6
Continuous
 62
     7
100
AcDbCircle
 10
1.435
 20
106.516
 30
0.0
 40
0.75
100
AcDbArc
 50
0.0
 51
180.000005
  0
ARC
  5
1F7
330
A
100
AcDbEntity
  8
PV
  6
Continuous
 62
     7
100
AcDbCircle
 10
1.435
 20
106.516
 30
0.0
 40
0.75
100
AcDbArc
 50
179.9999909999999
 51
0.00001
  0
ARC
  5
1F8
330
A
100
AcDbEntity
  8
PV
  6
Continuous
 62
     7
100
AcDbCircle
 10
5.315999999999998
 20
105.891
 30
0.0
 40
1.395999999999999
100
AcDbArc
 50
90.00000300000001
 51
270.000001
  0
ARC
  5
1F9
330
A
100
AcDbEntity
  8
PV
  6
Continuous
 62
     7
100
AcDbCircle
 10
5.315999999999998
 20
105.891
 30
0.0
 40
0.75
100
AcDbArc
 50
90.00000300000001
 51
270.000001
  0
ARC
  5
1FA
330
A
100
AcDbEntity
  8
PV
  6
Continuous
 62
     7
100
AcDbCircle
 10
5.315999999999998
 20
105.891
 30
0.0
 40
0.75
100
AcDbArc
 50
269.9999969999999
 51
90.00000300000001
  0
ARC
  5
1FB
330
A
100
AcDbEntity
  8
PV
  6
Continuous
 62
     7
100
AcDbCircle
 10
7.644999999999998
 20
105.891
 30
0.0
 40
1.375
100
AcDbArc
 50
30.587561
 51
329.4124279999998
  0
ARC
  5
1FC
330
A
100
AcDbEntity
  8
PV
  6
Continuous
 62
     7
100
AcDbCircle
 10
8.849999999999997
 20
105.891
 30
0.0
 40
0.7
100
AcDbArc
 50
91.745976
 51
268.254013
  0
ARC
  5
1FD
330
A
100
AcDbEntity
  8
PV
  6
Continuous
 62
     7
100
AcDbCircle
 10
8.886000000000002
 20
105.891
 30
0.0
 40
0.7
100
AcDbArc
 50
265.3970849999999
 51
94.602915
  0
ARC
  5
1FE
330
A
100
AcDbEntity
  8
PV
  6
Continuous
 62
     7
100
AcDbCircle
 10
5.846
 20
95.69
 30
0.0
 40
17.25
100
AcDbArc
 50
223.8397689999999
 51
235.057317
  0
ARC
  5
1FF
330
A
100
AcDbEntity
  8
PV
  6
Continuous
 62
     7
100
AcDbCircle
 10
4.421
 20
95.84000000000001
 30
0.0
 40
17.25
100
AcDbArc
 50
302.66744
 51
315.160235
  0
CIRCLE
  5
200
330
A
100
AcDbEntity
  8
PV
  6
Continuous
 62
     7
100
AcDbCircle
 10
5.0
 20
93.00600000000001
 30
0.0
 40
17.0
  0
LWPOLYLINE
  5
201
330
A
100
AcDbEntity
  8
PV
  6
Continuous
 62
     7
100
AcDbPolyline
 90
      137
 70
     0
 43
0.0
 10
-1.104999999999998
 20
96.873
 10
-1.112
 20
96.895
 10
-1.131
 20
96.94400000000001
 10
-1.151
 20
96.993
 10
-1.173
 20
97.04
 10
-1.197
 20
97.086
 10
-1.222999999999998
 20
97.13
 10
-1.250999999999999
 20
97.17300000000001
 10
-1.28
 20
97.215
 10
-1.310999999999999
 20
97.255
 10
-1.343
 20
97.294
 10
-1.376999999999999
 20
97.33
 10
-1.413
 20
97.36499999999999
 10
-1.45
 20
97.399
 10
-1.488
 20
97.43000000000002
 10
-1.526999999999999
 20
97.459
 10
-1.568
 20
97.48600000000001
 10
-1.61
 20
97.511
 10
-1.651999999999999
 20
97.534
 10
-1.695999999999999
 20
97.55500000000001
 10
-1.740999999999999
 20
97.574
 10
-1.786
 20
97.59
 10
-1.831999999999999
 20
97.604
 10
-1.878
 20
97.61600000000001
 10
-1.925
 20
97.626
 10
-1.973
 20
97.633
 10
-2.020999999999999
 20
97.63800000000001
 10
-2.068999999999999
 20
97.64000000000001
 10
-2.116999999999999
 20
97.64000000000001
 10
-2.165
 20
97.63800000000001
 10
-2.213
 20
97.633
 10
-2.261
 20
97.626
 10
-2.309
 20
97.61700000000001
 10
-2.356999999999999
 20
97.605
 10
-2.403999999999999
 20
97.591
 10
-2.45
 20
97.575
 10
-2.495999999999999
 20
97.55600000000001
 10
-2.540999999999999
 20
97.536
 10
-2.586
 20
97.513
 10
-2.629999999999999
 20
97.48800000000001
 10
-2.673
 20
97.461
 10
-2.713999999999998
 20
97.431
 10
-2.754999999999999
 20
97.40000000000001
 10
-2.794999999999998
 20
97.367
 10
-2.833
 20
97.332
 10
-2.87
 20
97.29600000000001
 10
-2.904999999999999
 20
97.25700000000001
 10
-2.939999999999998
 20
97.21700000000002
 10
-2.971999999999998
 20
97.176
 10
-3.003
 20
97.133
 10
-3.032999999999998
 20
97.088
 10
-3.06
 20
97.042
 10
-3.086
 20
96.995
 10
-3.109999999999998
 20
96.947
 10
-3.133
 20
96.89799999999999
 10
-3.153
 20
96.848
 10
-3.171999999999998
 20
96.79700000000003
 10
-3.188
 20
96.74500000000001
 10
-3.203
 20
96.692
 10
-3.214999999999998
 20
96.63899999999999
 10
-3.226
 20
96.58599999999999
 10
-3.233999999999998
 20
96.532
 10
-3.241
 20
96.478
 10
-3.245
 20
96.424
 10
-3.246999999999998
 20
96.369
 10
-3.246999999999998
 20
96.315
 10
-3.245
 20
96.261
 10
-3.241
 20
96.20699999999999
 10
-3.234999999999998
 20
96.15300000000001
 10
-3.226
 20
96.09999999999999
 10
-3.216
 20
96.048
 10
-3.203999999999998
 20
95.996
 10
-3.188999999999998
 20
95.945
 10
-3.173
 20
95.89400000000001
 10
-3.153999999999999
 20
95.845
 10
-3.133999999999999
 20
95.797
 10
-3.112
 20
95.75000000000001
 10
-3.088
 20
95.70399999999999
 10
-3.061999999999998
 20
95.659
 10
-3.033999999999998
 20
95.616
 10
-3.004999999999999
 20
95.575
 10
-2.973999999999998
 20
95.53400000000001
 10
-2.941999999999998
 20
95.49599999999999
 10
-2.907999999999998
 20
95.45900000000001
 10
-2.871999999999998
 20
95.42399999999998
 10
-2.834999999999998
 20
95.39100000000001
 10
-2.796999999999998
 20
95.35999999999999
 10
-2.758
 20
95.33100000000001
 10
-2.717
 20
95.303
 10
-2.674999999999998
 20
95.278
 10
-2.633
 20
95.25499999999999
 10
-2.588999999999999
 20
95.234
 10
-2.544
 20
95.21599999999999
 10
-2.499
 20
95.19899999999999
 10
-2.453
 20
95.18500000000001
 10
-2.407
 20
95.17299999999998
 10
-2.359999999999998
 20
95.164
 10
-2.311999999999998
 20
95.157
 10
-2.264
 20
95.152
 10
-2.215999999999999
 20
95.149
 10
-2.168
 20
95.149
 10
-2.12
 20
95.152
 10
-2.072
 20
95.156
 10
-2.024
 20
95.16299999999999
 10
-1.975999999999999
 20
95.17299999999998
 10
-1.928
 20
95.18399999999999
 10
-1.881
 20
95.198
 10
-1.834999999999999
 20
95.21500000000001
 10
-1.789
 20
95.23299999999997
 10
-1.743999999999999
 20
95.25400000000001
 10
-1.699
 20
95.27700000000001
 10
-1.655
 20
95.302
 10
-1.611999999999999
 20
95.32899999999999
 10
-1.570999999999999
 20
95.358
 10
-1.53
 20
95.38899999999999
 10
-1.49
 20
95.42199999999999
 10
-1.451999999999999
 20
95.457
 10
-1.415
 20
95.494
 10
-1.379999999999999
 20
95.53200000000002
 10
-1.344999999999999
 20
95.57199999999999
 10
-1.313
 20
95.614
 10
-1.281999999999998
 20
95.65699999999999
 10
-1.252
 20
95.701
 10
-1.225
 20
95.74699999999999
 10
-1.199
 20
95.79399999999999
 10
-1.175
 20
95.842
 10
-1.152
 20
95.89199999999999
 10
-1.132
 20
95.942
 10
-1.112999999999998
 20
95.99299999999999
 10
-1.096999999999998
 20
96.04500000000001
 10
-1.082
 20
96.097
 10
-1.07
 20
96.15000000000001
 10
-1.059
 20
96.204
 10
-1.050999999999999
 20
96.25799999999999
 10
-1.044
 20
96.31199999999999
 10
-1.04
 20
96.36600000000001
 10
-1.039
 20
96.39499999999999
  0
MTEXT
  5
202
330
A
100
AcDbEntity
  8
PV
  6
Continuous
 62
     7
100
AcDbMText
 10
5.105999999999998
 20
85.295
 30
0.0
 40
1.5
 41
0.0
 71
     2
 72
     1
  1
\W0.930;\A1;METAL BELLOWS
 73
     1
 44
1.0
  0
MTEXT
  5
203
330
A
100
AcDbEntity
  8
PV
  6
Continuous
 62
     7
100
AcDbMText
 10
5.147999999999998
 20
89.48299999999997
 30
0.0
 40
1.5
 41
0.0
 71
     2
 72
     1
  1
\W0.925;\A1;HIGH VACUUM VALVES
 73
     1
 44
1.0
  0
MTEXT
  5
204
330
A
100
AcDbEntity
  8
PV
  6
Continuous
 62
     7
100
AcDbMText
 10
7.852066
 20
79.70061099999998
 30
0.0
 40
1.5
 41
0.0
 71
     2
 72
     1
  1
\W1.048;\A1;O
 11
0.9781475551151176
 21
0.2079119054366971
 31
0.0
 73
     1
 44
1.0
  0
MTEXT
  5
205
330
A
100
AcDbEntity
  8
PV
  6
Continuous
 62
     7
100
AcDbMText
 10
9.245720999999999
 20
80.06122899999999
 30
0.0
 40
1.5
 41
0.0
 71
     2
 72
     1
  1
\A1;P
 11
0.9563046942651347
 21
0.2923719065274008
 31
0.0
 73
     1
 44
1.0
  0
MTEXT
  5
206
330
A
100
AcDbEntity
  8
PV
  6
Continuous
 62
     7
100
AcDbMText
 10
10.60204499999999
 20
80.542388
 30
0.0
 40
1.5
 41
0.0
 71
     2
 72
     1
  1
\W0.905;\A1;E
 11
0.9271837337569111
 21
0.3746068924307098
 31
0.0
 73
     1
 44
1.0
  0
MTEXT
  5
207
330
A
100
AcDbEntity
  8
PV
  6
Continuous
 62
     7
100
AcDbMText
 10
-2.897560999999998
 20
81.697036
 30
0.0
 40
1.5
 41
0.0
 71
     2
 72
     1
  1
\A1;C
 11
0.8480481878999377
 21
-0.5299191174128671
 31
0.0
 73
     1
 44
1.0
  0
MTEXT
  5
208
330
A
100
AcDbEntity
  8
PV
  6
Continuous
 62
     7
100
AcDbMText
 10
-1.644508
 20
80.98825500000002
 30
0.0
 40
1.5
 41
0.0
 71
     2
 72
     1
  1
\W0.810;\A1;L
 11
0.8910068244052929
 21
-0.4539899105301742
 31
0.0
 73
     1
 44
1.0
  0
MTEXT
  5
209
330
A
100
AcDbEntity
  8
PV
  6
Continuous
 62
     7
100
AcDbMText
 10
-0.335045
 20
80.39138800000001
 30
0.0
 40
1.5
 41
0.0
 71
     2
 72
     1
  1
\W1.048;\A1;O
 11
0.9271837337569111
 21
-0.3746068924307098
 31
0.0
 73
     1
 44
1.0
  0
MTEXT
  5
20A
330
A
100
AcDbEntity
  8
PV
  6
Continuous
 62
     7
100
AcDbMText
 10
1.021279
 20
79.911229
 30
0.0
 40
1.5
 41
0.0
 71
     2
 72
     1
  1
\W0.952;\A1;S
 11
0.9563046942651347
 21
-0.2923719065274008
 31
0.0
 73
     1
 44
1.0
  0
MTEXT
  5
20B
330
A
100
AcDbEntity
  8
PV
  6
Continuous
 62
     7
100
AcDbMText
 10
2.414934
 20
79.550611
 30
0.0
 40
1.5
 41
0.0
 71
     2
 72
     1
  1
\W0.905;\A1;E
 11
0.9781475551151176
 21
-0.2079119054366971
 31
0.0
 73
     1
 44
1.0
  0
MTEXT
  5
20C
330
A
100
AcDbEntity
  8
PV
  6
Continuous
 62
     7
100
AcDbMText
 10
11.912508
 20
81.139255
 30
0.0
 40
1.5
 41
0.0
 71
     2
 72
     1
  1
\W1.048;\A1;N
 11
0.8910068244052929
 21
0.4539899105301742
 31
0.0
 73
     1
 44
1.0
  0
MTEXT
  5
20D
330
A
100
AcDbEntity
  8
PV
  6
Continuous
 62
     7
100
AcDbMText
 10
4.937999999999998
 20
81.98999999999998
 30
0.0
 40
0.8
 41
0.0
 71
     2
 72
     1
  1
\W0.980;\A1;MADE IN JAPAN
 73
     1
 44
1.0
  0
SOLID
  5
20E
330
A
100
AcDbEntity
  8
PV
  6
Continuous
 62
     7
100
AcDbTrace
 10
-6.222
 20
101.0099999999999
 30
0.0
 11
-5.922999999999999
 21
101.0099999999999
 31
0.0
 12
-6.222
 22
102.5029999999998
 32
0.0
 13
-5.922999999999999
 23
102.5029999999998
 33
0.0
  0
SOLID
  5
20F
330
A
100
AcDbEntity
  8
PV
  6
Continuous
 62
     7
100
AcDbTrace
 10
-3.907999999999998
 20
101.0099999999999
 30
0.0
 11
-3.609999999999998
 21
101.0099999999999
 31
0.0
 12
-3.907999999999998
 22
102.5029999999998
 32
0.0
 13
-3.609999999999998
 23
102.5029999999998
 33
0.0
  0
SOLID
  5
210
330
A
100
AcDbEntity
  8
PV
  6
Continuous
 62
     7
100
AcDbTrace
 10
2.569999999999998
 20
104.516
 30
0.0
 11
3.919999999999998
 21
104.516
 31
0.0
 12
2.569999999999998
 22
107.266
 32
0.0
 13
3.919999999999998
 23
107.266
 33
0.0
  0
LINE
  5
211
330
A
100
AcDbEntity
  8
PV
  6
Continuous
 62
     7
100
AcDbLine
 10
-17.5
 20
112.62
 30
0.0
 11
-15.0
 21
114.0629999999999
 31
0.0
  0
LINE
  5
212
330
A
100
AcDbEntity
  8
PV
  6
Continuous
 62
     7
100
AcDbLine
 10
-20.0
 20
116.9499999999999
 30
0.0
 11
-17.5
 21
118.3929999999999
 31
0.0
  0
LINE
  5
213
330
A
100
AcDbEntity
  8
PV
  6
Continuous
 62
     7
100
AcDbLine
 10
-20.0
 20
116.9499999999999
 30
0.0
 11
-20.0
 21
114.0629999999999
 31
0.0
  0
LINE
  5
214
330
A
100
AcDbEntity
  8
PV
  6
Continuous
 62
     7
100
AcDbLine
 10
-15.0
 20
116.9499999999999
 30
0.0
 11
-15.0
 21
114.0629999999999
 31
0.0
  0
LINE
  5
215
330
A
100
AcDbEntity
  8
PV
  6
Continuous
 62
     7
100
AcDbLine
 10
-20.0
 20
114.0629999999999
 30
0.0
 11
-17.5
 21
112.62
 31
0.0
  0
LINE
  5
216
330
A
100
AcDbEntity
  8
PV
  6
Continuous
 62
     7
100
AcDbLine
 10
-17.5
 20
118.3929999999999
 30
0.0
 11
-15.0
 21
116.9499999999999
 31
0.0
  0
CIRCLE
  5
217
330
A
100
AcDbEntity
  8
PV
  6
Continuous
 62
     7
100
AcDbCircle
 10
-17.5
 20
115.5059999999999
 30
0.0
 40
5.0
  0
CIRCLE
  5
218
330
A
100
AcDbEntity
  8
PV
  6
Continuous
 62
     7
100
AcDbCircle
 10
-17.5
 20
115.5059999999999
 30
0.0
 40
4.306999999999998
  0
LINE
  5
219
330
A
100
AcDbEntity
  8
PV
  6
Continuous
 62
     7
100
AcDbLine
 10
27.5
 20
112.62
 30
0.0
 11
30.0
 21
114.0629999999999
 31
0.0
  0
LINE
  5
21A
330
A
100
AcDbEntity
  8
PV
  6
Continuous
 62
     7
100
AcDbLine
 10
25.0
 20
116.9499999999999
 30
0.0
 11
27.5
 21
118.3929999999999
 31
0.0
  0
LINE
  5
21B
330
A
100
AcDbEntity
  8
PV
  6
Continuous
 62
     7
100
AcDbLine
 10
25.0
 20
116.9499999999999
 30
0.0
 11
25.0
 21
114.0629999999999
 31
0.0
  0
LINE
  5
21C
330
A
100
AcDbEntity
  8
PV
  6
Continuous
 62
     7
100
AcDbLine
 10
30.0
 20
116.9499999999999
 30
0.0
 11
30.0
 21
114.0629999999999
 31
0.0
  0
LINE
  5
21D
330
A
100
AcDbEntity
  8
PV
  6
Continuous
 62
     7
100
AcDbLine
 10
25.0
 20
114.0629999999999
 30
0.0
 11
27.5
 21
112.62
 31
0.0
  0
LINE
  5
21E
330
A
100
AcDbEntity
  8
PV
  6
Continuous
 62
     7
100
AcDbLine
 10
27.5
 20
118.3929999999999
 30
0.0
 11
30.0
 21
116.9499999999999
 31
0.0
  0
CIRCLE
  5
21F
330
A
100
AcDbEntity
  8
PV
  6
Continuous
 62
     7
100
AcDbCircle
 10
27.5
 20
115.5059999999999
 30
0.0
 40
5.0
  0
CIRCLE
  5
220
330
A
100
AcDbEntity
  8
PV
  6
Continuous
 62
     7
100
AcDbCircle
 10
27.5
 20
115.5059999999999
 30
0.0
 40
4.306999999999998
  0
LINE
  5
221
330
A
100
AcDbEntity
  8
PV
  6
Continuous
 62
     7
100
AcDbLine
 10
27.5
 20
67.62
 30
0.0
 11
30.0
 21
69.063
 31
0.0
  0
LINE
  5
222
330
A
100
AcDbEntity
  8
PV
  6
Continuous
 62
     7
100
AcDbLine
 10
25.0
 20
71.95
 30
0.0
 11
27.5
 21
73.393
 31
0.0
  0
LINE
  5
223
330
A
100
AcDbEntity
  8
PV
  6
Continuous
 62
     7
100
AcDbLine
 10
25.0
 20
71.95
 30
0.0
 11
25.0
 21
69.063
 31
0.0
  0
LINE
  5
224
330
A
100
AcDbEntity
  8
PV
  6
Continuous
 62
     7
100
AcDbLine
 10
30.0
 20
71.95
 30
0.0
 11
30.0
 21
69.063
 31
0.0
  0
LINE
  5
225
330
A
100
AcDbEntity
  8
PV
  6
Continuous
 62
     7
100
AcDbLine
 10
25.0
 20
69.063
 30
0.0
 11
27.5
 21
67.62
 31
0.0
  0
LINE
  5
226
330
A
100
AcDbEntity
  8
PV
  6
Continuous
 62
     7
100
AcDbLine
 10
27.5
 20
73.393
 30
0.0
 11
30.0
 21
71.95
 31
0.0
  0
CIRCLE
  5
227
330
A
100
AcDbEntity
  8
PV
  6
Continuous
 62
     7
100
AcDbCircle
 10
27.5
 20
70.506
 30
0.0
 40
5.0
  0
CIRCLE
  5
228
330
A
100
AcDbEntity
  8
PV
  6
Continuous
 62
     7
100
AcDbCircle
 10
27.5
 20
70.506
 30
0.0
 40
4.306999999999998
  0
LINE
  5
229
330
A
100
AcDbEntity
  8
PV
  6
Continuous
 62
     7
100
AcDbLine
 10
-17.5
 20
67.62
 30
0.0
 11
-15.0
 21
69.063
 31
0.0
  0
LINE
  5
22A
330
A
100
AcDbEntity
  8
PV
  6
Continuous
 62
     7
100
AcDbLine
 10
-20.0
 20
71.95
 30
0.0
 11
-17.5
 21
73.393
 31
0.0
  0
LINE
  5
22B
330
A
100
AcDbEntity
  8
PV
  6
Continuous
 62
     7
100
AcDbLine
 10
-20.0
 20
71.95
 30
0.0
 11
-20.0
 21
69.063
 31
0.0
  0
LINE
  5
22C
330
A
100
AcDbEntity
  8
PV
  6
Continuous
 62
     7
100
AcDbLine
 10
-15.0
 20
71.95
 30
0.0
 11
-15.0
 21
69.063
 31
0.0
  0
LINE
  5
22D
330
A
100
AcDbEntity
  8
PV
  6
Continuous
 62
     7
100
AcDbLine
 10
-20.0
 20
69.063
 30
0.0
 11
-17.5
 21
67.62
 31
0.0
  0
LINE
  5
22E
330
A
100
AcDbEntity
  8
PV
  6
Continuous
 62
     7
100
AcDbLine
 10
-17.5
 20
73.393
 30
0.0
 11
-15.0
 21
71.95
 31
0.0
  0
CIRCLE
  5
22F
330
A
100
AcDbEntity
  8
PV
  6
Continuous
 62
     7
100
AcDbCircle
 10
-17.5
 20
70.506
 30
0.0
 40
5.0
  0
CIRCLE
  5
230
330
A
100
AcDbEntity
  8
PV
  6
Continuous
 62
     7
100
AcDbCircle
 10
-17.5
 20
70.506
 30
0.0
 40
4.306999999999998
  0
POINT
  5
231
330
A
100
AcDbEntity
  8
PV
  6
Continuous
 62
     7
100
AcDbPoint
 10
63.09000000000001
 20
63.006
 30
0.0
  0
POINT
  5
232
330
A
100
AcDbEntity
  8
PV
  6
Continuous
 62
     7
100
AcDbPoint
 10
29.0
 20
63.006
 30
0.0
  0
POINT
  5
233
330
A
100
AcDbEntity
  8
PV
  6
Continuous
 62
     7
100
AcDbPoint
 10
29.0
 20
123.0059999999999
 30
0.0
  0
MTEXT
  5
234
330
A
100
AcDbEntity
  8
PV
  6
Continuous
 62
     7
100
AcDbMText
 10
56.656666
 20
87.22499499999997
 30
0.0
 40
5.5
 41
0.0
 71
     1
 72
     1
  1
\W0.892;\A1;□59
 11
0.0
 21
1.0
 31
0.0
 73
     1
 44
1.0
  0
LINE
  5
235
330
A
100
AcDbEntity
  8
PV
  6
Continuous
 62
     7
100
AcDbLine
 10
31.51054999999999
 20
63.006
 30
0.0
 11
65.37600000000001
 21
63.006
 31
0.0
  0
LINE
  5
236
330
A
100
AcDbEntity
  8
PV
  6
Continuous
 62
     7
100
AcDbLine
 10
31.51054999999999
 20
123.0059999999999
 30
0.0
 11
65.37600000000001
 21
123.0059999999999
 31
0.0
  0
LINE
  5
237
330
A
100
AcDbEntity
  8
PV
  6
Continuous
 62
     7
100
AcDbLine
 10
63.09000000000001
 20
123.0059999999999
 30
0.0
 11
63.09000000000001
 21
63.006
 31
0.0
  0
LINE
  5
238
330
A
100
AcDbEntity
  8
PV
  6
Continuous
 62
     7
100
AcDbLine
 10
63.09000000000001
 20
63.006
 30
0.0
 11
63.09000000000001
 21
65.77600000000001
 31
0.0
  0
LINE
  5
239
330
A
100
AcDbEntity
  8
PV
  6
Continuous
 62
     7
100
AcDbLine
 10
63.09000000000001
 20
63.006
 30
0.0
 11
62.347
 21
65.77600000000001
 31
0.0
  0
LINE
  5
23A
330
A
100
AcDbEntity
  8
PV
  6
Continuous
 62
     7
100
AcDbLine
 10
63.832
 20
65.77600000000001
 30
0.0
 11
63.09000000000001
 21
63.006
 31
0.0
  0
LINE
  5
23B
330
A
100
AcDbEntity
  8
PV
  6
Continuous
 62
     7
100
AcDbLine
 10
63.09000000000001
 20
123.0059999999999
 30
0.0
 11
63.09000000000001
 21
120.236
 31
0.0
  0
LINE
  5
23C
330
A
100
AcDbEntity
  8
PV
  6
Continuous
 62
     7
100
AcDbLine
 10
63.09000000000001
 20
123.0059999999999
 30
0.0
 11
63.832
 21
120.236
 31
0.0
  0
LINE
  5
23D
330
A
100
AcDbEntity
  8
PV
  6
Continuous
 62
     7
100
AcDbLine
 10
62.347
 20
120.236
 30
0.0
 11
63.09000000000001
 21
123.0059999999999
 31
0.0
  0
POINT
  5
23E
330
A
100
AcDbEntity
  8
PV
  6
Continuous
 62
     7
100
AcDbPoint
 10
-118.954
 20
122.0849999999999
 30
0.0
  0
MTEXT
  5
23F
330
A
100
AcDbEntity
  8
PV
  6
Continuous
 62
     7
100
AcDbMText
 10
-153.2823679999999
 20
139.122241
 30
0.0
 40
5.5
 41
0.0
 71
     2
 72
     1
  1
\T0.806;\W1.240;\A1;４－10キリ（等配）
 73
     1
 44
1.0
  0
LINE
  5
240
330
A
100
AcDbEntity
  8
PV
  6
Continuous
 62
     7
100
AcDbLine
 10
-118.954
 20
122.0849999999999
 30
0.0
 11
-122.1289999999999
 21
127.5849999999999
 31
0.0
  0
LINE
  5
241
330
A
100
AcDbEntity
  8
PV
  6
Continuous
 62
     7
100
AcDbLine
 10
-125.259
 20
133.006
 30
0.0
 11
-184.5757929999999
 21
133.006
 31
0.0
  0
LINE
  5
242
330
A
100
AcDbEntity
  8
PV
  6
Continuous
 62
     7
100
AcDbLine
 10
-118.954
 20
122.0849999999999
 30
0.0
 11
-125.259
 21
133.006
 31
0.0
  0
LINE
  5
243
330
A
100
AcDbEntity
  8
PV
  6
Continuous
 62
     7
100
AcDbLine
 10
-118.954
 20
122.0849999999999
 30
0.0
 11
-120.3389999999999
 21
124.4839999999999
 31
0.0
  0
LINE
  5
244
330
A
100
AcDbEntity
  8
PV
  6
Continuous
 62
     7
100
AcDbLine
 10
-118.954
 20
122.0849999999999
 30
0.0
 11
-120.981
 21
124.113
 31
0.0
  0
LINE
  5
245
330
A
100
AcDbEntity
  8
PV
  6
Continuous
 62
     7
100
AcDbLine
 10
-119.696
 20
124.855
 30
0.0
 11
-118.954
 21
122.0849999999999
 31
0.0
  0
POINT
  5
246
330
A
100
AcDbEntity
  8
PV
  6
Continuous
 62
     7
100
AcDbPoint
 10
-112.9099999999999
 20
65.161
 30
0.0
  0
MTEXT
  5
247
330
A
100
AcDbEntity
  8
PV
  6
Continuous
 62
     7
100
AcDbMText
 10
-81.84772099999998
 20
126.883402
 30
0.0
 40
5.5
 41
0.0
 71
     2
 72
     1
  1
\A1;P.C.D 70
 11
0.4584918104904731
 21
0.8886986326720482
 31
0.0
 73
     1
 44
1.0
  0
LINE
  5
248
330
A
100
AcDbEntity
  8
PV
  6
Continuous
 62
     7
100
AcDbLine
 10
-107.7525279999999
 20
61.90182599999999
 30
0.0
 11
-68.380713
 21
138.215603
 31
0.0
  0
LINE
  5
249
330
A
100
AcDbEntity
  8
PV
  6
Continuous
 62
     7
100
AcDbLine
 10
-107.7525279999999
 20
61.90182599999999
 30
0.0
 11
-106.481756
 21
64.36389799999999
 31
0.0
  0
LINE
  5
24A
330
A
100
AcDbEntity
  8
PV
  6
Continuous
 62
     7
100
AcDbLine
 10
-107.7525279999999
 20
61.90182599999999
 30
0.0
 11
-107.1417459999999
 21
64.70345
 31
0.0
  0
LINE
  5
24B
330
A
100
AcDbEntity
  8
PV
  6
Continuous
 62
     7
100
AcDbLine
 10
-105.822578
 20
64.02318699999999
 30
0.0
 11
-107.7525279999999
 21
61.90182599999999
 31
0.0
  0
POINT
  5
24C
330
A
100
AcDbEntity
  8
PV
  6
Continuous
 62
     7
100
AcDbPoint
 10
50.0
 20
155.6429999999999
 30
0.0
  0
POINT
  5
24D
330
A
100
AcDbEntity
  8
PV
  6
Continuous
 62
     7
100
AcDbPoint
 10
50.0
 20
93.506
 30
0.0
  0
POINT
  5
24E
330
A
100
AcDbEntity
  8
PV
  6
Continuous
 62
     7
100
AcDbPoint
 10
-55.0
 20
138.5059999999999
 30
0.0
  0
MTEXT
  5
24F
330
A
100
AcDbEntity
  8
PV
  6
Continuous
 62
     7
100
AcDbMText
 10
-2.5
 20
162.076334
 30
0.0
 40
5.5
 41
0.0
 71
     2
 72
     1
  1
\A1;105
 73
     1
 44
1.0
  0
LINE
  5
250
330
A
100
AcDbEntity
  8
PV
  6
Continuous
 62
     7
100
AcDbLine
 10
50.0
 20
96.04600000000001
 30
0.0
 11
50.0
 21
157.929
 31
0.0
  0
LINE
  5
251
330
A
100
AcDbEntity
  8
PV
  6
Continuous
 62
     7
100
AcDbLine
 10
-55.0
 20
141.046
 30
0.0
 11
-55.0
 21
157.929
 31
0.0
  0
LINE
  5
252
330
A
100
AcDbEntity
  8
PV
  6
Continuous
 62
     7
100
AcDbLine
 10
-55.0
 20
155.6429999999999
 30
0.0
 11
50.0
 21
155.6429999999999
 31
0.0
  0
LINE
  5
253
330
A
100
AcDbEntity
  8
PV
  6
Continuous
 62
     7
100
AcDbLine
 10
50.0
 20
155.6429999999999
 30
0.0
 11
47.22999999999998
 21
155.6429999999999
 31
0.0
  0
LINE
  5
254
330
A
100
AcDbEntity
  8
PV
  6
Continuous
 62
     7
100
AcDbLine
 10
50.0
 20
155.6429999999999
 30
0.0
 11
47.22999999999998
 21
154.901
 31
0.0
  0
LINE
  5
255
330
A
100
AcDbEntity
  8
PV
  6
Continuous
 62
     7
100
AcDbLine
 10
47.22999999999998
 20
156.3849999999999
 30
0.0
 11
50.0
 21
155.6429999999999
 31
0.0
  0
LINE
  5
256
330
A
100
AcDbEntity
  8
PV
  6
Continuous
 62
     7
100
AcDbLine
 10
-55.0
 20
155.6429999999999
 30
0.0
 11
-52.22999999999998
 21
155.6429999999999
 31
0.0
  0
LINE
  5
257
330
A
100
AcDbEntity
  8
PV
  6
Continuous
 62
     7
100
AcDbLine
 10
-55.0
 20
155.6429999999999
 30
0.0
 11
-52.22999999999998
 21
156.3849999999999
 31
0.0
  0
LINE
  5
258
330
A
100
AcDbEntity
  8
PV
  6
Continuous
 62
     7
100
AcDbLine
 10
-52.22999999999998
 20
154.901
 30
0.0
 11
-55.0
 21
155.6429999999999
 31
0.0
  0
LINE
  5
259
330
A
100
AcDbEntity
  8
PV
  6
Continuous
 62
     7
100
AcDbLine
 10
-13.643
 20
-13.128
 30
0.0
 11
-13.622
 21
-13.15299999999999
 31
0.0
  0
LINE
  5
25A
330
A
100
AcDbEntity
  8
PV
  6
Continuous
 62
     7
100
AcDbLine
 10
-13.663
 20
-13.103
 30
0.0
 11
-13.643
 21
-13.128
 31
0.0
  0
LINE
  5
25B
330
A
100
AcDbEntity
  8
PV
  6
Continuous
 62
     7
100
AcDbLine
 10
-13.683
 20
-13.078
 30
0.0
 11
-13.663
 21
-13.103
 31
0.0
  0
LINE
  5
25C
330
A
100
AcDbEntity
  8
PV
  6
Continuous
 62
     7
100
AcDbLine
 10
-13.702
 20
-13.052
 30
0.0
 11
-13.683
 21
-13.078
 31
0.0
  0
LINE
  5
25D
330
A
100
AcDbEntity
  8
PV
  6
Continuous
 62
     7
100
AcDbLine
 10
-13.72099999999999
 20
-13.02599999999999
 30
0.0
 11
-13.702
 21
-13.052
 31
0.0
  0
LINE
  5
25E
330
A
100
AcDbEntity
  8
PV
  6
Continuous
 62
     7
100
AcDbLine
 10
-13.739
 20
-13.0
 30
0.0
 11
-13.72099999999999
 21
-13.02599999999999
 31
0.0
  0
LINE
  5
25F
330
A
100
AcDbEntity
  8
PV
  6
Continuous
 62
     7
100
AcDbLine
 10
-13.75799999999999
 20
-12.974
 30
0.0
 11
-13.739
 21
-13.0
 31
0.0
  0
LINE
  5
260
330
A
100
AcDbEntity
  8
PV
  6
Continuous
 62
     7
100
AcDbLine
 10
-13.776
 20
-12.947
 30
0.0
 11
-13.75799999999999
 21
-12.974
 31
0.0
  0
LINE
  5
261
330
A
100
AcDbEntity
  8
PV
  6
Continuous
 62
     7
100
AcDbLine
 10
-13.79299999999999
 20
-12.921
 30
0.0
 11
-13.776
 21
-12.947
 31
0.0
  0
LINE
  5
262
330
A
100
AcDbEntity
  8
PV
  6
Continuous
 62
     7
100
AcDbLine
 10
-13.81099999999999
 20
-12.894
 30
0.0
 11
-13.79299999999999
 21
-12.921
 31
0.0
  0
LINE
  5
263
330
A
100
AcDbEntity
  8
PV
  6
Continuous
 62
     7
100
AcDbLine
 10
-13.828
 20
-12.86599999999999
 30
0.0
 11
-13.81099999999999
 21
-12.894
 31
0.0
  0
LINE
  5
264
330
A
100
AcDbEntity
  8
PV
  6
Continuous
 62
     7
100
AcDbLine
 10
-13.845
 20
-12.839
 30
0.0
 11
-13.828
 21
-12.86599999999999
 31
0.0
  0
LINE
  5
265
330
A
100
AcDbEntity
  8
PV
  6
Continuous
 62
     7
100
AcDbLine
 10
-13.86099999999998
 20
-12.812
 30
0.0
 11
-13.845
 21
-12.839
 31
0.0
  0
LINE
  5
266
330
A
100
AcDbEntity
  8
PV
  6
Continuous
 62
     7
100
AcDbLine
 10
-13.877
 20
-12.784
 30
0.0
 11
-13.86099999999998
 21
-12.812
 31
0.0
  0
LINE
  5
267
330
A
100
AcDbEntity
  8
PV
  6
Continuous
 62
     7
100
AcDbLine
 10
-13.89299999999999
 20
-12.75599999999999
 30
0.0
 11
-13.877
 21
-12.784
 31
0.0
  0
LINE
  5
268
330
A
100
AcDbEntity
  8
PV
  6
Continuous
 62
     7
100
AcDbLine
 10
-13.909
 20
-12.728
 30
0.0
 11
-13.89299999999999
 21
-12.75599999999999
 31
0.0
  0
LINE
  5
269
330
A
100
AcDbEntity
  8
PV
  6
Continuous
 62
     7
100
AcDbLine
 10
-13.924
 20
-12.7
 30
0.0
 11
-13.909
 21
-12.728
 31
0.0
  0
LINE
  5
26A
330
A
100
AcDbEntity
  8
PV
  6
Continuous
 62
     7
100
AcDbLine
 10
-13.94
 20
-12.671
 30
0.0
 11
-13.924
 21
-12.7
 31
0.0
  0
LINE
  5
26B
330
A
100
AcDbEntity
  8
PV
  6
Continuous
 62
     7
100
AcDbLine
 10
-13.955
 20
-12.64299999999999
 30
0.0
 11
-13.94
 21
-12.671
 31
0.0
  0
LINE
  5
26C
330
A
100
AcDbEntity
  8
PV
  6
Continuous
 62
     7
100
AcDbLine
 10
-13.969
 20
-12.614
 30
0.0
 11
-13.955
 21
-12.64299999999999
 31
0.0
  0
LINE
  5
26D
330
A
100
AcDbEntity
  8
PV
  6
Continuous
 62
     7
100
AcDbLine
 10
-13.984
 20
-12.58599999999999
 30
0.0
 11
-13.969
 21
-12.614
 31
0.0
  0
LINE
  5
26E
330
A
100
AcDbEntity
  8
PV
  6
Continuous
 62
     7
100
AcDbLine
 10
-13.99799999999999
 20
-12.557
 30
0.0
 11
-13.984
 21
-12.58599999999999
 31
0.0
  0
LINE
  5
26F
330
A
100
AcDbEntity
  8
PV
  6
Continuous
 62
     7
100
AcDbLine
 10
-14.012
 20
-12.52799999999999
 30
0.0
 11
-13.99799999999999
 21
-12.557
 31
0.0
  0
LINE
  5
270
330
A
100
AcDbEntity
  8
PV
  6
Continuous
 62
     7
100
AcDbLine
 10
-14.026
 20
-12.499
 30
0.0
 11
-14.012
 21
-12.52799999999999
 31
0.0
  0
LINE
  5
271
330
A
100
AcDbEntity
  8
PV
  6
Continuous
 62
     7
100
AcDbLine
 10
-14.039
 20
-12.47
 30
0.0
 11
-14.026
 21
-12.499
 31
0.0
  0
LINE
  5
272
330
A
100
AcDbEntity
  8
PV
  6
Continuous
 62
     7
100
AcDbLine
 10
-14.05199999999999
 20
-12.44099999999999
 30
0.0
 11
-14.039
 21
-12.47
 31
0.0
  0
LINE
  5
273
330
A
100
AcDbEntity
  8
PV
  6
Continuous
 62
     7
100
AcDbLine
 10
-14.066
 20
-12.412
 30
0.0
 11
-14.05199999999999
 21
-12.44099999999999
 31
0.0
  0
LINE
  5
274
330
A
100
AcDbEntity
  8
PV
  6
Continuous
 62
     7
100
AcDbLine
 10
-14.07799999999999
 20
-12.38199999999999
 30
0.0
 11
-14.066
 21
-12.412
 31
0.0
  0
LINE
  5
275
330
A
100
AcDbEntity
  8
PV
  6
Continuous
 62
     7
100
AcDbLine
 10
-14.091
 20
-12.353
 30
0.0
 11
-14.07799999999999
 21
-12.38199999999999
 31
0.0
  0
LINE
  5
276
330
A
100
AcDbEntity
  8
PV
  6
Continuous
 62
     7
100
AcDbLine
 10
-14.104
 20
-12.323
 30
0.0
 11
-14.091
 21
-12.353
 31
0.0
  0
LINE
  5
277
330
A
100
AcDbEntity
  8
PV
  6
Continuous
 62
     7
100
AcDbLine
 10
-14.11599999999999
 20
-12.294
 30
0.0
 11
-14.104
 21
-12.323
 31
0.0
  0
LINE
  5
278
330
A
100
AcDbEntity
  8
PV
  6
Continuous
 62
     7
100
AcDbLine
 10
-14.128
 20
-12.264
 30
0.0
 11
-14.11599999999999
 21
-12.294
 31
0.0
  0
LINE
  5
279
330
A
100
AcDbEntity
  8
PV
  6
Continuous
 62
     7
100
AcDbLine
 10
-14.14
 20
-12.234
 30
0.0
 11
-14.128
 21
-12.264
 31
0.0
  0
LINE
  5
27A
330
A
100
AcDbEntity
  8
PV
  6
Continuous
 62
     7
100
AcDbLine
 10
-14.152
 20
-12.204
 30
0.0
 11
-14.14
 21
-12.234
 31
0.0
  0
LINE
  5
27B
330
A
100
AcDbEntity
  8
PV
  6
Continuous
 62
     7
100
AcDbLine
 10
-14.163
 20
-12.174
 30
0.0
 11
-14.152
 21
-12.204
 31
0.0
  0
LINE
  5
27C
330
A
100
AcDbEntity
  8
PV
  6
Continuous
 62
     7
100
AcDbLine
 10
-14.174
 20
-12.144
 30
0.0
 11
-14.163
 21
-12.174
 31
0.0
  0
LINE
  5
27D
330
A
100
AcDbEntity
  8
PV
  6
Continuous
 62
     7
100
AcDbLine
 10
-14.186
 20
-12.114
 30
0.0
 11
-14.174
 21
-12.144
 31
0.0
  0
LINE
  5
27E
330
A
100
AcDbEntity
  8
PV
  6
Continuous
 62
     7
100
AcDbLine
 10
-14.197
 20
-12.084
 30
0.0
 11
-14.186
 21
-12.114
 31
0.0
  0
LINE
  5
27F
330
A
100
AcDbEntity
  8
PV
  6
Continuous
 62
     7
100
AcDbLine
 10
-14.207
 20
-12.054
 30
0.0
 11
-14.197
 21
-12.084
 31
0.0
  0
LINE
  5
280
330
A
100
AcDbEntity
  8
PV
  6
Continuous
 62
     7
100
AcDbLine
 10
-14.218
 20
-12.024
 30
0.0
 11
-14.207
 21
-12.054
 31
0.0
  0
LINE
  5
281
330
A
100
AcDbEntity
  8
PV
  6
Continuous
 62
     7
100
AcDbLine
 10
-14.228
 20
-11.993
 30
0.0
 11
-14.218
 21
-12.024
 31
0.0
  0
LINE
  5
282
330
A
100
AcDbEntity
  8
PV
  6
Continuous
 62
     7
100
AcDbLine
 10
-14.239
 20
-11.96299999999999
 30
0.0
 11
-14.228
 21
-11.993
 31
0.0
  0
LINE
  5
283
330
A
100
AcDbEntity
  8
PV
  6
Continuous
 62
     7
100
AcDbLine
 10
-14.249
 20
-11.932
 30
0.0
 11
-14.239
 21
-11.96299999999999
 31
0.0
  0
LINE
  5
284
330
A
100
AcDbEntity
  8
PV
  6
Continuous
 62
     7
100
AcDbLine
 10
-14.259
 20
-11.902
 30
0.0
 11
-14.249
 21
-11.932
 31
0.0
  0
LINE
  5
285
330
A
100
AcDbEntity
  8
PV
  6
Continuous
 62
     7
100
AcDbLine
 10
-14.268
 20
-11.87099999999998
 30
0.0
 11
-14.259
 21
-11.902
 31
0.0
  0
LINE
  5
286
330
A
100
AcDbEntity
  8
PV
  6
Continuous
 62
     7
100
AcDbLine
 10
-14.27799999999999
 20
-11.84099999999999
 30
0.0
 11
-14.268
 21
-11.87099999999998
 31
0.0
  0
LINE
  5
287
330
A
100
AcDbEntity
  8
PV
  6
Continuous
 62
     7
100
AcDbLine
 10
-14.287
 20
-11.81
 30
0.0
 11
-14.27799999999999
 21
-11.84099999999999
 31
0.0
  0
LINE
  5
288
330
A
100
AcDbEntity
  8
PV
  6
Continuous
 62
     7
100
AcDbLine
 10
-14.297
 20
-11.779
 30
0.0
 11
-14.287
 21
-11.81
 31
0.0
  0
LINE
  5
289
330
A
100
AcDbEntity
  8
PV
  6
Continuous
 62
     7
100
AcDbLine
 10
-14.306
 20
-11.749
 30
0.0
 11
-14.297
 21
-11.779
 31
0.0
  0
LINE
  5
28A
330
A
100
AcDbEntity
  8
PV
  6
Continuous
 62
     7
100
AcDbLine
 10
-14.31499999999999
 20
-11.71799999999999
 30
0.0
 11
-14.306
 21
-11.749
 31
0.0
  0
LINE
  5
28B
330
A
100
AcDbEntity
  8
PV
  6
Continuous
 62
     7
100
AcDbLine
 10
-14.324
 20
-11.687
 30
0.0
 11
-14.31499999999999
 21
-11.71799999999999
 31
0.0
  0
LINE
  5
28C
330
A
100
AcDbEntity
  8
PV
  6
Continuous
 62
     7
100
AcDbLine
 10
-14.332
 20
-11.65599999999999
 30
0.0
 11
-14.324
 21
-11.687
 31
0.0
  0
LINE
  5
28D
330
A
100
AcDbEntity
  8
PV
  6
Continuous
 62
     7
100
AcDbLine
 10
-14.34099999999999
 20
-11.625
 30
0.0
 11
-14.332
 21
-11.65599999999999
 31
0.0
  0
LINE
  5
28E
330
A
100
AcDbEntity
  8
PV
  6
Continuous
 62
     7
100
AcDbLine
 10
-14.349
 20
-11.594
 30
0.0
 11
-14.34099999999999
 21
-11.625
 31
0.0
  0
LINE
  5
28F
330
A
100
AcDbEntity
  8
PV
  6
Continuous
 62
     7
100
AcDbLine
 10
-14.357
 20
-11.56299999999998
 30
0.0
 11
-14.349
 21
-11.594
 31
0.0
  0
LINE
  5
290
330
A
100
AcDbEntity
  8
PV
  6
Continuous
 62
     7
100
AcDbLine
 10
-14.365
 20
-11.532
 30
0.0
 11
-14.357
 21
-11.56299999999998
 31
0.0
  0
LINE
  5
291
330
A
100
AcDbEntity
  8
PV
  6
Continuous
 62
     7
100
AcDbLine
 10
-14.373
 20
-11.50099999999999
 30
0.0
 11
-14.365
 21
-11.532
 31
0.0
  0
LINE
  5
292
330
A
100
AcDbEntity
  8
PV
  6
Continuous
 62
     7
100
AcDbLine
 10
-14.38099999999999
 20
-11.47
 30
0.0
 11
-14.373
 21
-11.50099999999999
 31
0.0
  0
LINE
  5
293
330
A
100
AcDbEntity
  8
PV
  6
Continuous
 62
     7
100
AcDbLine
 10
-14.388
 20
-11.439
 30
0.0
 11
-14.38099999999999
 21
-11.47
 31
0.0
  0
LINE
  5
294
330
A
100
AcDbEntity
  8
PV
  6
Continuous
 62
     7
100
AcDbLine
 10
-14.39599999999999
 20
-11.408
 30
0.0
 11
-14.388
 21
-11.439
 31
0.0
  0
LINE
  5
295
330
A
100
AcDbEntity
  8
PV
  6
Continuous
 62
     7
100
AcDbLine
 10
-14.40299999999998
 20
-11.377
 30
0.0
 11
-14.39599999999999
 21
-11.408
 31
0.0
  0
LINE
  5
296
330
A
100
AcDbEntity
  8
PV
  6
Continuous
 62
     7
100
AcDbLine
 10
-14.41
 20
-11.345
 30
0.0
 11
-14.40299999999998
 21
-11.377
 31
0.0
  0
LINE
  5
297
330
A
100
AcDbEntity
  8
PV
  6
Continuous
 62
     7
100
AcDbLine
 10
-14.41699999999999
 20
-11.31399999999999
 30
0.0
 11
-14.41
 21
-11.345
 31
0.0
  0
LINE
  5
298
330
A
100
AcDbEntity
  8
PV
  6
Continuous
 62
     7
100
AcDbLine
 10
-14.424
 20
-11.283
 30
0.0
 11
-14.41699999999999
 21
-11.31399999999999
 31
0.0
  0
LINE
  5
299
330
A
100
AcDbEntity
  8
PV
  6
Continuous
 62
     7
100
AcDbLine
 10
-14.431
 20
-11.25099999999999
 30
0.0
 11
-14.424
 21
-11.283
 31
0.0
  0
LINE
  5
29A
330
A
100
AcDbEntity
  8
PV
  6
Continuous
 62
     7
100
AcDbLine
 10
-14.43799999999999
 20
-11.22
 30
0.0
 11
-14.431
 21
-11.25099999999999
 31
0.0
  0
LINE
  5
29B
330
A
100
AcDbEntity
  8
PV
  6
Continuous
 62
     7
100
AcDbLine
 10
-14.444
 20
-11.188
 30
0.0
 11
-14.43799999999999
 21
-11.22
 31
0.0
  0
LINE
  5
29C
330
A
100
AcDbEntity
  8
PV
  6
Continuous
 62
     7
100
AcDbLine
 10
-14.45
 20
-11.157
 30
0.0
 11
-14.444
 21
-11.188
 31
0.0
  0
LINE
  5
29D
330
A
100
AcDbEntity
  8
PV
  6
Continuous
 62
     7
100
AcDbLine
 10
-14.457
 20
-11.126
 30
0.0
 11
-14.45
 21
-11.157
 31
0.0
  0
LINE
  5
29E
330
A
100
AcDbEntity
  8
PV
  6
Continuous
 62
     7
100
AcDbLine
 10
-14.46299999999999
 20
-11.094
 30
0.0
 11
-14.457
 21
-11.126
 31
0.0
  0
LINE
  5
29F
330
A
100
AcDbEntity
  8
PV
  6
Continuous
 62
     7
100
AcDbLine
 10
-14.469
 20
-11.06299999999998
 30
0.0
 11
-14.46299999999999
 21
-11.094
 31
0.0
  0
LINE
  5
2A0
330
A
100
AcDbEntity
  8
PV
  6
Continuous
 62
     7
100
AcDbLine
 10
-14.474
 20
-11.03099999999999
 30
0.0
 11
-14.469
 21
-11.06299999999998
 31
0.0
  0
LINE
  5
2A1
330
A
100
AcDbEntity
  8
PV
  6
Continuous
 62
     7
100
AcDbLine
 10
-14.48
 20
-11.0
 30
0.0
 11
-14.474
 21
-11.03099999999999
 31
0.0
  0
LINE
  5
2A2
330
A
100
AcDbEntity
  8
PV
  6
Continuous
 62
     7
100
AcDbLine
 10
-14.48599999999998
 20
-10.96799999999999
 30
0.0
 11
-14.48
 21
-11.0
 31
0.0
  0
LINE
  5
2A3
330
A
100
AcDbEntity
  8
PV
  6
Continuous
 62
     7
100
AcDbLine
 10
-14.491
 20
-10.936
 30
0.0
 11
-14.48599999999998
 21
-10.96799999999999
 31
0.0
  0
LINE
  5
2A4
330
A
100
AcDbEntity
  8
PV
  6
Continuous
 62
     7
100
AcDbLine
 10
-14.496
 20
-10.905
 30
0.0
 11
-14.491
 21
-10.936
 31
0.0
  0
LINE
  5
2A5
330
A
100
AcDbEntity
  8
PV
  6
Continuous
 62
     7
100
AcDbLine
 10
-14.502
 20
-10.87299999999999
 30
0.0
 11
-14.496
 21
-10.905
 31
0.0
  0
LINE
  5
2A6
330
A
100
AcDbEntity
  8
PV
  6
Continuous
 62
     7
100
AcDbLine
 10
-14.507
 20
-10.841
 30
0.0
 11
-14.502
 21
-10.87299999999999
 31
0.0
  0
LINE
  5
2A7
330
A
100
AcDbEntity
  8
PV
  6
Continuous
 62
     7
100
AcDbLine
 10
-14.511
 20
-10.81
 30
0.0
 11
-14.507
 21
-10.841
 31
0.0
  0
LINE
  5
2A8
330
A
100
AcDbEntity
  8
PV
  6
Continuous
 62
     7
100
AcDbLine
 10
-14.516
 20
-10.77799999999998
 30
0.0
 11
-14.511
 21
-10.81
 31
0.0
  0
LINE
  5
2A9
330
A
100
AcDbEntity
  8
PV
  6
Continuous
 62
     7
100
AcDbLine
 10
-14.52099999999999
 20
-10.74599999999999
 30
0.0
 11
-14.516
 21
-10.77799999999998
 31
0.0
  0
LINE
  5
2AA
330
A
100
AcDbEntity
  8
PV
  6
Continuous
 62
     7
100
AcDbLine
 10
-14.525
 20
-10.715
 30
0.0
 11
-14.52099999999999
 21
-10.74599999999999
 31
0.0
  0
LINE
  5
2AB
330
A
100
AcDbEntity
  8
PV
  6
Continuous
 62
     7
100
AcDbLine
 10
-14.53
 20
-10.683
 30
0.0
 11
-14.525
 21
-10.715
 31
0.0
  0
LINE
  5
2AC
330
A
100
AcDbEntity
  8
PV
  6
Continuous
 62
     7
100
AcDbLine
 10
-14.534
 20
-10.65099999999999
 30
0.0
 11
-14.53
 21
-10.683
 31
0.0
  0
LINE
  5
2AD
330
A
100
AcDbEntity
  8
PV
  6
Continuous
 62
     7
100
AcDbLine
 10
-14.538
 20
-10.619
 30
0.0
 11
-14.534
 21
-10.65099999999999
 31
0.0
  0
LINE
  5
2AE
330
A
100
AcDbEntity
  8
PV
  6
Continuous
 62
     7
100
AcDbLine
 10
-14.542
 20
-10.58699999999999
 30
0.0
 11
-14.538
 21
-10.619
 31
0.0
  0
LINE
  5
2AF
330
A
100
AcDbEntity
  8
PV
  6
Continuous
 62
     7
100
AcDbLine
 10
-14.546
 20
-10.55599999999998
 30
0.0
 11
-14.542
 21
-10.58699999999999
 31
0.0
  0
LINE
  5
2B0
330
A
100
AcDbEntity
  8
PV
  6
Continuous
 62
     7
100
AcDbLine
 10
-14.55
 20
-10.524
 30
0.0
 11
-14.546
 21
-10.55599999999998
 31
0.0
  0
LINE
  5
2B1
330
A
100
AcDbEntity
  8
PV
  6
Continuous
 62
     7
100
AcDbLine
 10
-14.554
 20
-10.492
 30
0.0
 11
-14.55
 21
-10.524
 31
0.0
  0
LINE
  5
2B2
330
A
100
AcDbEntity
  8
PV
  6
Continuous
 62
     7
100
AcDbLine
 10
-14.557
 20
-10.46
 30
0.0
 11
-14.554
 21
-10.492
 31
0.0
  0
LINE
  5
2B3
330
A
100
AcDbEntity
  8
PV
  6
Continuous
 62
     7
100
AcDbLine
 10
-14.561
 20
-10.42799999999999
 30
0.0
 11
-14.557
 21
-10.46
 31
0.0
  0
LINE
  5
2B4
330
A
100
AcDbEntity
  8
PV
  6
Continuous
 62
     7
100
AcDbLine
 10
-14.564
 20
-10.39599999999998
 30
0.0
 11
-14.561
 21
-10.42799999999999
 31
0.0
  0
LINE
  5
2B5
330
A
100
AcDbEntity
  8
PV
  6
Continuous
 62
     7
100
AcDbLine
 10
-14.567
 20
-10.364
 30
0.0
 11
-14.564
 21
-10.39599999999998
 31
0.0
  0
LINE
  5
2B6
330
A
100
AcDbEntity
  8
PV
  6
Continuous
 62
     7
100
AcDbLine
 10
-14.57
 20
-10.332
 30
0.0
 11
-14.567
 21
-10.364
 31
0.0
  0
LINE
  5
2B7
330
A
100
AcDbEntity
  8
PV
  6
Continuous
 62
     7
100
AcDbLine
 10
-14.573
 20
-10.3
 30
0.0
 11
-14.57
 21
-10.332
 31
0.0
  0
LINE
  5
2B8
330
A
100
AcDbEntity
  8
PV
  6
Continuous
 62
     7
100
AcDbLine
 10
-14.576
 20
-10.269
 30
0.0
 11
-14.573
 21
-10.3
 31
0.0
  0
LINE
  5
2B9
330
A
100
AcDbEntity
  8
PV
  6
Continuous
 62
     7
100
AcDbLine
 10
-14.579
 20
-10.237
 30
0.0
 11
-14.576
 21
-10.269
 31
0.0
  0
LINE
  5
2BA
330
A
100
AcDbEntity
  8
PV
  6
Continuous
 62
     7
100
AcDbLine
 10
-14.58099999999999
 20
-10.20499999999999
 30
0.0
 11
-14.579
 21
-10.237
 31
0.0
  0
LINE
  5
2BB
330
A
100
AcDbEntity
  8
PV
  6
Continuous
 62
     7
100
AcDbLine
 10
-14.584
 20
-10.173
 30
0.0
 11
-14.58099999999999
 21
-10.20499999999999
 31
0.0
  0
LINE
  5
2BC
330
A
100
AcDbEntity
  8
PV
  6
Continuous
 62
     7
100
AcDbLine
 10
-14.58599999999998
 20
-10.141
 30
0.0
 11
-14.584
 21
-10.173
 31
0.0
  0
LINE
  5
2BD
330
A
100
AcDbEntity
  8
PV
  6
Continuous
 62
     7
100
AcDbLine
 10
-14.588
 20
-10.109
 30
0.0
 11
-14.58599999999998
 21
-10.141
 31
0.0
  0
LINE
  5
2BE
330
A
100
AcDbEntity
  8
PV
  6
Continuous
 62
     7
100
AcDbLine
 10
-14.59
 20
-10.077
 30
0.0
 11
-14.588
 21
-10.109
 31
0.0
  0
LINE
  5
2BF
330
A
100
AcDbEntity
  8
PV
  6
Continuous
 62
     7
100
AcDbLine
 10
-14.59299999999999
 20
-10.04499999999999
 30
0.0
 11
-14.59
 21
-10.077
 31
0.0
  0
LINE
  5
2C0
330
A
100
AcDbEntity
  8
PV
  6
Continuous
 62
     7
100
AcDbLine
 10
-14.594
 20
-10.013
 30
0.0
 11
-14.59299999999999
 21
-10.04499999999999
 31
0.0
  0
LINE
  5
2C1
330
A
100
AcDbEntity
  8
PV
  6
Continuous
 62
     7
100
AcDbLine
 10
-14.596
 20
-9.980999999999999
 30
0.0
 11
-14.594
 21
-10.013
 31
0.0
  0
LINE
  5
2C2
330
A
100
AcDbEntity
  8
PV
  6
Continuous
 62
     7
100
AcDbLine
 10
-14.59799999999999
 20
-9.948999999999999
 30
0.0
 11
-14.596
 21
-9.980999999999999
 31
0.0
  0
LINE
  5
2C3
330
A
100
AcDbEntity
  8
PV
  6
Continuous
 62
     7
100
AcDbLine
 10
-14.599
 20
-9.916999999999999
 30
0.0
 11
-14.59799999999999
 21
-9.948999999999999
 31
0.0
  0
LINE
  5
2C4
330
A
100
AcDbEntity
  8
PV
  6
Continuous
 62
     7
100
AcDbLine
 10
-14.60099999999999
 20
-9.884999999999999
 30
0.0
 11
-14.599
 21
-9.916999999999999
 31
0.0
  0
LINE
  5
2C5
330
A
100
AcDbEntity
  8
PV
  6
Continuous
 62
     7
100
AcDbLine
 10
-14.602
 20
-9.852999999999999
 30
0.0
 11
-14.60099999999999
 21
-9.884999999999999
 31
0.0
  0
LINE
  5
2C6
330
A
100
AcDbEntity
  8
PV
  6
Continuous
 62
     7
100
AcDbLine
 10
-14.603
 20
-9.820999999999999
 30
0.0
 11
-14.602
 21
-9.852999999999999
 31
0.0
  0
LINE
  5
2C7
330
A
100
AcDbEntity
  8
PV
  6
Continuous
 62
     7
100
AcDbLine
 10
-14.604
 20
-9.788
 30
0.0
 11
-14.603
 21
-9.820999999999999
 31
0.0
  0
LINE
  5
2C8
330
A
100
AcDbEntity
  8
PV
  6
Continuous
 62
     7
100
AcDbLine
 10
-14.605
 20
-9.756
 30
0.0
 11
-14.604
 21
-9.788
 31
0.0
  0
LINE
  5
2C9
330
A
100
AcDbEntity
  8
PV
  6
Continuous
 62
     7
100
AcDbLine
 10
-14.606
 20
-9.724
 30
0.0
 11
-14.605
 21
-9.756
 31
0.0
  0
LINE
  5
2CA
330
A
100
AcDbEntity
  8
PV
  6
Continuous
 62
     7
100
AcDbLine
 10
-14.607
 20
-9.692
 30
0.0
 11
-14.606
 21
-9.724
 31
0.0
  0
LINE
  5
2CB
330
A
100
AcDbEntity
  8
PV
  6
Continuous
 62
     7
100
AcDbLine
 10
-14.60799999999998
 20
-9.66
 30
0.0
 11
-14.607
 21
-9.692
 31
0.0
  0
LINE
  5
2CC
330
A
100
AcDbEntity
  8
PV
  6
Continuous
 62
     7
100
AcDbLine
 10
-14.60799999999998
 20
-9.628
 30
0.0
 11
-14.60799999999998
 21
-9.66
 31
0.0
  0
LINE
  5
2CD
330
A
100
AcDbEntity
  8
PV
  6
Continuous
 62
     7
100
AcDbLine
 10
-14.609
 20
-9.596
 30
0.0
 11
-14.60799999999998
 21
-9.628
 31
0.0
  0
LINE
  5
2CE
330
A
100
AcDbEntity
  8
PV
  6
Continuous
 62
     7
100
AcDbLine
 10
-14.609
 20
-9.564
 30
0.0
 11
-14.609
 21
-9.596
 31
0.0
  0
LINE
  5
2CF
330
A
100
AcDbEntity
  8
PV
  6
Continuous
 62
     7
100
AcDbLine
 10
-14.609
 20
-9.532
 30
0.0
 11
-14.609
 21
-9.564
 31
0.0
  0
LINE
  5
2D0
330
A
100
AcDbEntity
  8
PV
  6
Continuous
 62
     7
100
AcDbLine
 10
-14.609
 20
-9.5
 30
0.0
 11
-14.609
 21
-9.532
 31
0.0
  0
LINE
  5
2D1
330
A
100
AcDbEntity
  8
PV
  6
Continuous
 62
     7
100
AcDbLine
 10
24.609
 20
-9.532
 30
0.0
 11
24.609
 21
-9.5
 31
0.0
  0
LINE
  5
2D2
330
A
100
AcDbEntity
  8
PV
  6
Continuous
 62
     7
100
AcDbLine
 10
24.609
 20
-9.564
 30
0.0
 11
24.609
 21
-9.532
 31
0.0
  0
LINE
  5
2D3
330
A
100
AcDbEntity
  8
PV
  6
Continuous
 62
     7
100
AcDbLine
 10
24.609
 20
-9.596
 30
0.0
 11
24.609
 21
-9.564
 31
0.0
  0
LINE
  5
2D4
330
A
100
AcDbEntity
  8
PV
  6
Continuous
 62
     7
100
AcDbLine
 10
24.608
 20
-9.628
 30
0.0
 11
24.609
 21
-9.596
 31
0.0
  0
LINE
  5
2D5
330
A
100
AcDbEntity
  8
PV
  6
Continuous
 62
     7
100
AcDbLine
 10
24.608
 20
-9.66
 30
0.0
 11
24.608
 21
-9.628
 31
0.0
  0
LINE
  5
2D6
330
A
100
AcDbEntity
  8
PV
  6
Continuous
 62
     7
100
AcDbLine
 10
24.607
 20
-9.692
 30
0.0
 11
24.608
 21
-9.66
 31
0.0
  0
LINE
  5
2D7
330
A
100
AcDbEntity
  8
PV
  6
Continuous
 62
     7
100
AcDbLine
 10
24.60599999999999
 20
-9.724
 30
0.0
 11
24.607
 21
-9.692
 31
0.0
  0
LINE
  5
2D8
330
A
100
AcDbEntity
  8
PV
  6
Continuous
 62
     7
100
AcDbLine
 10
24.605
 20
-9.756
 30
0.0
 11
24.60599999999999
 21
-9.724
 31
0.0
  0
LINE
  5
2D9
330
A
100
AcDbEntity
  8
PV
  6
Continuous
 62
     7
100
AcDbLine
 10
24.60399999999999
 20
-9.788
 30
0.0
 11
24.605
 21
-9.756
 31
0.0
  0
LINE
  5
2DA
330
A
100
AcDbEntity
  8
PV
  6
Continuous
 62
     7
100
AcDbLine
 10
24.603
 20
-9.820999999999999
 30
0.0
 11
24.60399999999999
 21
-9.788
 31
0.0
  0
LINE
  5
2DB
330
A
100
AcDbEntity
  8
PV
  6
Continuous
 62
     7
100
AcDbLine
 10
24.60199999999999
 20
-9.852999999999999
 30
0.0
 11
24.603
 21
-9.820999999999999
 31
0.0
  0
LINE
  5
2DC
330
A
100
AcDbEntity
  8
PV
  6
Continuous
 62
     7
100
AcDbLine
 10
24.601
 20
-9.884999999999999
 30
0.0
 11
24.60199999999999
 21
-9.852999999999999
 31
0.0
  0
LINE
  5
2DD
330
A
100
AcDbEntity
  8
PV
  6
Continuous
 62
     7
100
AcDbLine
 10
24.599
 20
-9.916999999999999
 30
0.0
 11
24.601
 21
-9.884999999999999
 31
0.0
  0
LINE
  5
2DE
330
A
100
AcDbEntity
  8
PV
  6
Continuous
 62
     7
100
AcDbLine
 10
24.598
 20
-9.948999999999999
 30
0.0
 11
24.599
 21
-9.916999999999999
 31
0.0
  0
LINE
  5
2DF
330
A
100
AcDbEntity
  8
PV
  6
Continuous
 62
     7
100
AcDbLine
 10
24.596
 20
-9.980999999999999
 30
0.0
 11
24.598
 21
-9.948999999999999
 31
0.0
  0
LINE
  5
2E0
330
A
100
AcDbEntity
  8
PV
  6
Continuous
 62
     7
100
AcDbLine
 10
24.594
 20
-10.013
 30
0.0
 11
24.596
 21
-9.980999999999999
 31
0.0
  0
LINE
  5
2E1
330
A
100
AcDbEntity
  8
PV
  6
Continuous
 62
     7
100
AcDbLine
 10
24.593
 20
-10.04499999999999
 30
0.0
 11
24.594
 21
-10.013
 31
0.0
  0
LINE
  5
2E2
330
A
100
AcDbEntity
  8
PV
  6
Continuous
 62
     7
100
AcDbLine
 10
24.59
 20
-10.077
 30
0.0
 11
24.593
 21
-10.04499999999999
 31
0.0
  0
LINE
  5
2E3
330
A
100
AcDbEntity
  8
PV
  6
Continuous
 62
     7
100
AcDbLine
 10
24.588
 20
-10.109
 30
0.0
 11
24.59
 21
-10.077
 31
0.0
  0
LINE
  5
2E4
330
A
100
AcDbEntity
  8
PV
  6
Continuous
 62
     7
100
AcDbLine
 10
24.586
 20
-10.141
 30
0.0
 11
24.588
 21
-10.109
 31
0.0
  0
LINE
  5
2E5
330
A
100
AcDbEntity
  8
PV
  6
Continuous
 62
     7
100
AcDbLine
 10
24.584
 20
-10.173
 30
0.0
 11
24.586
 21
-10.141
 31
0.0
  0
LINE
  5
2E6
330
A
100
AcDbEntity
  8
PV
  6
Continuous
 62
     7
100
AcDbLine
 10
24.58099999999999
 20
-10.20499999999999
 30
0.0
 11
24.584
 21
-10.173
 31
0.0
  0
LINE
  5
2E7
330
A
100
AcDbEntity
  8
PV
  6
Continuous
 62
     7
100
AcDbLine
 10
24.579
 20
-10.237
 30
0.0
 11
24.58099999999999
 21
-10.20499999999999
 31
0.0
  0
LINE
  5
2E8
330
A
100
AcDbEntity
  8
PV
  6
Continuous
 62
     7
100
AcDbLine
 10
24.576
 20
-10.269
 30
0.0
 11
24.579
 21
-10.237
 31
0.0
  0
LINE
  5
2E9
330
A
100
AcDbEntity
  8
PV
  6
Continuous
 62
     7
100
AcDbLine
 10
24.573
 20
-10.3
 30
0.0
 11
24.576
 21
-10.269
 31
0.0
  0
LINE
  5
2EA
330
A
100
AcDbEntity
  8
PV
  6
Continuous
 62
     7
100
AcDbLine
 10
24.57
 20
-10.332
 30
0.0
 11
24.573
 21
-10.3
 31
0.0
  0
LINE
  5
2EB
330
A
100
AcDbEntity
  8
PV
  6
Continuous
 62
     7
100
AcDbLine
 10
24.56699999999999
 20
-10.364
 30
0.0
 11
24.57
 21
-10.332
 31
0.0
  0
LINE
  5
2EC
330
A
100
AcDbEntity
  8
PV
  6
Continuous
 62
     7
100
AcDbLine
 10
24.564
 20
-10.39599999999998
 30
0.0
 11
24.56699999999999
 21
-10.364
 31
0.0
  0
LINE
  5
2ED
330
A
100
AcDbEntity
  8
PV
  6
Continuous
 62
     7
100
AcDbLine
 10
24.561
 20
-10.42799999999999
 30
0.0
 11
24.564
 21
-10.39599999999998
 31
0.0
  0
LINE
  5
2EE
330
A
100
AcDbEntity
  8
PV
  6
Continuous
 62
     7
100
AcDbLine
 10
24.557
 20
-10.46
 30
0.0
 11
24.561
 21
-10.42799999999999
 31
0.0
  0
LINE
  5
2EF
330
A
100
AcDbEntity
  8
PV
  6
Continuous
 62
     7
100
AcDbLine
 10
24.554
 20
-10.492
 30
0.0
 11
24.557
 21
-10.46
 31
0.0
  0
LINE
  5
2F0
330
A
100
AcDbEntity
  8
PV
  6
Continuous
 62
     7
100
AcDbLine
 10
24.55
 20
-10.524
 30
0.0
 11
24.554
 21
-10.492
 31
0.0
  0
LINE
  5
2F1
330
A
100
AcDbEntity
  8
PV
  6
Continuous
 62
     7
100
AcDbLine
 10
24.546
 20
-10.55599999999998
 30
0.0
 11
24.55
 21
-10.524
 31
0.0
  0
LINE
  5
2F2
330
A
100
AcDbEntity
  8
PV
  6
Continuous
 62
     7
100
AcDbLine
 10
24.542
 20
-10.58699999999999
 30
0.0
 11
24.546
 21
-10.55599999999998
 31
0.0
  0
LINE
  5
2F3
330
A
100
AcDbEntity
  8
PV
  6
Continuous
 62
     7
100
AcDbLine
 10
24.538
 20
-10.619
 30
0.0
 11
24.542
 21
-10.58699999999999
 31
0.0
  0
LINE
  5
2F4
330
A
100
AcDbEntity
  8
PV
  6
Continuous
 62
     7
100
AcDbLine
 10
24.534
 20
-10.65099999999999
 30
0.0
 11
24.538
 21
-10.619
 31
0.0
  0
LINE
  5
2F5
330
A
100
AcDbEntity
  8
PV
  6
Continuous
 62
     7
100
AcDbLine
 10
24.53
 20
-10.683
 30
0.0
 11
24.534
 21
-10.65099999999999
 31
0.0
  0
LINE
  5
2F6
330
A
100
AcDbEntity
  8
PV
  6
Continuous
 62
     7
100
AcDbLine
 10
24.525
 20
-10.715
 30
0.0
 11
24.53
 21
-10.683
 31
0.0
  0
LINE
  5
2F7
330
A
100
AcDbEntity
  8
PV
  6
Continuous
 62
     7
100
AcDbLine
 10
24.521
 20
-10.74599999999999
 30
0.0
 11
24.525
 21
-10.715
 31
0.0
  0
LINE
  5
2F8
330
A
100
AcDbEntity
  8
PV
  6
Continuous
 62
     7
100
AcDbLine
 10
24.516
 20
-10.77799999999998
 30
0.0
 11
24.521
 21
-10.74599999999999
 31
0.0
  0
LINE
  5
2F9
330
A
100
AcDbEntity
  8
PV
  6
Continuous
 62
     7
100
AcDbLine
 10
24.511
 20
-10.81
 30
0.0
 11
24.516
 21
-10.77799999999998
 31
0.0
  0
LINE
  5
2FA
330
A
100
AcDbEntity
  8
PV
  6
Continuous
 62
     7
100
AcDbLine
 10
24.50699999999999
 20
-10.841
 30
0.0
 11
24.511
 21
-10.81
 31
0.0
  0
LINE
  5
2FB
330
A
100
AcDbEntity
  8
PV
  6
Continuous
 62
     7
100
AcDbLine
 10
24.502
 20
-10.87299999999999
 30
0.0
 11
24.50699999999999
 21
-10.841
 31
0.0
  0
LINE
  5
2FC
330
A
100
AcDbEntity
  8
PV
  6
Continuous
 62
     7
100
AcDbLine
 10
24.496
 20
-10.905
 30
0.0
 11
24.502
 21
-10.87299999999999
 31
0.0
  0
LINE
  5
2FD
330
A
100
AcDbEntity
  8
PV
  6
Continuous
 62
     7
100
AcDbLine
 10
24.491
 20
-10.936
 30
0.0
 11
24.496
 21
-10.905
 31
0.0
  0
LINE
  5
2FE
330
A
100
AcDbEntity
  8
PV
  6
Continuous
 62
     7
100
AcDbLine
 10
24.486
 20
-10.96799999999999
 30
0.0
 11
24.491
 21
-10.936
 31
0.0
  0
LINE
  5
2FF
330
A
100
AcDbEntity
  8
PV
  6
Continuous
 62
     7
100
AcDbLine
 10
24.48
 20
-11.0
 30
0.0
 11
24.486
 21
-10.96799999999999
 31
0.0
  0
LINE
  5
300
330
A
100
AcDbEntity
  8
PV
  6
Continuous
 62
     7
100
AcDbLine
 10
24.474
 20
-11.03099999999999
 30
0.0
 11
24.48
 21
-11.0
 31
0.0
  0
LINE
  5
301
330
A
100
AcDbEntity
  8
PV
  6
Continuous
 62
     7
100
AcDbLine
 10
24.469
 20
-11.06299999999998
 30
0.0
 11
24.474
 21
-11.03099999999999
 31
0.0
  0
LINE
  5
302
330
A
100
AcDbEntity
  8
PV
  6
Continuous
 62
     7
100
AcDbLine
 10
24.463
 20
-11.094
 30
0.0
 11
24.469
 21
-11.06299999999998
 31
0.0
  0
LINE
  5
303
330
A
100
AcDbEntity
  8
PV
  6
Continuous
 62
     7
100
AcDbLine
 10
24.45699999999999
 20
-11.126
 30
0.0
 11
24.463
 21
-11.094
 31
0.0
  0
LINE
  5
304
330
A
100
AcDbEntity
  8
PV
  6
Continuous
 62
     7
100
AcDbLine
 10
24.45
 20
-11.157
 30
0.0
 11
24.45699999999999
 21
-11.126
 31
0.0
  0
LINE
  5
305
330
A
100
AcDbEntity
  8
PV
  6
Continuous
 62
     7
100
AcDbLine
 10
24.444
 20
-11.188
 30
0.0
 11
24.45
 21
-11.157
 31
0.0
  0
LINE
  5
306
330
A
100
AcDbEntity
  8
PV
  6
Continuous
 62
     7
100
AcDbLine
 10
24.438
 20
-11.22
 30
0.0
 11
24.444
 21
-11.188
 31
0.0
  0
LINE
  5
307
330
A
100
AcDbEntity
  8
PV
  6
Continuous
 62
     7
100
AcDbLine
 10
24.43099999999999
 20
-11.25099999999999
 30
0.0
 11
24.438
 21
-11.22
 31
0.0
  0
LINE
  5
308
330
A
100
AcDbEntity
  8
PV
  6
Continuous
 62
     7
100
AcDbLine
 10
24.424
 20
-11.283
 30
0.0
 11
24.43099999999999
 21
-11.25099999999999
 31
0.0
  0
LINE
  5
309
330
A
100
AcDbEntity
  8
PV
  6
Continuous
 62
     7
100
AcDbLine
 10
24.41699999999999
 20
-11.31399999999999
 30
0.0
 11
24.424
 21
-11.283
 31
0.0
  0
LINE
  5
30A
330
A
100
AcDbEntity
  8
PV
  6
Continuous
 62
     7
100
AcDbLine
 10
24.41
 20
-11.345
 30
0.0
 11
24.41699999999999
 21
-11.31399999999999
 31
0.0
  0
LINE
  5
30B
330
A
100
AcDbEntity
  8
PV
  6
Continuous
 62
     7
100
AcDbLine
 10
24.403
 20
-11.377
 30
0.0
 11
24.41
 21
-11.345
 31
0.0
  0
LINE
  5
30C
330
A
100
AcDbEntity
  8
PV
  6
Continuous
 62
     7
100
AcDbLine
 10
24.396
 20
-11.408
 30
0.0
 11
24.403
 21
-11.377
 31
0.0
  0
LINE
  5
30D
330
A
100
AcDbEntity
  8
PV
  6
Continuous
 62
     7
100
AcDbLine
 10
24.388
 20
-11.439
 30
0.0
 11
24.396
 21
-11.408
 31
0.0
  0
LINE
  5
30E
330
A
100
AcDbEntity
  8
PV
  6
Continuous
 62
     7
100
AcDbLine
 10
24.381
 20
-11.47
 30
0.0
 11
24.388
 21
-11.439
 31
0.0
  0
LINE
  5
30F
330
A
100
AcDbEntity
  8
PV
  6
Continuous
 62
     7
100
AcDbLine
 10
24.373
 20
-11.50099999999999
 30
0.0
 11
24.381
 21
-11.47
 31
0.0
  0
LINE
  5
310
330
A
100
AcDbEntity
  8
PV
  6
Continuous
 62
     7
100
AcDbLine
 10
24.365
 20
-11.532
 30
0.0
 11
24.373
 21
-11.50099999999999
 31
0.0
  0
LINE
  5
311
330
A
100
AcDbEntity
  8
PV
  6
Continuous
 62
     7
100
AcDbLine
 10
24.357
 20
-11.56299999999998
 30
0.0
 11
24.365
 21
-11.532
 31
0.0
  0
LINE
  5
312
330
A
100
AcDbEntity
  8
PV
  6
Continuous
 62
     7
100
AcDbLine
 10
24.349
 20
-11.594
 30
0.0
 11
24.357
 21
-11.56299999999998
 31
0.0
  0
LINE
  5
313
330
A
100
AcDbEntity
  8
PV
  6
Continuous
 62
     7
100
AcDbLine
 10
24.34099999999999
 20
-11.625
 30
0.0
 11
24.349
 21
-11.594
 31
0.0
  0
LINE
  5
314
330
A
100
AcDbEntity
  8
PV
  6
Continuous
 62
     7
100
AcDbLine
 10
24.33199999999999
 20
-11.65599999999999
 30
0.0
 11
24.34099999999999
 21
-11.625
 31
0.0
  0
LINE
  5
315
330
A
100
AcDbEntity
  8
PV
  6
Continuous
 62
     7
100
AcDbLine
 10
24.324
 20
-11.687
 30
0.0
 11
24.33199999999999
 21
-11.65599999999999
 31
0.0
  0
LINE
  5
316
330
A
100
AcDbEntity
  8
PV
  6
Continuous
 62
     7
100
AcDbLine
 10
24.315
 20
-11.71799999999999
 30
0.0
 11
24.324
 21
-11.687
 31
0.0
  0
LINE
  5
317
330
A
100
AcDbEntity
  8
PV
  6
Continuous
 62
     7
100
AcDbLine
 10
24.306
 20
-11.749
 30
0.0
 11
24.315
 21
-11.71799999999999
 31
0.0
  0
LINE
  5
318
330
A
100
AcDbEntity
  8
PV
  6
Continuous
 62
     7
100
AcDbLine
 10
24.29699999999999
 20
-11.779
 30
0.0
 11
24.306
 21
-11.749
 31
0.0
  0
LINE
  5
319
330
A
100
AcDbEntity
  8
PV
  6
Continuous
 62
     7
100
AcDbLine
 10
24.287
 20
-11.81
 30
0.0
 11
24.29699999999999
 21
-11.779
 31
0.0
  0
LINE
  5
31A
330
A
100
AcDbEntity
  8
PV
  6
Continuous
 62
     7
100
AcDbLine
 10
24.278
 20
-11.84099999999999
 30
0.0
 11
24.287
 21
-11.81
 31
0.0
  0
LINE
  5
31B
330
A
100
AcDbEntity
  8
PV
  6
Continuous
 62
     7
100
AcDbLine
 10
24.268
 20
-11.87099999999998
 30
0.0
 11
24.278
 21
-11.84099999999999
 31
0.0
  0
LINE
  5
31C
330
A
100
AcDbEntity
  8
PV
  6
Continuous
 62
     7
100
AcDbLine
 10
24.259
 20
-11.902
 30
0.0
 11
24.268
 21
-11.87099999999998
 31
0.0
  0
LINE
  5
31D
330
A
100
AcDbEntity
  8
PV
  6
Continuous
 62
     7
100
AcDbLine
 10
24.249
 20
-11.932
 30
0.0
 11
24.259
 21
-11.902
 31
0.0
  0
LINE
  5
31E
330
A
100
AcDbEntity
  8
PV
  6
Continuous
 62
     7
100
AcDbLine
 10
24.239
 20
-11.96299999999999
 30
0.0
 11
24.249
 21
-11.932
 31
0.0
  0
LINE
  5
31F
330
A
100
AcDbEntity
  8
PV
  6
Continuous
 62
     7
100
AcDbLine
 10
24.228
 20
-11.993
 30
0.0
 11
24.239
 21
-11.96299999999999
 31
0.0
  0
LINE
  5
320
330
A
100
AcDbEntity
  8
PV
  6
Continuous
 62
     7
100
AcDbLine
 10
24.218
 20
-12.024
 30
0.0
 11
24.228
 21
-11.993
 31
0.0
  0
LINE
  5
321
330
A
100
AcDbEntity
  8
PV
  6
Continuous
 62
     7
100
AcDbLine
 10
24.207
 20
-12.054
 30
0.0
 11
24.218
 21
-12.024
 31
0.0
  0
LINE
  5
322
330
A
100
AcDbEntity
  8
PV
  6
Continuous
 62
     7
100
AcDbLine
 10
24.197
 20
-12.084
 30
0.0
 11
24.207
 21
-12.054
 31
0.0
  0
LINE
  5
323
330
A
100
AcDbEntity
  8
PV
  6
Continuous
 62
     7
100
AcDbLine
 10
24.186
 20
-12.114
 30
0.0
 11
24.197
 21
-12.084
 31
0.0
  0
LINE
  5
324
330
A
100
AcDbEntity
  8
PV
  6
Continuous
 62
     7
100
AcDbLine
 10
24.174
 20
-12.144
 30
0.0
 11
24.186
 21
-12.114
 31
0.0
  0
LINE
  5
325
330
A
100
AcDbEntity
  8
PV
  6
Continuous
 62
     7
100
AcDbLine
 10
24.163
 20
-12.174
 30
0.0
 11
24.174
 21
-12.144
 31
0.0
  0
LINE
  5
326
330
A
100
AcDbEntity
  8
PV
  6
Continuous
 62
     7
100
AcDbLine
 10
24.152
 20
-12.204
 30
0.0
 11
24.163
 21
-12.174
 31
0.0
  0
LINE
  5
327
330
A
100
AcDbEntity
  8
PV
  6
Continuous
 62
     7
100
AcDbLine
 10
24.14
 20
-12.234
 30
0.0
 11
24.152
 21
-12.204
 31
0.0
  0
LINE
  5
328
330
A
100
AcDbEntity
  8
PV
  6
Continuous
 62
     7
100
AcDbLine
 10
24.128
 20
-12.264
 30
0.0
 11
24.14
 21
-12.234
 31
0.0
  0
LINE
  5
329
330
A
100
AcDbEntity
  8
PV
  6
Continuous
 62
     7
100
AcDbLine
 10
24.11599999999999
 20
-12.294
 30
0.0
 11
24.128
 21
-12.264
 31
0.0
  0
LINE
  5
32A
330
A
100
AcDbEntity
  8
PV
  6
Continuous
 62
     7
100
AcDbLine
 10
24.104
 20
-12.323
 30
0.0
 11
24.11599999999999
 21
-12.294
 31
0.0
  0
LINE
  5
32B
330
A
100
AcDbEntity
  8
PV
  6
Continuous
 62
     7
100
AcDbLine
 10
24.091
 20
-12.353
 30
0.0
 11
24.104
 21
-12.323
 31
0.0
  0
LINE
  5
32C
330
A
100
AcDbEntity
  8
PV
  6
Continuous
 62
     7
100
AcDbLine
 10
24.078
 20
-12.38199999999999
 30
0.0
 11
24.091
 21
-12.353
 31
0.0
  0
LINE
  5
32D
330
A
100
AcDbEntity
  8
PV
  6
Continuous
 62
     7
100
AcDbLine
 10
24.066
 20
-12.412
 30
0.0
 11
24.078
 21
-12.38199999999999
 31
0.0
  0
LINE
  5
32E
330
A
100
AcDbEntity
  8
PV
  6
Continuous
 62
     7
100
AcDbLine
 10
24.052
 20
-12.44099999999999
 30
0.0
 11
24.066
 21
-12.412
 31
0.0
  0
LINE
  5
32F
330
A
100
AcDbEntity
  8
PV
  6
Continuous
 62
     7
100
AcDbLine
 10
24.039
 20
-12.47
 30
0.0
 11
24.052
 21
-12.44099999999999
 31
0.0
  0
LINE
  5
330
330
A
100
AcDbEntity
  8
PV
  6
Continuous
 62
     7
100
AcDbLine
 10
24.026
 20
-12.499
 30
0.0
 11
24.039
 21
-12.47
 31
0.0
  0
LINE
  5
331
330
A
100
AcDbEntity
  8
PV
  6
Continuous
 62
     7
100
AcDbLine
 10
24.01199999999999
 20
-12.52799999999999
 30
0.0
 11
24.026
 21
-12.499
 31
0.0
  0
LINE
  5
332
330
A
100
AcDbEntity
  8
PV
  6
Continuous
 62
     7
100
AcDbLine
 10
23.998
 20
-12.557
 30
0.0
 11
24.01199999999999
 21
-12.52799999999999
 31
0.0
  0
LINE
  5
333
330
A
100
AcDbEntity
  8
PV
  6
Continuous
 62
     7
100
AcDbLine
 10
23.984
 20
-12.58599999999999
 30
0.0
 11
23.998
 21
-12.557
 31
0.0
  0
LINE
  5
334
330
A
100
AcDbEntity
  8
PV
  6
Continuous
 62
     7
100
AcDbLine
 10
23.969
 20
-12.614
 30
0.0
 11
23.984
 21
-12.58599999999999
 31
0.0
  0
LINE
  5
335
330
A
100
AcDbEntity
  8
PV
  6
Continuous
 62
     7
100
AcDbLine
 10
23.95499999999999
 20
-12.64299999999999
 30
0.0
 11
23.969
 21
-12.614
 31
0.0
  0
LINE
  5
336
330
A
100
AcDbEntity
  8
PV
  6
Continuous
 62
     7
100
AcDbLine
 10
23.94
 20
-12.671
 30
0.0
 11
23.95499999999999
 21
-12.64299999999999
 31
0.0
  0
LINE
  5
337
330
A
100
AcDbEntity
  8
PV
  6
Continuous
 62
     7
100
AcDbLine
 10
23.92399999999998
 20
-12.7
 30
0.0
 11
23.94
 21
-12.671
 31
0.0
  0
LINE
  5
338
330
A
100
AcDbEntity
  8
PV
  6
Continuous
 62
     7
100
AcDbLine
 10
23.909
 20
-12.728
 30
0.0
 11
23.92399999999998
 21
-12.7
 31
0.0
  0
LINE
  5
339
330
A
100
AcDbEntity
  8
PV
  6
Continuous
 62
     7
100
AcDbLine
 10
23.89299999999999
 20
-12.75599999999999
 30
0.0
 11
23.909
 21
-12.728
 31
0.0
  0
LINE
  5
33A
330
A
100
AcDbEntity
  8
PV
  6
Continuous
 62
     7
100
AcDbLine
 10
23.877
 20
-12.784
 30
0.0
 11
23.89299999999999
 21
-12.75599999999999
 31
0.0
  0
LINE
  5
33B
330
A
100
AcDbEntity
  8
PV
  6
Continuous
 62
     7
100
AcDbLine
 10
23.861
 20
-12.812
 30
0.0
 11
23.877
 21
-12.784
 31
0.0
  0
LINE
  5
33C
330
A
100
AcDbEntity
  8
PV
  6
Continuous
 62
     7
100
AcDbLine
 10
23.845
 20
-12.839
 30
0.0
 11
23.861
 21
-12.812
 31
0.0
  0
LINE
  5
33D
330
A
100
AcDbEntity
  8
PV
  6
Continuous
 62
     7
100
AcDbLine
 10
23.828
 20
-12.86599999999999
 30
0.0
 11
23.845
 21
-12.839
 31
0.0
  0
LINE
  5
33E
330
A
100
AcDbEntity
  8
PV
  6
Continuous
 62
     7
100
AcDbLine
 10
23.81099999999999
 20
-12.894
 30
0.0
 11
23.828
 21
-12.86599999999999
 31
0.0
  0
LINE
  5
33F
330
A
100
AcDbEntity
  8
PV
  6
Continuous
 62
     7
100
AcDbLine
 10
23.793
 20
-12.921
 30
0.0
 11
23.81099999999999
 21
-12.894
 31
0.0
  0
LINE
  5
340
330
A
100
AcDbEntity
  8
PV
  6
Continuous
 62
     7
100
AcDbLine
 10
23.776
 20
-12.947
 30
0.0
 11
23.793
 21
-12.921
 31
0.0
  0
LINE
  5
341
330
A
100
AcDbEntity
  8
PV
  6
Continuous
 62
     7
100
AcDbLine
 10
23.758
 20
-12.974
 30
0.0
 11
23.776
 21
-12.947
 31
0.0
  0
LINE
  5
342
330
A
100
AcDbEntity
  8
PV
  6
Continuous
 62
     7
100
AcDbLine
 10
23.739
 20
-13.0
 30
0.0
 11
23.758
 21
-12.974
 31
0.0
  0
LINE
  5
343
330
A
100
AcDbEntity
  8
PV
  6
Continuous
 62
     7
100
AcDbLine
 10
23.721
 20
-13.02599999999999
 30
0.0
 11
23.739
 21
-13.0
 31
0.0
  0
LINE
  5
344
330
A
100
AcDbEntity
  8
PV
  6
Continuous
 62
     7
100
AcDbLine
 10
23.702
 20
-13.052
 30
0.0
 11
23.721
 21
-13.02599999999999
 31
0.0
  0
LINE
  5
345
330
A
100
AcDbEntity
  8
PV
  6
Continuous
 62
     7
100
AcDbLine
 10
23.683
 20
-13.078
 30
0.0
 11
23.702
 21
-13.052
 31
0.0
  0
LINE
  5
346
330
A
100
AcDbEntity
  8
PV
  6
Continuous
 62
     7
100
AcDbLine
 10
23.663
 20
-13.103
 30
0.0
 11
23.683
 21
-13.078
 31
0.0
  0
LINE
  5
347
330
A
100
AcDbEntity
  8
PV
  6
Continuous
 62
     7
100
AcDbLine
 10
23.643
 20
-13.128
 30
0.0
 11
23.663
 21
-13.103
 31
0.0
  0
LINE
  5
348
330
A
100
AcDbEntity
  8
PV
  6
Continuous
 62
     7
100
AcDbLine
 10
23.622
 20
-13.15299999999999
 30
0.0
 11
23.643
 21
-13.128
 31
0.0
  0
POINT
  5
349
330
A
100
AcDbEntity
  8
PV
  6
Continuous
 62
     7
100
AcDbPoint
 10
32.0
 20
-62.33299999999999
 30
0.0
  0
POINT
  5
34A
330
A
100
AcDbEntity
  8
PV
  6
Continuous
 62
     7
100
AcDbPoint
 10
32.0
 20
-104.3929999999999
 30
0.0
  0
POINT
  5
34B
330
A
100
AcDbEntity
  8
PV
  6
Continuous
 62
     7
100
AcDbPoint
 10
-22.18599999999999
 20
-62.33299999999999
 30
0.0
  0
MTEXT
  5
34C
330
A
100
AcDbEntity
  8
PV
  6
Continuous
 62
     7
100
AcDbMText
 10
15.167
 20
-55.899666
 30
0.0
 40
5.5
 41
0.0
 71
     2
 72
     1
  1
\T0.891;\W1.089;\A1;\U+220554
 73
     1
 44
1.0
  0
LINE
  5
34D
330
A
100
AcDbEntity
  8
PV
  6
Continuous
 62
     7
100
AcDbLine
 10
-22.18599999999999
 20
-62.33299999999999
 30
0.0
 11
32.0
 21
-62.33299999999999
 31
0.0
  0
LINE
  5
34E
330
A
100
AcDbEntity
  8
PV
  6
Continuous
 62
     7
100
AcDbLine
 10
32.0
 20
-62.33299999999999
 30
0.0
 11
29.23
 21
-62.33299999999999
 31
0.0
  0
LINE
  5
34F
330
A
100
AcDbEntity
  8
PV
  6
Continuous
 62
     7
100
AcDbLine
 10
32.0
 20
-62.33299999999999
 30
0.0
 11
29.23
 21
-63.076
 31
0.0
  0
LINE
  5
350
330
A
100
AcDbEntity
  8
PV
  6
Continuous
 62
     7
100
AcDbLine
 10
29.23
 20
-61.591
 30
0.0
 11
32.0
 21
-62.33299999999999
 31
0.0
  0
LINE
  5
351
330
A
100
AcDbEntity
  8
PV
  6
Continuous
 62
     7
100
AcDbLine
 10
-22.18599999999999
 20
-62.33299999999999
 30
0.0
 11
-19.416
 21
-62.33299999999999
 31
0.0
  0
LINE
  5
352
330
A
100
AcDbEntity
  8
PV
  6
Continuous
 62
     7
100
AcDbLine
 10
-22.18599999999999
 20
-62.33299999999999
 30
0.0
 11
-19.416
 21
-61.591
 31
0.0
  0
LINE
  5
353
330
A
100
AcDbEntity
  8
PV
  6
Continuous
 62
     7
100
AcDbLine
 10
-19.416
 20
-63.076
 30
0.0
 11
-22.18599999999999
 21
-62.33299999999999
 31
0.0
  0
POINT
  5
354
330
A
100
AcDbEntity
  8
PV
  6
Continuous
 62
     7
100
AcDbPoint
 10
60.325
 20
-31.5
 30
0.0
  0
POINT
  5
355
330
A
100
AcDbEntity
  8
PV
  6
Continuous
 62
     7
100
AcDbPoint
 10
57.611
 20
-31.5
 30
0.0
  0
POINT
  5
356
330
A
100
AcDbEntity
  8
PV
  6
Continuous
 62
     7
100
AcDbPoint
 10
22.0
 20
1.5
 30
0.0
  0
MTEXT
  5
357
330
A
100
AcDbEntity
  8
PV
  6
Continuous
 62
     7
100
AcDbMText
 10
53.891666
 20
-15.0
 30
0.0
 40
5.5
 41
0.0
 71
     2
 72
     1
  1
\W0.990;\A1;33～41
 11
0.0
 21
1.0
 31
0.0
 73
     1
 44
1.0
  0
LINE
  5
358
330
A
100
AcDbEntity
  8
PV
  6
Continuous
 62
     7
100
AcDbLine
 10
60.325
 20
1.5
 30
0.0
 11
60.325
 21
-31.5
 31
0.0
  0
LINE
  5
359
330
A
100
AcDbEntity
  8
PV
  6
Continuous
 62
     7
100
AcDbLine
 10
60.325
 20
-31.5
 30
0.0
 11
60.325
 21
-28.73
 31
0.0
  0
LINE
  5
35A
330
A
100
AcDbEntity
  8
PV
  6
Continuous
 62
     7
100
AcDbLine
 10
60.325
 20
-31.5
 30
0.0
 11
59.583
 21
-28.73
 31
0.0
  0
LINE
  5
35B
330
A
100
AcDbEntity
  8
PV
  6
Continuous
 62
     7
100
AcDbLine
 10
61.067
 20
-28.73
 30
0.0
 11
60.325
 21
-31.5
 31
0.0
  0
LINE
  5
35C
330
A
100
AcDbEntity
  8
PV
  6
Continuous
 62
     7
100
AcDbLine
 10
60.325
 20
1.5
 30
0.0
 11
60.325
 21
-1.27
 31
0.0
  0
LINE
  5
35D
330
A
100
AcDbEntity
  8
PV
  6
Continuous
 62
     7
100
AcDbLine
 10
60.325
 20
1.5
 30
0.0
 11
61.067
 21
-1.27
 31
0.0
  0
LINE
  5
35E
330
A
100
AcDbEntity
  8
PV
  6
Continuous
 62
     7
100
AcDbLine
 10
59.583
 20
-1.27
 30
0.0
 11
60.325
 21
1.5
 31
0.0
  0
POINT
  5
35F
330
A
100
AcDbEntity
  8
PV
  6
Continuous
 62
     7
100
AcDbPoint
 10
26.5
 20
12.578
 30
0.0
  0
POINT
  5
360
330
A
100
AcDbEntity
  8
PV
  6
Continuous
 62
     7
100
AcDbPoint
 10
26.5
 20
-19.5
 30
0.0
  0
POINT
  5
361
330
A
100
AcDbEntity
  8
PV
  6
Continuous
 62
     7
100
AcDbPoint
 10
-16.5
 20
-19.5
 30
0.0
  0
MTEXT
  5
362
330
A
100
AcDbEntity
  8
PV
  6
Continuous
 62
     7
100
AcDbMText
 10
5.0
 20
19.01133399999998
 30
0.0
 40
5.5
 41
0.0
 71
     2
 72
     1
  1
\T0.891;\W1.089;\A1;\U+220543
 73
     1
 44
1.0
  0
LINE
  5
363
330
A
100
AcDbEntity
  8
PV
  6
Continuous
 62
     7
100
AcDbLine
 10
26.5
 20
-16.96
 30
0.0
 11
26.5
 21
14.864
 31
0.0
  0
LINE
  5
364
330
A
100
AcDbEntity
  8
PV
  6
Continuous
 62
     7
100
AcDbLine
 10
-16.5
 20
-16.96
 30
0.0
 11
-16.5
 21
14.864
 31
0.0
  0
LINE
  5
365
330
A
100
AcDbEntity
  8
PV
  6
Continuous
 62
     7
100
AcDbLine
 10
-16.5
 20
12.578
 30
0.0
 11
26.5
 21
12.578
 31
0.0
  0
LINE
  5
366
330
A
100
AcDbEntity
  8
PV
  6
Continuous
 62
     7
100
AcDbLine
 10
26.5
 20
12.578
 30
0.0
 11
23.73
 21
12.578
 31
0.0
  0
LINE
  5
367
330
A
100
AcDbEntity
  8
PV
  6
Continuous
 62
     7
100
AcDbLine
 10
26.5
 20
12.578
 30
0.0
 11
23.73
 21
11.83599999999999
 31
0.0
  0
LINE
  5
368
330
A
100
AcDbEntity
  8
PV
  6
Continuous
 62
     7
100
AcDbLine
 10
23.73
 20
13.32
 30
0.0
 11
26.5
 21
12.578
 31
0.0
  0
LINE
  5
369
330
A
100
AcDbEntity
  8
PV
  6
Continuous
 62
     7
100
AcDbLine
 10
-16.5
 20
12.578
 30
0.0
 11
-13.73
 21
12.578
 31
0.0
  0
LINE
  5
36A
330
A
100
AcDbEntity
  8
PV
  6
Continuous
 62
     7
100
AcDbLine
 10
-16.5
 20
12.578
 30
0.0
 11
-13.73
 21
13.32
 31
0.0
  0
LINE
  5
36B
330
A
100
AcDbEntity
  8
PV
  6
Continuous
 62
     7
100
AcDbLine
 10
-13.73
 20
11.83599999999999
 30
0.0
 11
-16.5
 21
12.578
 31
0.0
  0
POINT
  5
36C
330
A
100
AcDbEntity
  8
PV
  6
Continuous
 62
     7
100
AcDbPoint
 10
42.646
 20
-19.5
 30
0.0
  0
POINT
  5
36D
330
A
100
AcDbEntity
  8
PV
  6
Continuous
 62
     7
100
AcDbPoint
 10
26.5
 20
-19.5
 30
0.0
  0
POINT
  5
36E
330
A
100
AcDbEntity
  8
PV
  6
Continuous
 62
     7
100
AcDbPoint
 10
22.0
 20
1.5
 30
0.0
  0
MTEXT
  5
36F
330
A
100
AcDbEntity
  8
PV
  6
Continuous
 62
     7
100
AcDbMText
 10
36.212666
 20
-9.0
 30
0.0
 40
5.5
 41
0.0
 71
     2
 72
     1
  1
\A1;21
 11
0.0
 21
1.0
 31
0.0
 73
     1
 44
1.0
  0
LINE
  5
370
330
A
100
AcDbEntity
  8
PV
  6
Continuous
 62
     7
100
AcDbLine
 10
29.03999999999999
 20
-19.5
 30
0.0
 11
44.93199999999998
 21
-19.5
 31
0.0
  0
LINE
  5
371
330
A
100
AcDbEntity
  8
PV
  6
Continuous
 62
     7
100
AcDbLine
 10
42.646
 20
1.5
 30
0.0
 11
42.646
 21
-19.5
 31
0.0
  0
LINE
  5
372
330
A
100
AcDbEntity
  8
PV
  6
Continuous
 62
     7
100
AcDbLine
 10
42.646
 20
-19.5
 30
0.0
 11
42.646
 21
-16.73
 31
0.0
  0
LINE
  5
373
330
A
100
AcDbEntity
  8
PV
  6
Continuous
 62
     7
100
AcDbLine
 10
42.646
 20
-19.5
 30
0.0
 11
41.90399999999999
 21
-16.73
 31
0.0
  0
LINE
  5
374
330
A
100
AcDbEntity
  8
PV
  6
Continuous
 62
     7
100
AcDbLine
 10
43.388
 20
-16.73
 30
0.0
 11
42.646
 21
-19.5
 31
0.0
  0
LINE
  5
375
330
A
100
AcDbEntity
  8
PV
  6
Continuous
 62
     7
100
AcDbLine
 10
42.646
 20
1.5
 30
0.0
 11
42.646
 21
-1.27
 31
0.0
  0
LINE
  5
376
330
A
100
AcDbEntity
  8
PV
  6
Continuous
 62
     7
100
AcDbLine
 10
42.646
 20
1.5
 30
0.0
 11
43.388
 21
-1.27
 31
0.0
  0
LINE
  5
377
330
A
100
AcDbEntity
  8
PV
  6
Continuous
 62
     7
100
AcDbLine
 10
41.90399999999999
 20
-1.27
 30
0.0
 11
42.646
 21
1.5
 31
0.0
  0
POINT
  5
378
330
A
100
AcDbEntity
  8
PV
  6
Continuous
 62
     7
100
AcDbPoint
 10
9.0
 20
-29.5
 30
0.0
  0
POINT
  5
379
330
A
100
AcDbEntity
  8
PV
  6
Continuous
 62
     7
100
AcDbPoint
 10
1.0
 20
-29.5
 30
0.0
  0
POINT
  5
37A
330
A
100
AcDbEntity
  8
PV
  6
Continuous
 62
     7
100
AcDbPoint
 10
42.646
 20
-28.5
 30
0.0
  0
POINT
  5
37B
330
A
100
AcDbEntity
  8
PV
  6
Continuous
 62
     7
100
AcDbPoint
 10
25.0
 20
-28.5
 30
0.0
  0
POINT
  5
37C
330
A
100
AcDbEntity
  8
PV
  6
Continuous
 62
     7
100
AcDbPoint
 10
26.5
 20
-19.5
 30
0.0
  0
MTEXT
  5
37D
330
A
100
AcDbEntity
  8
PV
  6
Continuous
 62
     7
100
AcDbMText
 10
45.23699899999999
 20
-10.925001
 30
0.0
 40
5.0
 41
0.0
 71
     2
 72
     1
  1
\A1;9～17
 11
-0.000001
 21
0.9999999999995001
 31
0.0
 73
     1
 44
1.0
  0
LINE
  5
37E
330
A
100
AcDbEntity
  8
PV
  6
Continuous
 62
     7
100
AcDbLine
 10
50.837
 20
-21.27099999999998
 30
0.0
 11
50.837
 21
0.125308
 31
0.0
  0
LINE
  5
37F
330
A
100
AcDbEntity
  8
PV
  6
Continuous
 62
     7
100
AcDbLine
 10
42.646
 20
-26.0
 30
0.0
 11
50.837
 21
-21.27099999999998
 31
0.0
  0
LINE
  5
380
330
A
100
AcDbEntity
  8
PV
  6
Continuous
 62
     7
100
AcDbLine
 10
27.54
 20
-28.5
 30
0.0
 11
44.93199999999998
 21
-28.5
 31
0.0
  0
LINE
  5
381
330
A
100
AcDbEntity
  8
PV
  6
Continuous
 62
     7
100
AcDbLine
 10
42.646
 20
-19.5
 30
0.0
 11
42.646
 21
-28.5
 31
0.0
  0
LINE
  5
382
330
A
100
AcDbEntity
  8
PV
  6
Continuous
 62
     7
100
AcDbLine
 10
42.646
 20
-28.5
 30
0.0
 11
42.646
 21
-25.73
 31
0.0
  0
LINE
  5
383
330
A
100
AcDbEntity
  8
PV
  6
Continuous
 62
     7
100
AcDbLine
 10
42.646
 20
-28.5
 30
0.0
 11
41.90399999999999
 21
-25.73
 31
0.0
  0
LINE
  5
384
330
A
100
AcDbEntity
  8
PV
  6
Continuous
 62
     7
100
AcDbLine
 10
43.388
 20
-25.73
 30
0.0
 11
42.646
 21
-28.5
 31
0.0
  0
LINE
  5
385
330
A
100
AcDbEntity
  8
PV
  6
Continuous
 62
     7
100
AcDbLine
 10
42.646
 20
-19.5
 30
0.0
 11
42.646
 21
-22.26999999999998
 31
0.0
  0
LINE
  5
386
330
A
100
AcDbEntity
  8
PV
  6
Continuous
 62
     7
100
AcDbLine
 10
42.646
 20
-19.5
 30
0.0
 11
43.388
 21
-22.26999999999998
 31
0.0
  0
LINE
  5
387
330
A
100
AcDbEntity
  8
PV
  6
Continuous
 62
     7
100
AcDbLine
 10
41.90399999999999
 20
-22.26999999999998
 30
0.0
 11
42.646
 21
-19.5
 31
0.0
  0
LINE
  5
388
330
A
100
AcDbEntity
  8
PV
  6
Continuous
 62
     7
100
AcDbLine
 10
42.646
 20
-26.0
 30
0.0
 11
45.045
 21
-24.615
 31
0.0
  0
LINE
  5
389
330
A
100
AcDbEntity
  8
PV
  6
Continuous
 62
     7
100
AcDbLine
 10
42.646
 20
-26.0
 30
0.0
 11
44.674
 21
-23.97199999999999
 31
0.0
  0
LINE
  5
38A
330
A
100
AcDbEntity
  8
PV
  6
Continuous
 62
     7
100
AcDbLine
 10
45.416
 20
-25.258
 30
0.0
 11
42.646
 21
-26.0
 31
0.0
  0
POINT
  5
38B
330
A
100
AcDbEntity
  8
PV
  6
Continuous
 62
     7
100
AcDbPoint
 10
60.325
 20
-144.5
 30
0.0
  0
POINT
  5
38C
330
A
100
AcDbEntity
  8
PV
  6
Continuous
 62
     7
100
AcDbPoint
 10
50.0
 20
-144.5
 30
0.0
  0
POINT
  5
38D
330
A
100
AcDbEntity
  8
PV
  6
Continuous
 62
     7
100
AcDbPoint
 10
33.5
 20
-31.5
 30
0.0
  0
MTEXT
  5
38E
330
A
100
AcDbEntity
  8
PV
  6
Continuous
 62
     7
100
AcDbMText
 10
53.891666
 20
-88.0
 30
0.0
 40
5.5
 41
0.0
 71
     2
 72
     1
  1
\A1;113
 11
0.0
 21
1.0
 31
0.0
 73
     1
 44
1.0
  0
LINE
  5
38F
330
A
100
AcDbEntity
  8
PV
  6
Continuous
 62
     7
100
AcDbLine
 10
36.04
 20
-31.5
 30
0.0
 11
62.611
 21
-31.5
 31
0.0
  0
LINE
  5
390
330
A
100
AcDbEntity
  8
PV
  6
Continuous
 62
     7
100
AcDbLine
 10
60.325
 20
-31.5
 30
0.0
 11
60.325
 21
-144.5
 31
0.0
  0
LINE
  5
391
330
A
100
AcDbEntity
  8
PV
  6
Continuous
 62
     7
100
AcDbLine
 10
60.325
 20
-144.5
 30
0.0
 11
60.325
 21
-141.73
 31
0.0
  0
LINE
  5
392
330
A
100
AcDbEntity
  8
PV
  6
Continuous
 62
     7
100
AcDbLine
 10
60.325
 20
-144.5
 30
0.0
 11
59.583
 21
-141.73
 31
0.0
  0
LINE
  5
393
330
A
100
AcDbEntity
  8
PV
  6
Continuous
 62
     7
100
AcDbLine
 10
61.067
 20
-141.73
 30
0.0
 11
60.325
 21
-144.5
 31
0.0
  0
LINE
  5
394
330
A
100
AcDbEntity
  8
PV
  6
Continuous
 62
     7
100
AcDbLine
 10
60.325
 20
-31.5
 30
0.0
 11
60.325
 21
-34.27
 31
0.0
  0
LINE
  5
395
330
A
100
AcDbEntity
  8
PV
  6
Continuous
 62
     7
100
AcDbLine
 10
60.325
 20
-31.5
 30
0.0
 11
61.067
 21
-34.27
 31
0.0
  0
LINE
  5
396
330
A
100
AcDbEntity
  8
PV
  6
Continuous
 62
     7
100
AcDbLine
 10
59.583
 20
-34.27
 30
0.0
 11
60.325
 21
-31.5
 31
0.0
  0
POINT
  5
397
330
A
100
AcDbEntity
  8
PV
  6
Continuous
 62
     7
100
AcDbPoint
 10
-55.0
 20
-160.5879999999999
 30
0.0
  0
POINT
  5
398
330
A
100
AcDbEntity
  8
PV
  6
Continuous
 62
     7
100
AcDbPoint
 10
-55.0
 20
-129.4999999999999
 30
0.0
  0
POINT
  5
399
330
A
100
AcDbEntity
  8
PV
  6
Continuous
 62
     7
100
AcDbPoint
 10
5.0
 20
-161.196
 30
0.0
  0
MTEXT
  5
39A
330
A
100
AcDbEntity
  8
PV
  6
Continuous
 62
     7
100
AcDbMText
 10
-23.931
 20
-154.1546659999999
 30
0.0
 40
5.5
 41
0.0
 71
     2
 72
     1
  1
\A1;60
 73
     1
 44
1.0
  0
LINE
  5
39B
330
A
100
AcDbEntity
  8
PV
  6
Continuous
 62
     7
100
AcDbLine
 10
-55.0
 20
-132.04
 30
0.0
 11
-55.0
 21
-162.874
 31
0.0
  0
LINE
  5
39C
330
A
100
AcDbEntity
  8
PV
  6
Continuous
 62
     7
100
AcDbLine
 10
5.0
 20
-150.5005699999999
 30
0.0
 11
5.0
 21
-162.874
 31
0.0
  0
LINE
  5
39D
330
A
100
AcDbEntity
  8
PV
  6
Continuous
 62
     7
100
AcDbLine
 10
5.0
 20
-160.5879999999999
 30
0.0
 11
-55.0
 21
-160.5879999999999
 31
0.0
  0
LINE
  5
39E
330
A
100
AcDbEntity
  8
PV
  6
Continuous
 62
     7
100
AcDbLine
 10
-55.0
 20
-160.5879999999999
 30
0.0
 11
-52.22999999999998
 21
-160.5879999999999
 31
0.0
  0
LINE
  5
39F
330
A
100
AcDbEntity
  8
PV
  6
Continuous
 62
     7
100
AcDbLine
 10
-55.0
 20
-160.5879999999999
 30
0.0
 11
-52.22999999999998
 21
-159.846
 31
0.0
  0
LINE
  5
3A0
330
A
100
AcDbEntity
  8
PV
  6
Continuous
 62
     7
100
AcDbLine
 10
-52.22999999999998
 20
-161.33
 30
0.0
 11
-55.0
 21
-160.5879999999999
 31
0.0
  0
LINE
  5
3A1
330
A
100
AcDbEntity
  8
PV
  6
Continuous
 62
     7
100
AcDbLine
 10
5.0
 20
-160.5879999999999
 30
0.0
 11
2.229999999999999
 21
-160.5879999999999
 31
0.0
  0
LINE
  5
3A2
330
A
100
AcDbEntity
  8
PV
  6
Continuous
 62
     7
100
AcDbLine
 10
5.0
 20
-160.5879999999999
 30
0.0
 11
2.229999999999999
 21
-161.33
 31
0.0
  0
LINE
  5
3A3
330
A
100
AcDbEntity
  8
PV
  6
Continuous
 62
     7
100
AcDbLine
 10
2.229999999999999
 20
-159.846
 30
0.0
 11
5.0
 21
-160.5879999999999
 31
0.0
  0
POINT
  5
3A4
330
A
100
AcDbEntity
  8
PV
  6
Continuous
 62
     7
100
AcDbPoint
 10
-72.33299999999998
 20
-144.5
 30
0.0
  0
POINT
  5
3A5
330
A
100
AcDbEntity
  8
PV
  6
Continuous
 62
     7
100
AcDbPoint
 10
-40.0
 20
-144.5
 30
0.0
  0
POINT
  5
3A6
330
A
100
AcDbEntity
  8
PV
  6
Continuous
 62
     7
100
AcDbPoint
 10
-72.656
 20
-84.50000000000001
 30
0.0
  0
MTEXT
  5
3A7
330
A
100
AcDbEntity
  8
PV
  6
Continuous
 62
     7
100
AcDbMText
 10
-78.766334
 20
-112.667
 30
0.0
 40
5.5
 41
0.0
 71
     2
 72
     1
  1
\A1;60
 11
0.0
 21
1.0
 31
0.0
 73
     1
 44
1.0
  0
LINE
  5
3A8
330
A
100
AcDbEntity
  8
PV
  6
Continuous
 62
     7
100
AcDbLine
 10
-43.54
 20
-144.5
 30
0.0
 11
-74.61899999999999
 21
-144.5
 31
0.0
  0
LINE
  5
3A9
330
A
100
AcDbEntity
  8
PV
  6
Continuous
 62
     7
100
AcDbLine
 10
-72.33299999999998
 20
-84.50000000000001
 30
0.0
 11
-72.33299999999998
 21
-144.5
 31
0.0
  0
LINE
  5
3AA
330
A
100
AcDbEntity
  8
PV
  6
Continuous
 62
     7
100
AcDbLine
 10
-72.33299999999998
 20
-144.5
 30
0.0
 11
-72.33299999999998
 21
-141.73
 31
0.0
  0
LINE
  5
3AB
330
A
100
AcDbEntity
  8
PV
  6
Continuous
 62
     7
100
AcDbLine
 10
-72.33299999999998
 20
-144.5
 30
0.0
 11
-73.076
 21
-141.73
 31
0.0
  0
LINE
  5
3AC
330
A
100
AcDbEntity
  8
PV
  6
Continuous
 62
     7
100
AcDbLine
 10
-71.59100000000002
 20
-141.73
 30
0.0
 11
-72.33299999999998
 21
-144.5
 31
0.0
  0
LINE
  5
3AD
330
A
100
AcDbEntity
  8
PV
  6
Continuous
 62
     7
100
AcDbLine
 10
-72.33299999999998
 20
-84.50000000000001
 30
0.0
 11
-72.33299999999998
 21
-87.27
 31
0.0
  0
LINE
  5
3AE
330
A
100
AcDbEntity
  8
PV
  6
Continuous
 62
     7
100
AcDbLine
 10
-72.33299999999998
 20
-84.50000000000001
 30
0.0
 11
-71.59100000000002
 21
-87.27
 31
0.0
  0
LINE
  5
3AF
330
A
100
AcDbEntity
  8
PV
  6
Continuous
 62
     7
100
AcDbLine
 10
-73.076
 20
-87.27
 30
0.0
 11
-72.33299999999998
 21
-84.50000000000001
 31
0.0
  0
POINT
  5
3B0
330
A
100
AcDbEntity
  8
PV
  6
Continuous
 62
     7
100
AcDbPoint
 10
75.26
 20
-144.5
 30
0.0
  0
POINT
  5
3B1
330
A
100
AcDbEntity
  8
PV
  6
Continuous
 62
     7
100
AcDbPoint
 10
50.0
 20
-144.5
 30
0.0
  0
POINT
  5
3B2
330
A
100
AcDbEntity
  8
PV
  6
Continuous
 62
     7
100
AcDbPoint
 10
22.5
 20
1.5
 30
0.0
  0
MTEXT
  5
3B3
330
A
100
AcDbEntity
  8
PV
  6
Continuous
 62
     7
100
AcDbMText
 10
68.826666
 20
-71.5
 30
0.0
 40
5.5
 41
0.0
 71
     2
 72
     1
  1
\A1;146～154
 11
0.0
 21
1.0
 31
0.0
 73
     1
 44
1.0
  0
LINE
  5
3B4
330
A
100
AcDbEntity
  8
PV
  6
Continuous
 62
     7
100
AcDbLine
 10
52.54
 20
-144.5
 30
0.0
 11
77.546
 21
-144.5
 31
0.0
  0
LINE
  5
3B5
330
A
100
AcDbEntity
  8
PV
  6
Continuous
 62
     7
100
AcDbLine
 10
25.04
 20
1.5
 30
0.0
 11
77.546
 21
1.5
 31
0.0
  0
LINE
  5
3B6
330
A
100
AcDbEntity
  8
PV
  6
Continuous
 62
     7
100
AcDbLine
 10
75.26
 20
1.5
 30
0.0
 11
75.26
 21
-144.5
 31
0.0
  0
LINE
  5
3B7
330
A
100
AcDbEntity
  8
PV
  6
Continuous
 62
     7
100
AcDbLine
 10
75.26
 20
-144.5
 30
0.0
 11
75.26
 21
-141.73
 31
0.0
  0
LINE
  5
3B8
330
A
100
AcDbEntity
  8
PV
  6
Continuous
 62
     7
100
AcDbLine
 10
75.26
 20
-144.5
 30
0.0
 11
74.518
 21
-141.73
 31
0.0
  0
LINE
  5
3B9
330
A
100
AcDbEntity
  8
PV
  6
Continuous
 62
     7
100
AcDbLine
 10
76.002
 20
-141.73
 30
0.0
 11
75.26
 21
-144.5
 31
0.0
  0
LINE
  5
3BA
330
A
100
AcDbEntity
  8
PV
  6
Continuous
 62
     7
100
AcDbLine
 10
75.26
 20
1.5
 30
0.0
 11
75.26
 21
-1.27
 31
0.0
  0
LINE
  5
3BB
330
A
100
AcDbEntity
  8
PV
  6
Continuous
 62
     7
100
AcDbLine
 10
75.26
 20
1.5
 30
0.0
 11
76.002
 21
-1.27
 31
0.0
  0
LINE
  5
3BC
330
A
100
AcDbEntity
  8
PV
  6
Continuous
 62
     7
100
AcDbLine
 10
74.518
 20
-1.27
 30
0.0
 11
75.26
 21
1.5
 31
0.0
  0
POINT
  5
3BD
330
A
100
AcDbEntity
  8
PV
  6
Continuous
 62
     7
100
AcDbPoint
 10
-62.0
 20
-39.5
 30
0.0
  0
POINT
  5
3BE
330
A
100
AcDbEntity
  8
PV
  6
Continuous
 62
     7
100
AcDbPoint
 10
-55.0
 20
-39.5
 30
0.0
  0
POINT
  5
3BF
330
A
100
AcDbEntity
  8
PV
  6
Continuous
 62
     7
100
AcDbPoint
 10
-55.0
 20
-129.4999999999999
 30
0.0
  0
MTEXT
  5
3C0
330
A
100
AcDbEntity
  8
PV
  6
Continuous
 62
     7
100
AcDbMText
 10
-68.433334
 20
-74.667
 30
0.0
 40
5.5
 41
0.0
 71
     2
 72
     1
  1
\T1.020;\W1.004;\A1;\U+220590
 11
0.0
 21
1.0
 31
0.0
 73
     1
 44
1.0
  0
LINE
  5
3C1
330
A
100
AcDbEntity
  8
PV
  6
Continuous
 62
     7
100
AcDbLine
 10
-57.54
 20
-39.5
 30
0.0
 11
-64.286
 21
-39.5
 31
0.0
  0
LINE
  5
3C2
330
A
100
AcDbEntity
  8
PV
  6
Continuous
 62
     7
100
AcDbLine
 10
-57.54
 20
-129.4999999999999
 30
0.0
 11
-64.286
 21
-129.4999999999999
 31
0.0
  0
LINE
  5
3C3
330
A
100
AcDbEntity
  8
PV
  6
Continuous
 62
     7
100
AcDbLine
 10
-62.0
 20
-129.4999999999999
 30
0.0
 11
-62.0
 21
-39.5
 31
0.0
  0
LINE
  5
3C4
330
A
100
AcDbEntity
  8
PV
  6
Continuous
 62
     7
100
AcDbLine
 10
-62.0
 20
-39.5
 30
0.0
 11
-62.0
 21
-42.27
 31
0.0
  0
LINE
  5
3C5
330
A
100
AcDbEntity
  8
PV
  6
Continuous
 62
     7
100
AcDbLine
 10
-62.0
 20
-39.5
 30
0.0
 11
-61.258
 21
-42.27
 31
0.0
  0
LINE
  5
3C6
330
A
100
AcDbEntity
  8
PV
  6
Continuous
 62
     7
100
AcDbLine
 10
-62.742
 20
-42.27
 30
0.0
 11
-62.0
 21
-39.5
 31
0.0
  0
LINE
  5
3C7
330
A
100
AcDbEntity
  8
PV
  6
Continuous
 62
     7
100
AcDbLine
 10
-62.0
 20
-129.4999999999999
 30
0.0
 11
-62.0
 21
-126.73
 31
0.0
  0
LINE
  5
3C8
330
A
100
AcDbEntity
  8
PV
  6
Continuous
 62
     7
100
AcDbLine
 10
-62.0
 20
-129.4999999999999
 30
0.0
 11
-62.742
 21
-126.73
 31
0.0
  0
LINE
  5
3C9
330
A
100
AcDbEntity
  8
PV
  6
Continuous
 62
     7
100
AcDbLine
 10
-61.258
 20
-126.73
 30
0.0
 11
-62.0
 21
-129.4999999999999
 31
0.0
  0
POINT
  5
3CA
330
A
100
AcDbEntity
  8
PV
  6
Continuous
 62
     7
100
AcDbPoint
 10
-40.0
 20
-152.7779999999999
 30
0.0
  0
POINT
  5
3CB
330
A
100
AcDbEntity
  8
PV
  6
Continuous
 62
     7
100
AcDbPoint
 10
-40.0
 20
-144.5
 30
0.0
  0
POINT
  5
3CC
330
A
100
AcDbEntity
  8
PV
  6
Continuous
 62
     7
100
AcDbPoint
 10
50.0
 20
-144.5
 30
0.0
  0
MTEXT
  5
3CD
330
A
100
AcDbEntity
  8
PV
  6
Continuous
 62
     7
100
AcDbMText
 10
14.877
 20
-146.3446659999999
 30
0.0
 40
5.5
 41
0.0
 71
     2
 72
     1
  1
\T1.020;\W1.004;\A1;\U+220590
 73
     1
 44
1.0
  0
LINE
  5
3CE
330
A
100
AcDbEntity
  8
PV
  6
Continuous
 62
     7
100
AcDbLine
 10
-40.0
 20
-147.0399999999998
 30
0.0
 11
-40.0
 21
-155.064
 31
0.0
  0
LINE
  5
3CF
330
A
100
AcDbEntity
  8
PV
  6
Continuous
 62
     7
100
AcDbLine
 10
50.0
 20
-147.0399999999998
 30
0.0
 11
50.0
 21
-155.064
 31
0.0
  0
LINE
  5
3D0
330
A
100
AcDbEntity
  8
PV
  6
Continuous
 62
     7
100
AcDbLine
 10
50.0
 20
-152.7779999999999
 30
0.0
 11
-40.0
 21
-152.7779999999999
 31
0.0
  0
LINE
  5
3D1
330
A
100
AcDbEntity
  8
PV
  6
Continuous
 62
     7
100
AcDbLine
 10
-40.0
 20
-152.7779999999999
 30
0.0
 11
-37.22999999999998
 21
-152.7779999999999
 31
0.0
  0
LINE
  5
3D2
330
A
100
AcDbEntity
  8
PV
  6
Continuous
 62
     7
100
AcDbLine
 10
-40.0
 20
-152.7779999999999
 30
0.0
 11
-37.22999999999998
 21
-152.036
 31
0.0
  0
LINE
  5
3D3
330
A
100
AcDbEntity
  8
PV
  6
Continuous
 62
     7
100
AcDbLine
 10
-37.22999999999998
 20
-153.52
 30
0.0
 11
-40.0
 21
-152.7779999999999
 31
0.0
  0
LINE
  5
3D4
330
A
100
AcDbEntity
  8
PV
  6
Continuous
 62
     7
100
AcDbLine
 10
50.0
 20
-152.7779999999999
 30
0.0
 11
47.22999999999998
 21
-152.7779999999999
 31
0.0
  0
LINE
  5
3D5
330
A
100
AcDbEntity
  8
PV
  6
Continuous
 62
     7
100
AcDbLine
 10
50.0
 20
-152.7779999999999
 30
0.0
 11
47.22999999999998
 21
-153.52
 31
0.0
  0
LINE
  5
3D6
330
A
100
AcDbEntity
  8
PV
  6
Continuous
 62
     7
100
AcDbLine
 10
47.22999999999998
 20
-152.036
 30
0.0
 11
50.0
 21
-152.7779999999999
 31
0.0
  0
ENDSEC
  0
SECTION
  2
OBJECTS
  0
DICTIONARY
  5
19
330
0
100
AcDbDictionary
281
     1
  3
ACAD_GROUP
350
1A
  3
ACAD_LAYOUT
350
1E
  3
ACAD_MLINESTYLE
350
1B
  3
ACAD_PLOTSETTINGS
350
22
  3
ACAD_PLOTSTYLENAME
350
1F
  0
DICTIONARY
  5
1A
102
{ACAD_REACTORS
330
19
102
}
330
19
100
AcDbDictionary
281
     1
  0
DICTIONARY
  5
1E
102
{ACAD_REACTORS
330
19
102
}
330
19
100
AcDbDictionary
281
     1
  3
Layout1
350
21
  3
Model
350
20
  0
DICTIONARY
  5
1B
102
{ACAD_REACTORS
330
19
102
}
330
19
100
AcDbDictionary
281
     1
  3
Standard
350
1C
  0
DICTIONARY
  5
22
102
{ACAD_REACTORS
330
19
102
}
330
19
100
AcDbDictionary
281
     1
  0
ACDBDICTIONARYWDFLT
  5
1F
102
{ACAD_REACTORS
330
19
102
}
330
19
100
AcDbDictionary
281
     1
  3
Normal
350
1D
100
AcDbDictionaryWithDefault
340
1D
  0
LAYOUT
  5
21
102
{ACAD_REACTORS
330
1E
102
}
330
1E
100
AcDbPlotSettings
  1

  2

  4

  6

 40
0.0
 41
0.0
 42
0.0
 43
0.0
 44
0.0
 45
0.0
 46
0.0
 47
0.0
 48
0.0
 49
0.0
140
0.0
141
0.0
142
1.0
143
1.0
 70
     0
 72
     0
 73
     0
 74
     0
  7

 75
     0
147
1.0
148
0.0
149
0.0
100
AcDbLayout
  1
Layout1
 70
     0
 71
     1
 10
0.0
 20
0.0
 11
12.0
 21
9.0
 12
0.0
 22
0.0
 32
0.0
 14
1.000000000000000E+20
 24
1.000000000000000E+20
 34
1.000000000000000E+20
 15
-1.000000000000000E+20
 25
-1.000000000000000E+20
 35
-1.000000000000000E+20
146
0.0
 13
0.0
 23
0.0
 33
0.0
 16
1.0
 26
0.0
 36
0.0
 17
0.0
 27
1.0
 37
0.0
 76
     0
330
B
  0
LAYOUT
  5
20
102
{ACAD_REACTORS
330
1E
102
}
330
1E
100
AcDbPlotSettings
  1

  2
Adobe PDF
  4
A4
  6

 40
3.174999952316284
 41
3.174999952316284
 42
3.175003051757812
 43
3.17498779296875
 44
209.9098358154297
 45
297.0318298339843
 46
0.0
 47
18.44999999999999
 48
0.0
 49
0.0
140
0.0
141
0.0
142
1.0
143
1.287689174135426
 70
 11284
 72
     1
 73
     0
 74
     2
  7

 75
     0
147
0.7765849244414243
148
184.5757929999999
149
162.874
100
AcDbLayout
  1
Model
 70
     0
 71
     0
 10
0.0
 20
0.0
 11
0.0
 21
0.0
 12
0.0
 22
0.0
 32
0.0
 14
0.0
 24
0.0
 34
0.0
 15
0.0
 25
0.0
 35
0.0
146
0.0
 13
0.0
 23
0.0
 33
0.0
 16
0.0
 26
0.0
 36
0.0
 17
0.0
 27
0.0
 37
0.0
 76
     0
330
A
  0
MLINESTYLE
  5
1C
102
{ACAD_REACTORS
330
1B
102
}
330
1B
100
AcDbMlineStyle
  2
STANDARD
 70
     0
  3

 62
     0
 51
90.0
 52
90.0
 71
     2
 49
0.5
 62
   256
  6
BYLAYER
 49
-0.5
 62
   256
  6
BYLAYER
  0
ACDBPLACEHOLDER
  5
1D
102
{ACAD_REACTORS
330
1F
102
}
330
1F
  0
ENDSEC
  0
EOF
