  0
SECTION
  2
HEADER
  9
$ACADVER
  1
AC1015
  9
$ACADMAINTVER
 70
    10
  9
$DWGCODEPAGE
  3
ANSI_932
  9
$INSBASE
 10
0.0
 20
0.0
 30
0.0
  9
$EXTMIN
 10
-123.6893793207135
 20
-231.052138484775
 30
-0.0000000349181948
  9
$EXTMAX
 10
128.1835438627653
 20
216.9196721417967
 30
0.0000000814935747
  9
$LIMMIN
 10
-126.479333
 20
-230.027
  9
$LIMMAX
 10
128.168
 20
219.6873329999998
  9
$ORTHOMODE
 70
     0
  9
$REGENMODE
 70
     1
  9
$FILLMODE
 70
     1
  9
$QTEXTMODE
 70
     0
  9
$MIRRTEXT
 70
     1
  9
$LTSCALE
 40
0.3
  9
$ATTMODE
 70
     1
  9
$TEXTSIZE
 40
3.2
  9
$TRACEWID
 40
0.05
  9
$TEXTSTYLE
  7
MX_NOTE_STANDARD
  9
$CLAYER
  8
0
  9
$CELTYPE
  6
CONTINUOUS
  9
$CECOLOR
 62
   256
  9
$CELTSCALE
 40
1.0
  9
$DISPSILH
 70
     0
  9
$DIMSCALE
 40
1.0
  9
$DIMASZ
 40
2.5
  9
$DIMEXO
 40
2.54
  9
$DIMDLI
 40
3.75
  9
$DIMRND
 40
0.0
  9
$DIMDLE
 40
0.0
  9
$DIMEXE
 40
2.286
  9
$DIMTP
 40
0.0
  9
$DIMTM
 40
0.0
  9
$DIMTXT
 40
3.2
  9
$DIMCEN
 40
2.5
  9
$DIMTSZ
 40
0.0
  9
$DIMTOL
 70
     0
  9
$DIMLIM
 70
     0
  9
$DIMTIH
 70
     0
  9
$DIMTOH
 70
     0
  9
$DIMSE1
 70
     0
  9
$DIMSE2
 70
     0
  9
$DIMTAD
 70
     1
  9
$DIMZIN
 70
     8
  9
$DIMBLK
  1

  9
$DIMASO
 70
     1
  9
$DIMSHO
 70
     1
  9
$DIMPOST
  1

  9
$DIMAPOST
  1

  9
$DIMALT
 70
     0
  9
$DIMALTD
 70
     4
  9
$DIMALTF
 40
0.03937
  9
$DIMLFAC
 40
1.0
  9
$DIMTOFL
 70
     1
  9
$DIMTVP
 40
0.0
  9
$DIMTIX
 70
     0
  9
$DIMSOXD
 70
     0
  9
$DIMSAH
 70
     1
  9
$DIMBLK1
  1
OPEN30
  9
$DIMBLK2
  1
OPEN30
  9
$DIMSTYLE
  2
MXDIMSTYLE
  9
$DIMCLRD
 70
     0
  9
$DIMCLRE
 70
     0
  9
$DIMCLRT
 70
     0
  9
$DIMTFAC
 40
1.0
  9
$DIMGAP
 40
1.0
  9
$DIMJUST
 70
     0
  9
$DIMSD1
 70
     0
  9
$DIMSD2
 70
     0
  9
$DIMTOLJ
 70
     0
  9
$DIMTZIN
 70
     0
  9
$DIMALTZ
 70
     0
  9
$DIMALTTZ
 70
     0
  9
$DIMUPT
 70
     1
  9
$DIMDEC
 70
     2
  9
$DIMTDEC
 70
     2
  9
$DIMALTU
 70
     2
  9
$DIMALTTD
 70
     4
  9
$DIMTXSTY
  7
MX_NOTE_STANDARD
  9
$DIMAUNIT
 70
     0
  9
$DIMADEC
 70
     0
  9
$DIMALTRND
 40
0.0
  9
$DIMAZIN
 70
     0
  9
$DIMDSEP
 70
    46
  9
$DIMATFIT
 70
     3
  9
$DIMFRAC
 70
     0
  9
$DIMLDRBLK
  1
OPEN30
  9
$DIMLUNIT
 70
     2
  9
$DIMLWD
 70
    -2
  9
$DIMLWE
 70
    -2
  9
$DIMTMOVE
 70
     0
  9
$LUNITS
 70
     2
  9
$LUPREC
 70
     4
  9
$SKETCHINC
 40
0.1
  9
$FILLETRAD
 40
0.0
  9
$AUNITS
 70
     0
  9
$AUPREC
 70
     0
  9
$MENU
  1
acad
  9
$ELEVATION
 40
0.0
  9
$PELEVATION
 40
0.0
  9
$THICKNESS
 40
0.0
  9
$LIMCHECK
 70
     0
  9
$CHAMFERA
 40
0.0
  9
$CHAMFERB
 40
0.0
  9
$CHAMFERC
 40
0.0
  9
$CHAMFERD
 40
0.0
  9
$SKPOLY
 70
     0
  9
$TDCREATE
 40
2455289.367844907
  9
$TDUCREATE
 40
2455288.992844907
  9
$TDUPDATE
 40
2455289.637557245
  9
$TDUUPDATE
 40
2455289.262557245
  9
$TDINDWG
 40
0.0331360764
  9
$TDUSRTIMER
 40
0.0331337731
  9
$USRTIMER
 70
     1
  9
$ANGBASE
 50
0.0
  9
$ANGDIR
 70
     0
  9
$PDMODE
 70
     0
  9
$PDSIZE
 40
0.0
  9
$PLINEWID
 40
0.0
  9
$SPLFRAME
 70
     0
  9
$SPLINETYPE
 70
     6
  9
$SPLINESEGS
 70
     8
  9
$HANDSEED
  5
3B5
  9
$SURFTAB1
 70
     6
  9
$SURFTAB2
 70
     6
  9
$SURFTYPE
 70
     6
  9
$SURFU
 70
     6
  9
$SURFV
 70
     6
  9
$UCSBASE
  2

  9
$UCSNAME
  2

  9
$UCSORG
 10
0.0
 20
0.0
 30
0.0
  9
$UCSXDIR
 10
1.0
 20
0.0
 30
0.0
  9
$UCSYDIR
 10
0.0
 20
1.0
 30
0.0
  9
$UCSORTHOREF
  2

  9
$UCSORTHOVIEW
 70
     0
  9
$UCSORGTOP
 10
0.0
 20
0.0
 30
0.0
  9
$UCSORGBOTTOM
 10
0.0
 20
0.0
 30
0.0
  9
$UCSORGLEFT
 10
0.0
 20
0.0
 30
0.0
  9
$UCSORGRIGHT
 10
0.0
 20
0.0
 30
0.0
  9
$UCSORGFRONT
 10
0.0
 20
0.0
 30
0.0
  9
$UCSORGBACK
 10
0.0
 20
0.0
 30
0.0
  9
$PUCSBASE
  2

  9
$PUCSNAME
  2

  9
$PUCSORG
 10
0.0
 20
0.0
 30
0.0
  9
$PUCSXDIR
 10
1.0
 20
0.0
 30
0.0
  9
$PUCSYDIR
 10
0.0
 20
1.0
 30
0.0
  9
$PUCSORTHOREF
  2

  9
$PUCSORTHOVIEW
 70
     0
  9
$PUCSORGTOP
 10
0.0
 20
0.0
 30
0.0
  9
$PUCSORGBOTTOM
 10
0.0
 20
0.0
 30
0.0
  9
$PUCSORGLEFT
 10
0.0
 20
0.0
 30
0.0
  9
$PUCSORGRIGHT
 10
0.0
 20
0.0
 30
0.0
  9
$PUCSORGFRONT
 10
0.0
 20
0.0
 30
0.0
  9
$PUCSORGBACK
 10
0.0
 20
0.0
 30
0.0
  9
$USERI1
 70
     0
  9
$USERI2
 70
     0
  9
$USERI3
 70
     0
  9
$USERI4
 70
     0
  9
$USERI5
 70
     0
  9
$USERR1
 40
0.0
  9
$USERR2
 40
0.0
  9
$USERR3
 40
0.0
  9
$USERR4
 40
0.0
  9
$USERR5
 40
0.0
  9
$WORLDVIEW
 70
     1
  9
$SHADEDGE
 70
     3
  9
$SHADEDIF
 70
    70
  9
$TILEMODE
 70
     1
  9
$MAXACTVP
 70
    16
  9
$PINSBASE
 10
0.0
 20
0.0
 30
0.0
  9
$PLIMCHECK
 70
     0
  9
$PEXTMIN
 10
1.000000000000000E+20
 20
1.000000000000000E+20
 30
1.000000000000000E+20
  9
$PEXTMAX
 10
-1.000000000000000E+20
 20
-1.000000000000000E+20
 30
-1.000000000000000E+20
  9
$PLIMMIN
 10
0.0
 20
0.0
  9
$PLIMMAX
 10
12.0
 20
9.0
  9
$UNITMODE
 70
     0
  9
$VISRETAIN
 70
     0
  9
$PLINEGEN
 70
     1
  9
$PSLTSCALE
 70
     0
  9
$TREEDEPTH
 70
  3020
  9
$CMLSTYLE
  2
Standard
  9
$CMLJUST
 70
     0
  9
$CMLSCALE
 40
1.0
  9
$PROXYGRAPHICS
 70
     0
  9
$MEASUREMENT
 70
     1
  9
$CELWEIGHT
370
     0
  9
$ENDCAPS
280
     0
  9
$JOINSTYLE
280
     0
  9
$LWDISPLAY
290
     0
  9
$INSUNITS
 70
     0
  9
$HYPERLINKBASE
  1

  9
$STYLESHEET
  1

  9
$XEDIT
290
     1
  9
$CEPSNTYPE
380
     0
  9
$PSTYLEMODE
290
     1
  9
$FINGERPRINTGUID
  2

  9
$VERSIONGUID
  2
{551AD8F4-3E5F-46C1-A1E5-E38D84B93F95}
  9
$EXTNAMES
290
     1
  9
$PSVPSCALE
 40
0.0
  9
$OLESTARTUP
290
     0
  0
ENDSEC
  0
SECTION
  2
CLASSES
  0
CLASS
  1
LWPOLYLINE
  2
AcDbPolyline
  3
AutoCAD 2000
 90
    32768
280
     0
281
     1
  0
CLASS
  1
IMAGE
  2
AcDbRasterImage
  3
ISM
 90
    32895
280
     0
281
     1
  0
CLASS
  1
OLE2FRAME
  2
AcDbOle2Frame
  3
AutoCAD 2000
 90
    32768
280
     0
281
     1
  0
CLASS
  1
HATCH
  2
AcDbHatch
  3
AutoCAD 2000
 90
    32768
280
     0
281
     1
  0
CLASS
  1
DICTIONARYVAR
  2
AcDbDictionaryVar
  3
AutoCAD 2000
 90
    32768
280
     0
281
     0
  0
CLASS
  1
RASTERVARIABLES
  2
AcDbRasterVariables
  3
ISM
 90
    32768
280
     0
281
     0
  0
CLASS
  1
IMAGEDEF
  2
AcDbRasterImageDef
  3
ISM
 90
    32768
280
     0
281
     0
  0
CLASS
  1
IMAGEDEF_REACTOR
  2
AcDbRasterImageDefReactor
  3
ISM
 90
    32769
280
     0
281
     0
  0
CLASS
  1
IDBUFFER
  2
AcDbIdBuffer
  3
AutoCAD 2000
 90
    32768
280
     0
281
     0
  0
CLASS
  1
SPATIAL_FILTER
  2
AcDbSpatialFilter
  3
AutoCAD 2000
 90
    32768
280
     0
281
     0
  0
CLASS
  1
XRECORD
  2
AcDbXrecord
  3
AutoCAD 2000
 90
    32768
280
     0
281
     0
  0
CLASS
  1
SORTENTSTABLE
  2
AcDbSortentsTable
  3
AutoCAD 2000
 90
    32768
280
     0
281
     0
  0
CLASS
  1
LAYER_INDEX
  2
AcDbLayerIndex
  3
AutoCAD 2000
 90
    32768
280
     0
281
     0
  0
CLASS
  1
SPATIAL_INDEX
  2
AcDbSpatialIndex
  3
AutoCAD 2000
 90
    32768
280
     0
281
     0
  0
CLASS
  1
OBJECT_PTR
  2
CAseDLPNTableRecord
  3
"ASE-LPNTableRecord"
 90
    32769
280
     0
281
     0
  0
CLASS
  1
LAYOUT
  2
AcDbLayout
  3
AutoCAD 2000
 90
        0
280
     0
281
     0
  0
CLASS
  1
PLOTSETTINGS
  2
AcDbPlotSettings
  3
AutoCAD 2000
 90
    32768
280
     0
281
     0
  0
CLASS
  1
ACDBDICTIONARYWDFLT
  2
AcDbDictionaryWithDefault
  3
AutoCAD 2000
 90
        0
280
     0
281
     0
  0
CLASS
  1
ACDBPLACEHOLDER
  2
AcDbPlaceHolder
  3
AutoCAD 2000
 90
        0
280
     0
281
     0
  0
ENDSEC
  0
SECTION
  2
TABLES
  0
TABLE
  2
VPORT
  5
7
330
0
100
AcDbSymbolTable
 70
     2
  0
VPORT
  5
3B4
330
7
100
AcDbSymbolTableRecord
100
AcDbViewportTableRecord
  2
*Active
 70
     0
 10
0.0
 20
0.0
 11
1.0
 21
1.0
 12
39.33075392145474
 22
-62.34234023281851
 13
0.0
 23
0.0
 14
1.0
 24
1.0
 15
0.0
 25
0.0
 16
0.0
 26
0.0
 36
1.0
 17
0.0
 27
0.0
 37
0.0
 40
650.9282964060361
 41
1.535714285714285
 42
50.0
 43
0.0
 44
0.0
 50
0.0
 51
0.0
 71
     0
 72
   100
 73
     1
 74
     1
 75
     0
 76
     0
 77
     0
 78
     0
281
     0
 65
     0
110
0.0
120
0.0
130
0.0
111
1.0
121
0.0
131
0.0
112
0.0
122
1.0
132
0.0
 79
     0
146
0.0
  0
ENDTAB
  0
TABLE
  2
LTYPE
  5
4
330
0
100
AcDbSymbolTable
 70
     4
  0
LTYPE
  5
11
330
4
100
AcDbSymbolTableRecord
100
AcDbLinetypeTableRecord
  2
BYBLOCK
 70
     0
  3

 72
    65
 73
     0
 40
0.0
  0
LTYPE
  5
12
330
4
100
AcDbSymbolTableRecord
100
AcDbLinetypeTableRecord
  2
BYLAYER
 70
     0
  3

 72
    65
 73
     0
 40
0.0
  0
LTYPE
  5
13
330
4
100
AcDbSymbolTableRecord
100
AcDbLinetypeTableRecord
  2
CONTINUOUS
 70
     0
  3
Solid line
 72
    65
 73
     0
 40
0.0
  0
LTYPE
  5
31
330
4
100
AcDbSymbolTableRecord
100
AcDbLinetypeTableRecord
  2
CENTER
 70
     0
  3
Center ____ _ ____ _ ____ _ ____ _ ____ _ ____
 72
    65
 73
     4
 40
50.8
 49
31.75
 74
     0
 49
-6.349999999999998
 74
     0
 49
6.349999999999998
 74
     0
 49
-6.349999999999998
 74
     0
  0
LTYPE
  5
6D
330
4
100
AcDbSymbolTableRecord
100
AcDbLinetypeTableRecord
  2
PHANTOM
 70
     0
  3
Phantom ______  __  __  ______  __  __  ______
 72
    65
 73
     6
 40
63.5
 49
31.75
 74
     0
 49
-6.349999999999998
 74
     0
 49
6.349999999999998
 74
     0
 49
-6.349999999999998
 74
     0
 49
6.349999999999998
 74
     0
 49
-6.349999999999998
 74
     0
  0
LTYPE
  5
75
330
4
100
AcDbSymbolTableRecord
100
AcDbLinetypeTableRecord
  2
DASHED
 70
     0
  3
Dashed __ __ __ __ __ __ __ __ __ __ __ __ __ _
 72
    65
 73
     2
 40
19.05
 49
12.7
 74
     0
 49
-6.349999999999998
 74
     0
  0
ENDTAB
  0
TABLE
  2
LAYER
  5
2
330
0
100
AcDbSymbolTable
 70
     5
  0
LAYER
  5
14
330
2
100
AcDbSymbolTableRecord
100
AcDbLayerTableRecord
  2
0
 70
     0
 62
     7
  6
CONTINUOUS
370
    -3
390
1D
  0
LAYER
  5
23
330
2
100
AcDbSymbolTableRecord
100
AcDbLayerTableRecord
  2
AV
 70
     0
 62
     7
  6
CONTINUOUS
370
    -3
390
1D
  0
LAYER
  5
24
330
2
100
AcDbSymbolTableRecord
100
AcDbLayerTableRecord
  2
DEFPOINTS
 70
     0
 62
     7
  6
CONTINUOUS
290
     0
370
    -3
390
1D
  0
LAYER
  5
25
330
2
100
AcDbSymbolTableRecord
100
AcDbLayerTableRecord
  2
PV
 70
     0
 62
     7
  6
CONTINUOUS
370
    -3
390
1D
  0
LAYER
  5
26
330
2
100
AcDbSymbolTableRecord
100
AcDbLayerTableRecord
  2
WV
 70
     0
 62
     7
  6
CONTINUOUS
370
    -3
390
1D
  0
ENDTAB
  0
TABLE
  2
STYLE
  5
3
330
0
100
AcDbSymbolTable
 70
     2
  0
STYLE
  5
17
330
3
100
AcDbSymbolTableRecord
100
AcDbTextStyleTableRecord
  2
MX_NOTE_STANDARD
 70
     0
 40
0.0
 41
1.0
 50
0.0
 71
     0
 42
3.2
  3
txt.shx
  4
extfont.shx
  0
STYLE
  5
3A7
330
3
100
AcDbSymbolTableRecord
100
AcDbTextStyleTableRecord
  2
Standard
 70
     0
 40
0.0
 41
1.0
 50
0.0
 71
     0
 42
0.2
  3

  4

  0
ENDTAB
  0
TABLE
  2
VIEW
  5
5
330
0
100
AcDbSymbolTable
 70
     0
  0
ENDTAB
  0
TABLE
  2
UCS
  5
6
330
0
100
AcDbSymbolTable
 70
     0
  0
ENDTAB
  0
TABLE
  2
APPID
  5
8
330
0
100
AcDbSymbolTable
 70
     1
  0
APPID
  5
16
330
8
100
AcDbSymbolTableRecord
100
AcDbRegAppTableRecord
  2
ACAD
 70
     0
  0
ENDTAB
  0
TABLE
  2
DIMSTYLE
  5
9
330
0
100
AcDbSymbolTable
 70
     1
100
AcDbDimStyleTable
 71
     0
  0
DIMSTYLE
105
18
330
9
100
AcDbSymbolTableRecord
100
AcDbDimStyleTableRecord
  2
MXDIMSTYLE
 70
     0
 41
2.5
 42
2.54
 43
3.75
 44
2.286
 73
     0
 74
     0
 77
     1
 78
     8
140
3.2
141
2.5
143
0.03937
147
1.0
171
     4
172
     1
173
     1
271
     2
272
     2
274
     4
283
     0
288
     1
340
17
341
27
343
27
344
27
  0
ENDTAB
  0
TABLE
  2
BLOCK_RECORD
  5
1
330
0
100
AcDbSymbolTable
 70
     1
  0
BLOCK_RECORD
  5
A
330
1
100
AcDbSymbolTableRecord
100
AcDbBlockTableRecord
  2
*MODEL_SPACE
340
20
  0
BLOCK_RECORD
  5
B
330
1
100
AcDbSymbolTableRecord
100
AcDbBlockTableRecord
  2
*PAPER_SPACE
340
21
  0
BLOCK_RECORD
  5
27
330
1
100
AcDbSymbolTableRecord
100
AcDbBlockTableRecord
  2
_OPEN30
340
0
  0
ENDTAB
  0
ENDSEC
  0
SECTION
  2
BLOCKS
  0
BLOCK
  5
D
330
A
100
AcDbEntity
  8
0
100
AcDbBlockBegin
  2
*MODEL_SPACE
 70
     0
 10
0.0
 20
0.0
 30
0.0
  3
*MODEL_SPACE
  1

  0
ENDBLK
  5
E
330
A
100
AcDbEntity
  8
0
100
AcDbBlockEnd
  0
BLOCK
  5
F
330
B
100
AcDbEntity
 67
     1
  8
0
100
AcDbBlockBegin
  2
*PAPER_SPACE
 70
     0
 10
0.0
 20
0.0
 30
0.0
  3
*PAPER_SPACE
  1

  0
ENDBLK
  5
10
330
B
100
AcDbEntity
 67
     1
  8
0
100
AcDbBlockEnd
  0
BLOCK
  5
28
330
27
100
AcDbEntity
  8
0
  6
ByBlock
 62
     0
370
    -2
100
AcDbBlockBegin
  2
_OPEN30
 70
     2
 10
0.0
 20
0.0
 30
0.0
  3
_OPEN30
  1

  0
LINE
  5
29
330
27
100
AcDbEntity
  8
0
  6
ByBlock
 62
     0
370
    -2
100
AcDbLine
 10
-1.0
 20
0.267949
 30
0.0
 11
0.0
 21
0.0
 31
0.0
  0
LINE
  5
2A
330
27
100
AcDbEntity
  8
0
  6
ByBlock
 62
     0
370
    -2
100
AcDbLine
 10
0.0
 20
0.0
 30
0.0
 11
-1.0
 21
-0.267949
 31
0.0
  0
LINE
  5
2B
330
27
100
AcDbEntity
  8
0
  6
ByBlock
 62
     0
370
    -2
100
AcDbLine
 10
0.0
 20
0.0
 30
0.0
 11
-1.0
 21
0.0
 31
0.0
  0
ENDBLK
  5
2C
330
27
100
AcDbEntity
  8
0
  6
ByBlock
 62
     0
370
    -2
100
AcDbBlockEnd
  0
ENDSEC
  0
SECTION
  2
ENTITIES
  0
LINE
  5
2D
330
A
100
AcDbEntity
  8
PV
  6
Continuous
 62
     7
100
AcDbLine
 10
-81.257
 20
93.939
 30
0.0
 11
-81.257
 21
180.939
 31
0.0
  0
LINE
  5
2E
330
A
100
AcDbEntity
  8
PV
  6
Continuous
 62
     7
100
AcDbLine
 10
-48.803
 20
175.589
 30
0.0
 11
-76.82300000000002
 21
175.589
 31
0.0
  0
LINE
  5
2F
330
A
100
AcDbEntity
  8
PV
  6
Continuous
 62
     7
100
AcDbLine
 10
-79.408
 20
180.939
 30
0.0
 11
-81.257
 21
180.939
 31
0.0
  0
LINE
  5
30
330
A
100
AcDbEntity
  8
PV
  6
Continuous
 62
     7
100
AcDbLine
 10
-77.959
 20
179.828
 30
0.0
 11
-76.82300000000002
 21
175.589
 31
0.0
  0
LINE
  5
32
330
A
100
AcDbEntity
  8
PV
  6
CENTER
 62
     7
100
AcDbLine
 10
-90.264
 20
137.439
 30
0.0
 11
67.36299999999999
 21
137.439
 31
0.0
  0
LINE
  5
33
330
A
100
AcDbEntity
  8
PV
  6
CENTER
 62
     7
100
AcDbLine
 10
6.742999999999998
 20
197.02
 30
0.0
 11
6.742999999999998
 21
79.85899999999998
 31
0.0
  0
LINE
  5
34
330
A
100
AcDbEntity
  8
PV
  6
Continuous
 62
     7
100
AcDbLine
 10
-48.25899999999999
 20
99.289
 30
0.0
 11
-76.82300000000002
 21
99.289
 31
0.0
  0
LINE
  5
35
330
A
100
AcDbEntity
  8
PV
  6
Continuous
 62
     7
100
AcDbLine
 10
-79.408
 20
93.939
 30
0.0
 11
-81.257
 21
93.939
 31
0.0
  0
LINE
  5
36
330
A
100
AcDbEntity
  8
PV
  6
Continuous
 62
     7
100
AcDbLine
 10
-77.959
 20
95.051
 30
0.0
 11
-76.82300000000002
 21
99.289
 31
0.0
  0
LINE
  5
37
330
A
100
AcDbEntity
  8
PV
  6
Continuous
 62
     7
100
AcDbLine
 10
-76.82300000000002
 20
175.589
 30
0.0
 11
-76.82300000000002
 21
99.289
 31
0.0
  0
LINE
  5
38
330
A
100
AcDbEntity
  8
PV
  6
Continuous
 62
     7
100
AcDbLine
 10
-78.25700000000002
 20
180.4009999999999
 30
0.0
 11
-78.25700000000002
 21
94.47799999999999
 31
0.0
  0
LINE
  5
39
330
A
100
AcDbEntity
  8
PV
  6
Continuous
 62
   254
100
AcDbLine
 10
0.743
 20
108.9389999999999
 30
0.0
 11
0.743
 21
108.046
 31
0.0
  0
LINE
  5
3A
330
A
100
AcDbEntity
  8
PV
  6
Continuous
 62
   254
100
AcDbLine
 10
1.242999999999998
 20
109.4389999999999
 30
0.0
 11
12.243
 21
109.4389999999999
 31
0.0
  0
LINE
  5
3B
330
A
100
AcDbEntity
  8
PV
  6
Continuous
 62
   254
100
AcDbLine
 10
12.743
 20
108.9389999999999
 30
0.0
 11
12.743
 21
108.046
 31
0.0
  0
LINE
  5
3C
330
A
100
AcDbEntity
  8
PV
  6
Continuous
 62
   254
100
AcDbLine
 10
28.425
 20
117.9929999999999
 30
0.0
 11
29.199
 21
117.546
 31
0.0
  0
LINE
  5
3D
330
A
100
AcDbEntity
  8
PV
  6
Continuous
 62
   254
100
AcDbLine
 10
28.24199999999999
 20
118.676
 30
0.0
 11
33.742
 21
128.2029999999999
 31
0.0
  0
LINE
  5
3E
330
A
100
AcDbEntity
  8
PV
  6
Continuous
 62
   254
100
AcDbLine
 10
34.42499999999999
 20
128.3859999999999
 30
0.0
 11
35.19899999999999
 21
127.939
 31
0.0
  0
LINE
  5
3F
330
A
100
AcDbEntity
  8
PV
  6
Continuous
 62
   254
100
AcDbLine
 10
34.42499999999999
 20
146.493
 30
0.0
 11
35.19899999999999
 21
146.94
 31
0.0
  0
LINE
  5
40
330
A
100
AcDbEntity
  8
PV
  6
Continuous
 62
   254
100
AcDbLine
 10
33.742
 20
146.676
 30
0.0
 11
28.24199999999999
 21
156.203
 31
0.0
  0
LINE
  5
41
330
A
100
AcDbEntity
  8
PV
  6
Continuous
 62
   254
100
AcDbLine
 10
28.425
 20
156.8859999999999
 30
0.0
 11
29.199
 21
157.333
 31
0.0
  0
LINE
  5
42
330
A
100
AcDbEntity
  8
PV
  6
Continuous
 62
   254
100
AcDbLine
 10
12.243
 20
165.439
 30
0.0
 11
1.242999999999998
 21
165.439
 31
0.0
  0
LINE
  5
43
330
A
100
AcDbEntity
  8
PV
  6
Continuous
 62
   254
100
AcDbLine
 10
12.743
 20
165.939
 30
0.0
 11
12.743
 21
166.833
 31
0.0
  0
LINE
  5
44
330
A
100
AcDbEntity
  8
PV
  6
Continuous
 62
   254
100
AcDbLine
 10
0.743
 20
165.939
 30
0.0
 11
0.743
 21
166.833
 31
0.0
  0
LINE
  5
45
330
A
100
AcDbEntity
  8
PV
  6
Continuous
 62
   254
100
AcDbLine
 10
-14.938
 20
156.8859999999999
 30
0.0
 11
-15.712
 21
157.333
 31
0.0
  0
LINE
  5
46
330
A
100
AcDbEntity
  8
PV
  6
Continuous
 62
   254
100
AcDbLine
 10
-14.755
 20
156.203
 30
0.0
 11
-20.255
 21
146.676
 31
0.0
  0
LINE
  5
47
330
A
100
AcDbEntity
  8
PV
  6
Continuous
 62
   254
100
AcDbLine
 10
-20.938
 20
128.3859999999999
 30
0.0
 11
-21.712
 21
127.939
 31
0.0
  0
LINE
  5
48
330
A
100
AcDbEntity
  8
PV
  6
Continuous
 62
   254
100
AcDbLine
 10
-20.938
 20
146.493
 30
0.0
 11
-21.712
 21
146.94
 31
0.0
  0
LINE
  5
49
330
A
100
AcDbEntity
  8
PV
  6
Continuous
 62
   254
100
AcDbLine
 10
-14.938
 20
117.9929999999999
 30
0.0
 11
-15.712
 21
117.546
 31
0.0
  0
LINE
  5
4A
330
A
100
AcDbEntity
  8
PV
  6
Continuous
 62
   254
100
AcDbLine
 10
-20.255
 20
128.2029999999999
 30
0.0
 11
-14.755
 21
118.676
 31
0.0
  0
LINE
  5
4B
330
A
100
AcDbEntity
  8
PV
  6
CENTER
 62
     7
100
AcDbLine
 10
-46.894
 20
180.439
 30
0.0
 11
-24.838
 21
180.439
 31
0.0
  0
LINE
  5
4C
330
A
100
AcDbEntity
  8
PV
  6
CENTER
 62
     7
100
AcDbLine
 10
-36.257
 20
191.5859999999999
 30
0.0
 11
-36.257
 21
169.335
 31
0.0
  0
LINE
  5
4D
330
A
100
AcDbEntity
  8
PV
  6
Continuous
 62
     7
100
AcDbLine
 10
54.743
 20
192.439
 30
0.0
 11
-41.257
 21
192.439
 31
0.0
  0
LINE
  5
4E
330
A
100
AcDbEntity
  8
PV
  6
Continuous
 62
     7
100
AcDbLine
 10
-48.257
 20
185.439
 30
0.0
 11
-48.257
 21
89.43899999999997
 31
0.0
  0
LINE
  5
4F
330
A
100
AcDbEntity
  8
PV
  6
CENTER
 62
     7
100
AcDbLine
 10
-47.616
 20
94.43899999999999
 30
0.0
 11
-24.838
 21
94.43899999999999
 31
0.0
  0
LINE
  5
50
330
A
100
AcDbEntity
  8
PV
  6
CENTER
 62
     7
100
AcDbLine
 10
-36.257
 20
106.41
 30
0.0
 11
-36.257
 21
83.04
 31
0.0
  0
LINE
  5
51
330
A
100
AcDbEntity
  8
PV
  6
Continuous
 62
     7
100
AcDbLine
 10
54.743
 20
82.439
 30
0.0
 11
-41.257
 21
82.439
 31
0.0
  0
LINE
  5
52
330
A
100
AcDbEntity
  8
PV
  6
Continuous
 62
     7
100
AcDbLine
 10
61.743
 20
185.439
 30
0.0
 11
61.743
 21
89.43899999999997
 31
0.0
  0
LINE
  5
53
330
A
100
AcDbEntity
  8
PV
  6
CENTER
 62
     7
100
AcDbLine
 10
36.904
 20
94.43899999999999
 30
0.0
 11
61.161
 21
94.43899999999999
 31
0.0
  0
LINE
  5
54
330
A
100
AcDbEntity
  8
PV
  6
CENTER
 62
     7
100
AcDbLine
 10
49.743
 20
107.001
 30
0.0
 11
49.743
 21
83.68799999999998
 31
0.0
  0
LINE
  5
55
330
A
100
AcDbEntity
  8
PV
  6
CENTER
 62
     7
100
AcDbLine
 10
38.974
 20
180.439
 30
0.0
 11
60.865
 21
180.439
 31
0.0
  0
LINE
  5
56
330
A
100
AcDbEntity
  8
PV
  6
CENTER
 62
     7
100
AcDbLine
 10
49.743
 20
191.43
 30
0.0
 11
49.743
 21
168.744
 31
0.0
  0
LINE
  5
57
330
A
100
AcDbEntity
  8
PV
  6
Continuous
 62
     7
100
AcDbLine
 10
-81.25700031415926
 20
-146.9739999999999
 30
0.0
 11
-81.25700031415926
 21
-59.97399999999998
 31
0.0
  0
LINE
  5
58
330
A
100
AcDbEntity
  8
PV
  6
CENTER
 62
     7
100
AcDbLine
 10
-20.29300031415926
 20
-103.4739999999999
 30
0.0
 11
-88.79600031415924
 21
-103.4739999999999
 31
0.0
  0
LINE
  5
59
330
A
100
AcDbEntity
  8
PV
  6
Continuous
 62
     7
100
AcDbLine
 10
-79.40800031415927
 20
-146.9739999999999
 30
0.0
 11
-81.25700031415926
 21
-146.9739999999999
 31
0.0
  0
LINE
  5
5A
330
A
100
AcDbEntity
  8
PV
  6
Continuous
 62
     7
100
AcDbLine
 10
-48.25700031415927
 20
-141.6239999999999
 30
0.0
 11
-76.82300031415926
 21
-141.6239999999999
 31
0.0
  0
LINE
  5
5B
330
A
100
AcDbEntity
  8
PV
  6
Continuous
 62
     7
100
AcDbLine
 10
-77.95900031415925
 20
-145.8619999999999
 30
0.0
 11
-76.82300031415926
 21
-141.6239999999999
 31
0.0
  0
LINE
  5
5C
330
A
100
AcDbEntity
  8
PV
  6
Continuous
 62
     7
100
AcDbLine
 10
-48.25700031415927
 20
-65.32399999999999
 30
0.0
 11
-76.82300031415926
 21
-65.32399999999999
 31
0.0
  0
LINE
  5
5D
330
A
100
AcDbEntity
  8
PV
  6
Continuous
 62
     7
100
AcDbLine
 10
-79.40800031415927
 20
-59.97399999999998
 30
0.0
 11
-81.25700031415926
 21
-59.97399999999998
 31
0.0
  0
LINE
  5
5E
330
A
100
AcDbEntity
  8
PV
  6
Continuous
 62
     7
100
AcDbLine
 10
-77.95900031415925
 20
-61.086
 30
0.0
 11
-76.82300031415926
 21
-65.32399999999999
 31
0.0
  0
LINE
  5
5F
330
A
100
AcDbEntity
  8
PV
  6
Continuous
 62
     7
100
AcDbLine
 10
-76.82300031415926
 20
-141.6239999999999
 30
0.0
 11
-76.82300031415926
 21
-65.32399999999999
 31
0.0
  0
LINE
  5
60
330
A
100
AcDbEntity
  8
PV
  6
Continuous
 62
     7
100
AcDbLine
 10
-78.25700031415926
 20
-146.436
 30
0.0
 11
-78.25700031415926
 21
-60.51200000000001
 31
0.0
  0
LINE
  5
61
330
A
100
AcDbEntity
  8
PV
  6
Continuous
 62
     7
100
AcDbLine
 10
50.24299968584074
 20
-191.474
 30
0.0
 11
-36.75700031415925
 21
-191.474
 31
0.0
  0
LINE
  5
62
330
A
100
AcDbEntity
  8
PV
  6
Continuous
 62
     7
100
AcDbLine
 10
50.24299968584074
 20
-189.625
 30
0.0
 11
50.24299968584074
 21
-191.474
 31
0.0
  0
LINE
  5
63
330
A
100
AcDbEntity
  8
PV
  6
Continuous
 62
     7
100
AcDbLine
 10
44.89299968584072
 20
-158.9739999999999
 30
0.0
 11
44.89299968584072
 21
-187.0399999999999
 31
0.0
  0
LINE
  5
64
330
A
100
AcDbEntity
  8
PV
  6
Continuous
 62
     7
100
AcDbLine
 10
49.13199968584073
 20
-188.1759999999999
 30
0.0
 11
44.89299968584072
 21
-187.0399999999999
 31
0.0
  0
LINE
  5
65
330
A
100
AcDbEntity
  8
PV
  6
Continuous
 62
     7
100
AcDbLine
 10
-31.40700031415926
 20
-158.9739999999999
 30
0.0
 11
-31.40700031415926
 21
-187.0399999999999
 31
0.0
  0
LINE
  5
66
330
A
100
AcDbEntity
  8
PV
  6
Continuous
 62
     7
100
AcDbLine
 10
-36.75700031415925
 20
-189.625
 30
0.0
 11
-36.75700031415925
 21
-191.474
 31
0.0
  0
LINE
  5
67
330
A
100
AcDbEntity
  8
PV
  6
Continuous
 62
     7
100
AcDbLine
 10
-35.64500031415926
 20
-188.1759999999999
 30
0.0
 11
-31.40700031415926
 21
-187.0399999999999
 31
0.0
  0
LINE
  5
68
330
A
100
AcDbEntity
  8
PV
  6
Continuous
 62
     7
100
AcDbLine
 10
44.89299968584072
 20
-187.0399999999999
 30
0.0
 11
-31.40700031415926
 21
-187.0399999999999
 31
0.0
  0
LINE
  5
69
330
A
100
AcDbEntity
  8
PV
  6
Continuous
 62
     7
100
AcDbLine
 10
49.70499968584073
 20
-188.474
 30
0.0
 11
-36.21800031415928
 21
-188.474
 31
0.0
  0
LINE
  5
6A
330
A
100
AcDbEntity
  8
PV
  6
CENTER
 62
     7
100
AcDbLine
 10
6.742999685840731
 20
23.70999999999999
 30
0.0
 11
6.742999685840731
 21
-199.7759999999999
 31
0.0
  0
LINE
  5
6B
330
A
100
AcDbEntity
  8
PV
  6
Continuous
 62
     7
100
AcDbLine
 10
10.74299968584072
 20
-12.97399999999998
 30
0.0
 11
10.74299968584072
 21
-15.47399999999998
 31
0.0
  0
LINE
  5
6C
330
A
100
AcDbEntity
  8
PV
  6
Continuous
 62
     7
100
AcDbLine
 10
2.742999685840732
 20
-12.97399999999998
 30
0.0
 11
2.742999685840732
 21
-15.47399999999998
 31
0.0
  0
LINE
  5
6E
330
A
100
AcDbEntity
  8
PV
  6
PHANTOM
 62
     7
100
AcDbLine
 10
-23.25700031415926
 20
7.026000000000006
 30
0.0
 11
36.74299968584072
 21
7.026000000000006
 31
0.0
  0
LINE
  5
6F
330
A
100
AcDbEntity
  8
PV
  6
PHANTOM
 62
     7
100
AcDbLine
 10
-20.33500031415926
 20
32.02599999999999
 30
0.0
 11
33.82199968584072
 21
32.02599999999999
 31
0.0
  0
LINE
  5
70
330
A
100
AcDbEntity
  8
PV
  6
PHANTOM
 62
     7
100
AcDbLine
 10
-23.25700031415926
 20
7.026000000000006
 30
0.0
 11
-22.33300031415926
 21
30.106
 31
0.0
  0
LINE
  5
71
330
A
100
AcDbEntity
  8
PV
  6
PHANTOM
 62
     7
100
AcDbLine
 10
35.81999968584073
 20
30.106
 30
0.0
 11
36.74299968584072
 21
7.026000000000006
 31
0.0
  0
LINE
  5
72
330
A
100
AcDbEntity
  8
PV
  6
Continuous
 62
     7
100
AcDbLine
 10
0.7429996858407329
 20
12.026
 30
0.0
 11
0.7429996858407329
 21
-1.97399999999999
 31
0.0
  0
LINE
  5
73
330
A
100
AcDbEntity
  8
PV
  6
Continuous
 62
     7
100
AcDbLine
 10
12.74299968584072
 20
12.026
 30
0.0
 11
12.74299968584072
 21
-1.97399999999999
 31
0.0
  0
LINE
  5
74
330
A
100
AcDbEntity
  8
PV
  6
Continuous
 62
     7
100
AcDbLine
 10
-18.75700031415926
 20
13.026
 30
0.0
 11
32.24299968584073
 21
13.026
 31
0.0
  0
LINE
  5
76
330
A
100
AcDbEntity
  8
PV
  6
DASHED
 62
     7
100
AcDbLine
 10
31.74299968584072
 20
13.026
 30
0.0
 11
31.74299968584072
 21
12.726
 31
0.0
  0
LINE
  5
77
330
A
100
AcDbEntity
  8
PV
  6
DASHED
 62
     7
100
AcDbLine
 10
-18.25700031415926
 20
13.026
 30
0.0
 11
-18.25700031415926
 21
12.726
 31
0.0
  0
LINE
  5
78
330
A
100
AcDbEntity
  8
PV
  6
PHANTOM
 62
     7
100
AcDbLine
 10
-18.75700031415926
 20
33.02599999999999
 30
0.0
 11
32.24299968584073
 21
33.02599999999999
 31
0.0
  0
LINE
  5
79
330
A
100
AcDbEntity
  8
PV
  6
DASHED
 62
     7
100
AcDbLine
 10
-18.25700031415926
 20
12.726
 30
0.0
 11
31.74299968584072
 21
12.726
 31
0.0
  0
LINE
  5
7A
330
A
100
AcDbEntity
  8
PV
  6
Continuous
 62
     7
100
AcDbLine
 10
-15.71200031415926
 20
12.026
 30
0.0
 11
-15.71200031415926
 21
-1.97399999999999
 31
0.0
  0
LINE
  5
7B
330
A
100
AcDbEntity
  8
PV
  6
Continuous
 62
     7
100
AcDbLine
 10
-21.71200031415926
 20
11.476
 30
0.0
 11
-21.71200031415926
 21
-1.97399999999999
 31
0.0
  0
LINE
  5
7C
330
A
100
AcDbEntity
  8
PV
  6
Continuous
 62
     7
100
AcDbLine
 10
-20.51200031415925
 20
12.026
 30
0.0
 11
-20.51200031415925
 21
-1.97399999999999
 31
0.0
  0
LINE
  5
7D
330
A
100
AcDbEntity
  8
PV
  6
Continuous
 62
     7
100
AcDbLine
 10
-19.32900031415926
 20
-6.356999999999989
 30
0.0
 11
-18.08400031415926
 21
-7.840999999999991
 31
0.0
  0
LINE
  5
7E
330
A
100
AcDbEntity
  8
PV
  6
Continuous
 62
     7
100
AcDbLine
 10
29.19899968584073
 20
12.026
 30
0.0
 11
29.19899968584073
 21
-1.97399999999999
 31
0.0
  0
LINE
  5
7F
330
A
100
AcDbEntity
  8
PV
  6
Continuous
 62
     7
100
AcDbLine
 10
35.19899968584072
 20
11.476
 30
0.0
 11
35.19899968584072
 21
-1.97399999999999
 31
0.0
  0
LINE
  5
80
330
A
100
AcDbEntity
  8
PV
  6
Continuous
 62
     7
100
AcDbLine
 10
33.99899968584072
 20
12.026
 30
0.0
 11
33.99899968584072
 21
-1.97399999999999
 31
0.0
  0
LINE
  5
81
330
A
100
AcDbEntity
  8
PV
  6
Continuous
 62
     7
100
AcDbLine
 10
32.81599968584072
 20
-6.356999999999989
 30
0.0
 11
31.57099968584073
 21
-7.840999999999991
 31
0.0
  0
LINE
  5
82
330
A
100
AcDbEntity
  8
PV
  6
Continuous
 62
     7
100
AcDbLine
 10
-23.25700031415926
 20
-12.97399999999998
 30
0.0
 11
36.74299968584072
 21
-12.97399999999998
 31
0.0
  0
LINE
  5
83
330
A
100
AcDbEntity
  8
PV
  6
Continuous
 62
     7
100
AcDbLine
 10
-23.25700031415926
 20
-12.97399999999998
 30
0.0
 11
-22.33300031415926
 21
10.106
 31
0.0
  0
LINE
  5
84
330
A
100
AcDbEntity
  8
PV
  6
Continuous
 62
     7
100
AcDbLine
 10
35.81999968584073
 20
10.106
 30
0.0
 11
36.74299968584072
 21
-12.97399999999998
 31
0.0
  0
LINE
  5
85
330
A
100
AcDbEntity
  8
PV
  6
Continuous
 62
     7
100
AcDbLine
 10
-20.33500031415926
 20
12.026
 30
0.0
 11
33.82199968584072
 21
12.026
 31
0.0
  0
LINE
  5
86
330
A
100
AcDbEntity
  8
PV
  6
Continuous
 62
     7
100
AcDbLine
 10
-18.75700031415926
 20
13.026
 30
0.0
 11
32.24299968584073
 21
13.026
 31
0.0
  0
LINE
  5
87
330
A
100
AcDbEntity
  8
PV
  6
CENTER
 62
     7
100
AcDbLine
 10
49.74299968584073
 20
-12.43499999999999
 30
0.0
 11
49.74299968584073
 21
-65.24699999999999
 31
0.0
  0
LINE
  5
88
330
A
100
AcDbEntity
  8
PV
  6
Continuous
 62
     7
100
AcDbLine
 10
59.74299968584073
 20
-20.47399999999999
 30
0.0
 11
-46.25700031415926
 21
-20.47399999999999
 31
0.0
  0
LINE
  5
89
330
A
100
AcDbEntity
  8
PV
  6
Continuous
 62
     7
100
AcDbLine
 10
6.677999685840731
 20
-15.47399999999998
 30
0.0
 11
-21.25700031415926
 21
-15.47399999999998
 31
0.0
  0
LINE
  5
8A
330
A
100
AcDbEntity
  8
PV
  6
Continuous
 62
     7
100
AcDbLine
 10
6.677999685840731
 20
-15.47399999999998
 30
0.0
 11
34.74299968584073
 21
-15.47399999999998
 31
0.0
  0
LINE
  5
8B
330
A
100
AcDbEntity
  8
PV
  6
Continuous
 62
     7
100
AcDbLine
 10
59.74299968584073
 20
-20.47399999999999
 30
0.0
 11
61.74299968584072
 21
-22.47399999999998
 31
0.0
  0
LINE
  5
8C
330
A
100
AcDbEntity
  8
PV
  6
Continuous
 62
     7
100
AcDbLine
 10
61.74299968584072
 20
-22.47399999999998
 30
0.0
 11
61.74299968584072
 21
-148.9739999999999
 31
0.0
  0
LINE
  5
8D
330
A
100
AcDbEntity
  8
PV
  6
Continuous
 62
     7
100
AcDbLine
 10
-38.25700031415925
 20
-158.9739999999999
 30
0.0
 11
51.74299968584072
 21
-158.9739999999999
 31
0.0
  0
LINE
  5
8E
330
A
100
AcDbEntity
  8
PV
  6
Continuous
 62
     7
100
AcDbLine
 10
-48.25700031415927
 20
-141.956
 30
0.0
 11
-48.25700031415927
 21
-148.9739999999999
 31
0.0
  0
LINE
  5
8F
330
A
100
AcDbEntity
  8
PV
  6
Continuous
 62
     7
100
AcDbLine
 10
61.18399968584073
 20
-36.97399999999999
 30
0.0
 11
-48.33800031415925
 21
-36.97399999999999
 31
0.0
  0
LINE
  5
90
330
A
100
AcDbEntity
  8
PV
  6
Continuous
 62
     7
100
AcDbLine
 10
-48.25700031415927
 20
-22.47399999999998
 30
0.0
 11
-48.25700031415927
 21
-65.32399999999999
 31
0.0
  0
LINE
  5
91
330
A
100
AcDbEntity
  8
PV
  6
Continuous
 62
     7
100
AcDbLine
 10
61.18399968584073
 20
-55.47399999999999
 30
0.0
 11
-48.33800031415925
 21
-55.47399999999999
 31
0.0
  0
LINE
  5
92
330
A
100
AcDbEntity
  8
PV
  6
CENTER
 62
     7
100
AcDbLine
 10
-36.25700031415926
 20
-12.43499999999999
 30
0.0
 11
-36.25700031415926
 21
-67.53
 31
0.0
  0
LINE
  5
93
330
A
100
AcDbEntity
  8
PV
  6
Continuous
 62
     7
100
AcDbLine
 10
61.74299968584072
 20
-148.9739999999999
 30
0.0
 11
51.74299968584072
 21
-158.9739999999999
 31
0.0
  0
LINE
  5
94
330
A
100
AcDbEntity
  8
PV
  6
Continuous
 62
     7
100
AcDbLine
 10
-38.25700031415925
 20
-158.9739999999999
 30
0.0
 11
-48.25700031415927
 21
-148.9739999999999
 31
0.0
  0
LINE
  5
95
330
A
100
AcDbEntity
  8
PV
  6
Continuous
 62
     7
100
AcDbLine
 10
-48.25700031415927
 20
-148.9739999999999
 30
0.0
 11
61.74299968584072
 21
-148.9739999999999
 31
0.0
  0
LINE
  5
96
330
A
100
AcDbEntity
  8
PV
  6
Continuous
 62
     7
100
AcDbLine
 10
-41.25700031415926
 20
-22.47399999999998
 30
0.0
 11
-41.25700031415926
 21
-55.47399999999999
 31
0.0
  0
LINE
  5
97
330
A
100
AcDbEntity
  8
PV
  6
Continuous
 62
     7
100
AcDbLine
 10
54.74299968584073
 20
-22.47399999999998
 30
0.0
 11
54.74299968584073
 21
-55.47399999999999
 31
0.0
  0
LINE
  5
98
330
A
100
AcDbEntity
  8
PV
  6
Continuous
 62
     7
100
AcDbLine
 10
-46.25700031415926
 20
-20.47399999999999
 30
0.0
 11
-48.25700031415927
 21
-22.47399999999998
 31
0.0
  0
LINE
  5
99
330
A
100
AcDbEntity
  8
PV
  6
Continuous
 62
     7
100
AcDbLine
 10
-40.42800031415928
 20
-20.47399999999999
 30
0.0
 11
-41.25700031415926
 21
-22.47399999999998
 31
0.0
  0
LINE
  5
9A
330
A
100
AcDbEntity
  8
PV
  6
Continuous
 62
     7
100
AcDbLine
 10
61.74299968584072
 20
-22.47399999999998
 30
0.0
 11
-48.25700031415927
 21
-22.47399999999998
 31
0.0
  0
LINE
  5
9B
330
A
100
AcDbEntity
  8
PV
  6
Continuous
 62
     7
100
AcDbLine
 10
53.91499968584072
 20
-20.47399999999999
 30
0.0
 11
54.74299968584073
 21
-22.47399999999998
 31
0.0
  0
ARC
  5
9C
330
A
100
AcDbEntity
  8
PV
  6
Continuous
 62
     7
100
AcDbCircle
 10
-79.408
 20
179.439
 30
0.0
 40
1.5
100
AcDbArc
 50
15.00000199999999
 51
90.00000300000001
  0
ARC
  5
9D
330
A
100
AcDbEntity
  8
PV
  6
Continuous
 62
     7
100
AcDbCircle
 10
-79.408
 20
95.43899999999998
 30
0.0
 40
1.5
100
AcDbArc
 50
269.9999969999999
 51
344.999998
  0
ARC
  5
9E
330
A
100
AcDbEntity
  8
PV
  6
Continuous
 62
   254
100
AcDbCircle
 10
-20.688
 20
127.9529999999999
 30
0.0
 40
0.5
100
AcDbArc
 50
30.000001
 51
120.0000029999999
  0
ARC
  5
9F
330
A
100
AcDbEntity
  8
PV
  6
Continuous
 62
   254
100
AcDbCircle
 10
6.742999999999998
 20
137.439
 30
0.0
 40
29.0
100
AcDbArc
 50
281.9405409999999
 51
318.0910859999999
  0
CIRCLE
  5
A0
330
A
100
AcDbEntity
  8
PV
  6
Continuous
 62
   254
100
AcDbCircle
 10
6.742999999999998
 20
137.439
 30
0.0
 40
26.5
  0
ARC
  5
A1
330
A
100
AcDbEntity
  8
PV
  6
Continuous
 62
   254
100
AcDbCircle
 10
1.242999999999998
 20
108.9389999999999
 30
0.0
 40
0.5
100
AcDbArc
 50
90.00000300000001
 51
180.000005
  0
ARC
  5
A2
330
A
100
AcDbEntity
  8
PV
  6
Continuous
 62
   254
100
AcDbCircle
 10
12.243
 20
108.9389999999999
 30
0.0
 40
0.5
100
AcDbArc
 50
0.0
 51
90.00000300000001
  0
ARC
  5
A3
330
A
100
AcDbEntity
  8
PV
  6
Continuous
 62
   254
100
AcDbCircle
 10
6.742999999999998
 20
137.439
 30
0.0
 40
29.0
100
AcDbArc
 50
221.908916
 51
258.059454
  0
CIRCLE
  5
A4
330
A
100
AcDbEntity
  8
PV
  6
Continuous
 62
   254
100
AcDbCircle
 10
6.742999999999998
 20
137.439
 30
0.0
 40
30.0
  0
ARC
  5
A5
330
A
100
AcDbEntity
  8
PV
  6
Continuous
 62
   254
100
AcDbCircle
 10
28.675
 20
118.426
 30
0.0
 40
0.5
100
AcDbArc
 50
149.999997
 51
240.0000069999999
  0
ARC
  5
A6
330
A
100
AcDbEntity
  8
PV
  6
Continuous
 62
   254
100
AcDbCircle
 10
6.742999999999998
 20
137.439
 30
0.0
 40
29.0
100
AcDbArc
 50
161.90891
 51
198.091086
  0
ARC
  5
A7
330
A
100
AcDbEntity
  8
PV
  6
Continuous
 62
   254
100
AcDbCircle
 10
34.17499999999999
 20
127.9529999999999
 30
0.0
 40
0.5
100
AcDbArc
 50
60.000002
 51
149.999997
  0
ARC
  5
A8
330
A
100
AcDbEntity
  8
PV
  6
Continuous
 62
   254
100
AcDbCircle
 10
6.742999999999998
 20
137.439
 30
0.0
 40
29.0
100
AcDbArc
 50
341.908914
 51
18.09108599999999
  0
ARC
  5
A9
330
A
100
AcDbEntity
  8
PV
  6
Continuous
 62
   254
100
AcDbCircle
 10
34.17499999999999
 20
146.926
 30
0.0
 40
0.5
100
AcDbArc
 50
210.0000029999999
 51
299.999998
  0
ARC
  5
AA
330
A
100
AcDbEntity
  8
PV
  6
Continuous
 62
   254
100
AcDbCircle
 10
28.675
 20
156.4529999999999
 30
0.0
 40
0.5
100
AcDbArc
 50
120.0000029999999
 51
209.999999
  0
ARC
  5
AB
330
A
100
AcDbEntity
  8
PV
  6
Continuous
 62
   254
100
AcDbCircle
 10
6.742999999999998
 20
137.439
 30
0.0
 40
29.0
100
AcDbArc
 50
41.908914
 51
78.091083
  0
ARC
  5
AC
330
A
100
AcDbEntity
  8
PV
  6
Continuous
 62
   254
100
AcDbCircle
 10
12.243
 20
165.939
 30
0.0
 40
0.5
100
AcDbArc
 50
269.9999969999999
 51
0.0
  0
ARC
  5
AD
330
A
100
AcDbEntity
  8
PV
  6
Continuous
 62
   254
100
AcDbCircle
 10
1.242999999999998
 20
165.939
 30
0.0
 40
0.5
100
AcDbArc
 50
179.9999909999999
 51
270.000001
  0
ARC
  5
AE
330
A
100
AcDbEntity
  8
PV
  6
Continuous
 62
   254
100
AcDbCircle
 10
6.742999999999998
 20
137.439
 30
0.0
 40
29.0
100
AcDbArc
 50
101.908915
 51
138.091084
  0
ARC
  5
AF
330
A
100
AcDbEntity
  8
PV
  6
Continuous
 62
   254
100
AcDbCircle
 10
-15.18799999999998
 20
118.426
 30
0.0
 40
0.5
100
AcDbArc
 50
299.999998
 51
30.000001
  0
ARC
  5
B0
330
A
100
AcDbEntity
  8
PV
  6
Continuous
 62
   254
100
AcDbCircle
 10
-15.18799999999998
 20
156.4529999999999
 30
0.0
 40
0.5
100
AcDbArc
 50
329.9999989999998
 51
60.000002
  0
ARC
  5
B1
330
A
100
AcDbEntity
  8
PV
  6
Continuous
 62
   254
100
AcDbCircle
 10
-20.688
 20
146.926
 30
0.0
 40
0.5
100
AcDbArc
 50
239.999997
 51
329.9999989999998
  0
CIRCLE
  5
B2
330
A
100
AcDbEntity
  8
PV
  6
Continuous
 62
     7
100
AcDbCircle
 10
-36.257
 20
180.439
 30
0.0
 40
9.0
  0
ARC
  5
B3
330
A
100
AcDbEntity
  8
PV
  6
Continuous
 62
     7
100
AcDbCircle
 10
6.742999999999998
 20
137.439
 30
0.0
 40
73.0
100
AcDbArc
 50
131.1120929999999
 51
138.887908
  0
CIRCLE
  5
B4
330
A
100
AcDbEntity
  8
PV
  6
Continuous
 62
     7
100
AcDbCircle
 10
-36.257
 20
94.43899999999999
 30
0.0
 40
9.0
  0
ARC
  5
B5
330
A
100
AcDbEntity
  8
PV
  6
Continuous
 62
     7
100
AcDbCircle
 10
6.742999999999998
 20
137.439
 30
0.0
 40
73.0
100
AcDbArc
 50
221.1120919999999
 51
228.8879069999999
  0
ARC
  5
B6
330
A
100
AcDbEntity
  8
PV
  6
Continuous
 62
     7
100
AcDbCircle
 10
6.742999999999998
 20
137.439
 30
0.0
 40
73.0
100
AcDbArc
 50
311.112091
 51
318.88791
  0
CIRCLE
  5
B7
330
A
100
AcDbEntity
  8
PV
  6
Continuous
 62
     7
100
AcDbCircle
 10
49.743
 20
94.43899999999999
 30
0.0
 40
9.0
  0
ARC
  5
B8
330
A
100
AcDbEntity
  8
PV
  6
Continuous
 62
     7
100
AcDbCircle
 10
6.742999999999998
 20
137.439
 30
0.0
 40
73.0
100
AcDbArc
 50
41.11209
 51
48.887909
  0
CIRCLE
  5
B9
330
A
100
AcDbEntity
  8
PV
  6
Continuous
 62
     7
100
AcDbCircle
 10
49.743
 20
180.439
 30
0.0
 40
9.0
  0
ARC
  5
BA
330
A
100
AcDbEntity
  8
PV
  6
Continuous
 62
     7
100
AcDbCircle
 10
-79.40800031415927
 20
-145.4739999999999
 30
0.0
 40
1.5
100
AcDbArc
 50
269.9999969999999
 51
345.000001
  0
ARC
  5
BB
330
A
100
AcDbEntity
  8
PV
  6
Continuous
 62
     7
100
AcDbCircle
 10
-79.40800031415927
 20
-61.474
 30
0.0
 40
1.5
100
AcDbArc
 50
15.00000199999999
 51
90.00000300000001
  0
ARC
  5
BC
330
A
100
AcDbEntity
  8
PV
  6
Continuous
 62
     7
100
AcDbCircle
 10
48.74299968584073
 20
-189.625
 30
0.0
 40
1.5
100
AcDbArc
 50
359.999995
 51
74.999999
  0
ARC
  5
BD
330
A
100
AcDbEntity
  8
PV
  6
Continuous
 62
     7
100
AcDbCircle
 10
-35.25700031415925
 20
-189.625
 30
0.0
 40
1.5
100
AcDbArc
 50
105.0
 51
180.000005
  0
ARC
  5
BE
330
A
100
AcDbEntity
  8
PV
  6
Continuous
 62
     7
100
AcDbCircle
 10
-81.80100031415927
 20
-103.4739999999999
 30
0.0
 40
50.8
100
AcDbArc
 50
311.324257
 51
48.675743
  0
ARC
  5
BF
330
A
100
AcDbEntity
  8
PV
  6
PHANTOM
 62
     7
100
AcDbCircle
 10
32.24299968584073
 20
32.02599999999999
 30
0.0
 40
1.0
100
AcDbArc
 50
0.0
 51
90.00000300000001
  0
ARC
  5
C0
330
A
100
AcDbEntity
  8
PV
  6
PHANTOM
 62
     7
100
AcDbCircle
 10
-18.75700031415926
 20
32.02599999999999
 30
0.0
 40
1.0
100
AcDbArc
 50
90.00000300000001
 51
180.000005
  0
ARC
  5
C1
330
A
100
AcDbEntity
  8
PV
  6
PHANTOM
 62
     7
100
AcDbCircle
 10
-20.33500031415926
 20
30.02600000000001
 30
0.0
 40
2.0
100
AcDbArc
 50
90.00000300000001
 51
177.7093919999999
  0
ARC
  5
C2
330
A
100
AcDbEntity
  8
PV
  6
PHANTOM
 62
     7
100
AcDbCircle
 10
33.82199968584072
 20
30.02600000000001
 30
0.0
 40
2.0
100
AcDbArc
 50
2.29061
 51
90.00000300000001
  0
ARC
  5
C3
330
A
100
AcDbEntity
  8
PV
  6
Continuous
 62
     7
100
AcDbCircle
 10
6.742999685840731
 20
-1.97399999999999
 30
0.0
 40
6.0
100
AcDbArc
 50
179.9999909999999
 51
270.000001
  0
ARC
  5
C4
330
A
100
AcDbEntity
  8
PV
  6
Continuous
 62
     7
100
AcDbCircle
 10
6.742999685840731
 20
-1.97399999999999
 30
0.0
 40
6.0
100
AcDbArc
 50
269.9999969999999
 51
0.0
  0
ARC
  5
C5
330
A
100
AcDbEntity
  8
PV
  6
Continuous
 62
     7
100
AcDbCircle
 10
33.82199968584072
 20
10.026
 30
0.0
 40
2.0
100
AcDbArc
 50
2.29061
 51
90.00000300000001
  0
ARC
  5
C6
330
A
100
AcDbEntity
  8
PV
  6
Continuous
 62
     7
100
AcDbCircle
 10
32.24299968584073
 20
12.026
 30
0.0
 40
1.0
100
AcDbArc
 50
0.0
 51
90.00000300000001
  0
ARC
  5
C7
330
A
100
AcDbEntity
  8
PV
  6
Continuous
 62
     7
100
AcDbCircle
 10
-18.75700031415926
 20
12.026
 30
0.0
 40
1.0
100
AcDbArc
 50
90.00000300000001
 51
180.000005
  0
ARC
  5
C8
330
A
100
AcDbEntity
  8
PV
  6
Continuous
 62
     7
100
AcDbCircle
 10
-20.33500031415926
 20
10.026
 30
0.0
 40
2.0
100
AcDbArc
 50
90.00000300000001
 51
177.7093919999999
  0
ARC
  5
C9
330
A
100
AcDbEntity
  8
PV
  6
Continuous
 62
     7
100
AcDbCircle
 10
-26.25700031415926
 20
-15.47399999999998
 30
0.0
 40
5.0
100
AcDbArc
 50
269.9999969999999
 51
0.0
  0
ARC
  5
CA
330
A
100
AcDbEntity
  8
PV
  6
Continuous
 62
     7
100
AcDbCircle
 10
39.74299968584073
 20
-15.47399999999998
 30
0.0
 40
5.0
100
AcDbArc
 50
180.000009
 51
269.9999969999999
  0
LWPOLYLINE
  5
CB
330
A
100
AcDbEntity
  8
PV
  6
Continuous
 62
     7
100
AcDbPolyline
 90
       73
 70
     0
 43
0.0
 10
29.19899968584073
 20
-1.973999999999991
 10
29.20199968584072
 20
-2.235999999999991
 10
29.21099968584072
 20
-2.496999999999991
 10
29.22499968584073
 20
-2.756999999999994
 10
29.24499968584073
 20
-3.015999999999991
 10
29.26999968584072
 20
-3.27299999999999
 10
29.30199968584073
 20
-3.526999999999992
 10
29.33799968584072
 20
-3.777999999999991
 10
29.37999968584072
 20
-4.02599999999999
 10
29.42799968584073
 20
-4.269999999999992
 10
29.47999968584074
 20
-4.50999999999999
 10
29.53799968584073
 20
-4.74399999999999
 10
29.60099968584072
 20
-4.973999999999991
 10
29.66899968584074
 20
-5.197999999999989
 10
29.74199968584072
 20
-5.41499999999999
 10
29.81899968584072
 20
-5.62699999999999
 10
29.90099968584074
 20
-5.83099999999999
 10
29.98699968584072
 20
-6.027999999999989
 10
30.07799968584072
 20
-6.216999999999989
 10
30.17299968584072
 20
-6.39799999999999
 10
30.27099968584073
 20
-6.569999999999989
 10
30.37299968584073
 20
-6.733999999999991
 10
30.47899968584072
 20
-6.88899999999999
 10
30.58699968584074
 20
-7.03399999999999
 10
30.69899968584073
 20
-7.169999999999991
 10
30.81399968584072
 20
-7.29599999999999
 10
30.93099968584072
 20
-7.41199999999999
 10
31.05099968584072
 20
-7.51699999999999
 10
31.17299968584072
 20
-7.611999999999991
 10
31.29699968584072
 20
-7.69599999999999
 10
31.42299968584072
 20
-7.76999999999999
 10
31.54999968584073
 20
-7.83199999999999
 10
31.67799968584072
 20
-7.88299999999999
 10
31.80799968584073
 20
-7.922999999999991
 10
31.93799968584072
 20
-7.950999999999989
 10
32.06799968584073
 20
-7.967999999999991
 10
32.19899968584073
 20
-7.973999999999991
 10
32.32999968584073
 20
-7.967999999999991
 10
32.46099968584073
 20
-7.950999999999989
 10
32.59099968584072
 20
-7.922999999999991
 10
32.71999968584073
 20
-7.88299999999999
 10
32.84899968584074
 20
-7.83199999999999
 10
32.97599968584073
 20
-7.76999999999999
 10
33.10099968584073
 20
-7.69599999999999
 10
33.22499968584073
 20
-7.611999999999991
 10
33.34699968584073
 20
-7.51699999999999
 10
33.46699968584073
 20
-7.41199999999999
 10
33.58499968584073
 20
-7.29599999999999
 10
33.69899968584073
 20
-7.169999999999991
 10
33.81099968584072
 20
-7.03399999999999
 10
33.91999968584072
 20
-6.88899999999999
 10
34.02599968584073
 20
-6.733999999999991
 10
34.12799968584072
 20
-6.569999999999989
 10
34.22599968584073
 20
-6.39799999999999
 10
34.32099968584073
 20
-6.216999999999989
 10
34.41099968584072
 20
-6.027999999999989
 10
34.49699968584073
 20
-5.83099999999999
 10
34.57899968584072
 20
-5.62699999999999
 10
34.65699968584073
 20
-5.41499999999999
 10
34.72899968584073
 20
-5.197999999999989
 10
34.79699968584073
 20
-4.973999999999991
 10
34.85999968584073
 20
-4.74399999999999
 10
34.91799968584072
 20
-4.50999999999999
 10
34.97099968584072
 20
-4.269999999999992
 10
35.01799968584072
 20
-4.02599999999999
 10
35.05999968584072
 20
-3.777999999999991
 10
35.09699968584072
 20
-3.526999999999992
 10
35.12799968584072
 20
-3.27299999999999
 10
35.15399968584073
 20
-3.015999999999991
 10
35.17399968584072
 20
-2.756999999999994
 10
35.18799968584072
 20
-2.496999999999991
 10
35.19599968584071
 20
-2.235999999999991
 10
35.19899968584072
 20
-1.973999999999991
  0
LWPOLYLINE
  5
CC
330
A
100
AcDbEntity
  8
PV
  6
Continuous
 62
     7
100
AcDbPolyline
 90
       73
 70
     0
 43
0.0
 10
-21.71200031415926
 20
-1.973999999999991
 10
-21.71000031415926
 20
-2.235999999999991
 10
-21.70100031415926
 20
-2.496999999999991
 10
-21.68700031415926
 20
-2.756999999999994
 10
-21.66700031415925
 20
-3.015999999999991
 10
-21.64100031415926
 20
-3.27299999999999
 10
-21.61000031415926
 20
-3.526999999999992
 10
-21.57400031415926
 20
-3.777999999999991
 10
-21.53100031415926
 20
-4.02599999999999
 10
-21.48400031415926
 20
-4.269999999999992
 10
-21.43100031415926
 20
-4.50999999999999
 10
-21.37300031415926
 20
-4.74399999999999
 10
-21.31000031415926
 20
-4.973999999999991
 10
-21.24300031415927
 20
-5.197999999999989
 10
-21.17000031415926
 20
-5.41499999999999
 10
-21.09200031415926
 20
-5.62699999999999
 10
-21.01100031415926
 20
-5.83099999999999
 10
-20.92400031415926
 20
-6.027999999999989
 10
-20.83400031415926
 20
-6.216999999999989
 10
-20.73900031415926
 20
-6.39799999999999
 10
-20.64100031415927
 20
-6.569999999999989
 10
-20.53900031415926
 20
-6.733999999999991
 10
-20.43300031415926
 20
-6.88899999999999
 10
-20.32400031415926
 20
-7.03399999999999
 10
-20.21200031415926
 20
-7.169999999999991
 10
-20.09800031415926
 20
-7.29599999999999
 10
-19.98000031415926
 20
-7.41199999999999
 10
-19.86000031415926
 20
-7.51699999999999
 10
-19.73800031415926
 20
-7.611999999999991
 10
-19.61500031415926
 20
-7.69599999999999
 10
-19.48900031415926
 20
-7.76999999999999
 10
-19.36200031415926
 20
-7.83199999999999
 10
-19.23300031415926
 20
-7.88299999999999
 10
-19.10400031415926
 20
-7.922999999999991
 10
-18.97400031415926
 20
-7.950999999999989
 10
-18.84300031415926
 20
-7.967999999999991
 10
-18.71200031415926
 20
-7.973999999999991
 10
-18.58200031415926
 20
-7.967999999999991
 10
-18.45100031415926
 20
-7.950999999999989
 10
-18.32100031415926
 20
-7.922999999999991
 10
-18.19100031415926
 20
-7.88299999999999
 10
-18.06300031415926
 20
-7.83199999999999
 10
-17.93600031415926
 20
-7.76999999999999
 10
-17.81000031415926
 20
-7.69599999999999
 10
-17.68600031415926
 20
-7.611999999999991
 10
-17.56400031415926
 20
-7.51699999999999
 10
-17.44500031415926
 20
-7.41199999999999
 10
-17.32700031415926
 20
-7.29599999999999
 10
-17.21200031415926
 20
-7.169999999999991
 10
-17.10100031415926
 20
-7.03399999999999
 10
-16.99200031415926
 20
-6.88899999999999
 10
-16.88600031415926
 20
-6.733999999999991
 10
-16.78400031415926
 20
-6.569999999999989
 10
-16.68600031415926
 20
-6.39799999999999
 10
-16.59100031415926
 20
-6.216999999999989
 10
-16.50100031415926
 20
-6.027999999999989
 10
-16.41400031415926
 20
-5.83099999999999
 10
-16.33200031415926
 20
-5.62699999999999
 10
-16.25500031415926
 20
-5.41499999999999
 10
-16.18200031415926
 20
-5.197999999999989
 10
-16.11400031415926
 20
-4.973999999999991
 10
-16.05100031415926
 20
-4.74399999999999
 10
-15.99300031415926
 20
-4.50999999999999
 10
-15.94100031415926
 20
-4.269999999999992
 10
-15.89300031415926
 20
-4.02599999999999
 10
-15.85100031415926
 20
-3.777999999999991
 10
-15.81500031415926
 20
-3.526999999999992
 10
-15.78400031415926
 20
-3.27299999999999
 10
-15.75800031415926
 20
-3.015999999999991
 10
-15.73800031415926
 20
-2.756999999999994
 10
-15.72400031415926
 20
-2.496999999999991
 10
-15.71500031415926
 20
-2.235999999999991
 10
-15.71200031415926
 20
-1.973999999999991
  0
LINE
  5
CD
330
A
100
AcDbEntity
  8
PV
  6
Continuous
 62
     7
100
AcDbLine
 10
-11.327
 20
139.543
 30
0.0
 11
-10.92699999999999
 21
139.543
 31
0.0
  0
LINE
  5
CE
330
A
100
AcDbEntity
  8
PV
  6
Continuous
 62
     7
100
AcDbLine
 10
-10.657
 20
143.3429999999999
 30
0.0
 11
-10.318
 21
143.3429999999999
 31
0.0
  0
LINE
  5
CF
330
A
100
AcDbEntity
  8
PV
  6
Continuous
 62
     7
100
AcDbLine
 10
-8.743
 20
139.543
 30
0.0
 11
-8.073
 21
143.3429999999999
 31
0.0
  0
LINE
  5
D0
330
A
100
AcDbEntity
  8
PV
  6
Continuous
 62
     7
100
AcDbLine
 10
-9.005
 20
140.25
 30
0.0
 11
-8.46
 21
143.3429999999999
 31
0.0
  0
LINE
  5
D1
330
A
100
AcDbEntity
  8
PV
  6
Continuous
 62
     7
100
AcDbLine
 10
-10.92699999999999
 20
139.543
 30
0.0
 11
-10.402
 21
142.517
 31
0.0
  0
LINE
  5
D2
330
A
100
AcDbEntity
  8
PV
  6
Continuous
 62
     7
100
AcDbLine
 10
-11.327
 20
139.543
 30
0.0
 11
-10.657
 21
143.3429999999999
 31
0.0
  0
LINE
  5
D3
330
A
100
AcDbEntity
  8
PV
  6
Continuous
 62
     7
100
AcDbLine
 10
-10.402
 20
142.517
 30
0.0
 11
-9.14
 21
139.543
 31
0.0
  0
LINE
  5
D4
330
A
100
AcDbEntity
  8
PV
  6
Continuous
 62
     7
100
AcDbLine
 10
-10.318
 20
143.3429999999999
 30
0.0
 11
-9.006
 21
140.25
 31
0.0
  0
LINE
  5
D5
330
A
100
AcDbEntity
  8
PV
  6
Continuous
 62
     7
100
AcDbLine
 10
-9.14
 20
139.543
 30
0.0
 11
-8.743
 21
139.543
 31
0.0
  0
LINE
  5
D6
330
A
100
AcDbEntity
  8
PV
  6
Continuous
 62
     7
100
AcDbLine
 10
-8.46
 20
143.3429999999999
 30
0.0
 11
-8.073
 21
143.3429999999999
 31
0.0
  0
LINE
  5
D7
330
A
100
AcDbEntity
  8
PV
  6
Continuous
 62
     7
100
AcDbLine
 10
-4.641999999999998
 20
141.4429999999998
 30
0.0
 11
-3.491
 21
141.4429999999998
 31
0.0
  0
LINE
  5
D8
330
A
100
AcDbEntity
  8
PV
  6
Continuous
 62
     7
100
AcDbLine
 10
-3.951
 20
141.99
 30
0.0
 11
-3.573999999999998
 21
142.1279999999998
 31
0.0
  0
LINE
  5
D9
330
A
100
AcDbEntity
  8
PV
  6
Continuous
 62
     7
100
AcDbLine
 10
-4.708999999999998
 20
141.0629999999999
 30
0.0
 11
-4.641999999999998
 21
141.4429999999998
 31
0.0
  0
LINE
  5
DA
330
A
100
AcDbEntity
  8
PV
  6
Continuous
 62
     7
100
AcDbLine
 10
-4.708999999999998
 20
141.0629999999999
 30
0.0
 11
-3.953
 21
141.0629999999999
 31
0.0
  0
LINE
  5
DB
330
A
100
AcDbEntity
  8
PV
  6
Continuous
 62
     7
100
AcDbLine
 10
-15.85799999999998
 20
139.543
 30
0.0
 11
-15.453
 21
139.543
 31
0.0
  0
LINE
  5
DC
330
A
100
AcDbEntity
  8
PV
  6
Continuous
 62
     7
100
AcDbLine
 10
-14.47499999999999
 20
143.3429999999999
 30
0.0
 11
-14.06
 21
143.3429999999999
 31
0.0
  0
LINE
  5
DD
330
A
100
AcDbEntity
  8
PV
  6
Continuous
 62
     7
100
AcDbLine
 10
-15.85799999999998
 20
139.543
 30
0.0
 11
-14.47499999999999
 21
143.3429999999999
 31
0.0
  0
LINE
  5
DE
330
A
100
AcDbEntity
  8
PV
  6
Continuous
 62
     7
100
AcDbLine
 10
-15.453
 20
139.543
 30
0.0
 11
-15.16
 21
140.35
 31
0.0
  0
LINE
  5
DF
330
A
100
AcDbEntity
  8
PV
  6
Continuous
 62
     7
100
AcDbLine
 10
-14.06
 20
143.3429999999999
 30
0.0
 11
-13.042
 21
139.543
 31
0.0
  0
LINE
  5
E0
330
A
100
AcDbEntity
  8
PV
  6
Continuous
 62
     7
100
AcDbLine
 10
-14.291
 20
142.736
 30
0.0
 11
-13.75799999999999
 21
140.745
 31
0.0
  0
LINE
  5
E1
330
A
100
AcDbEntity
  8
PV
  6
Continuous
 62
     7
100
AcDbLine
 10
-13.436
 20
139.543
 30
0.0
 11
-13.042
 21
139.543
 31
0.0
  0
LINE
  5
E2
330
A
100
AcDbEntity
  8
PV
  6
Continuous
 62
     7
100
AcDbLine
 10
-15.16
 20
140.35
 30
0.0
 11
-13.652
 21
140.35
 31
0.0
  0
LINE
  5
E3
330
A
100
AcDbEntity
  8
PV
  6
Continuous
 62
     7
100
AcDbLine
 10
-15.01599999999999
 20
140.745
 30
0.0
 11
-13.75799999999999
 21
140.745
 31
0.0
  0
LINE
  5
E4
330
A
100
AcDbEntity
  8
PV
  6
Continuous
 62
     7
100
AcDbLine
 10
-15.01599999999999
 20
140.745
 30
0.0
 11
-14.291
 21
142.736
 31
0.0
  0
LINE
  5
E5
330
A
100
AcDbEntity
  8
PV
  6
Continuous
 62
     7
100
AcDbLine
 10
-13.652
 20
140.35
 30
0.0
 11
-13.436
 21
139.543
 31
0.0
  0
LINE
  5
E6
330
A
100
AcDbEntity
  8
PV
  6
Continuous
 62
     7
100
AcDbLine
 10
-2.080999999999999
 20
139.543
 30
0.0
 11
-0.022
 21
139.543
 31
0.0
  0
LINE
  5
E7
330
A
100
AcDbEntity
  8
PV
  6
Continuous
 62
     7
100
AcDbLine
 10
-1.411
 20
143.3429999999999
 30
0.0
 11
-1.014999999999999
 21
143.3429999999999
 31
0.0
  0
LINE
  5
E8
330
A
100
AcDbEntity
  8
PV
  6
Continuous
 62
     7
100
AcDbLine
 10
-0.022
 20
139.543
 30
0.0
 11
0.049
 21
139.9479999999998
 31
0.0
  0
LINE
  5
E9
330
A
100
AcDbEntity
  8
PV
  6
Continuous
 62
     7
100
AcDbLine
 10
-2.080999999999999
 20
139.543
 30
0.0
 11
-1.411
 21
143.3429999999999
 31
0.0
  0
LINE
  5
EA
330
A
100
AcDbEntity
  8
PV
  6
Continuous
 62
     7
100
AcDbLine
 10
-1.614
 20
139.9479999999998
 30
0.0
 11
-1.014999999999999
 21
143.3429999999999
 31
0.0
  0
LINE
  5
EB
330
A
100
AcDbEntity
  8
PV
  6
Continuous
 62
     7
100
AcDbLine
 10
-1.614
 20
139.9479999999998
 30
0.0
 11
0.049
 21
139.9479999999998
 31
0.0
  0
LINE
  5
EC
330
A
100
AcDbEntity
  8
PV
  6
Continuous
 62
     7
100
AcDbLine
 10
2.431999999999999
 20
143.3429999999999
 30
0.0
 11
4.209999999999999
 21
143.3429999999999
 31
0.0
  0
LINE
  5
ED
330
A
100
AcDbEntity
  8
PV
  6
Continuous
 62
     7
100
AcDbLine
 10
1.761999999999999
 20
139.543
 30
0.0
 11
3.54
 21
139.543
 31
0.0
  0
LINE
  5
EE
330
A
100
AcDbEntity
  8
PV
  6
Continuous
 62
     7
100
AcDbLine
 10
1.761999999999999
 20
139.543
 30
0.0
 11
2.431999999999999
 21
143.3429999999999
 31
0.0
  0
LINE
  5
EF
330
A
100
AcDbEntity
  8
PV
  6
Continuous
 62
     7
100
AcDbLine
 10
3.54
 20
139.543
 30
0.0
 11
3.608
 21
139.9299999999998
 31
0.0
  0
LINE
  5
F0
330
A
100
AcDbEntity
  8
PV
  6
Continuous
 62
     7
100
AcDbLine
 10
2.451999999999999
 20
141.2379999999999
 30
0.0
 11
3.839
 21
141.2379999999999
 31
0.0
  0
LINE
  5
F1
330
A
100
AcDbEntity
  8
PV
  6
Continuous
 62
     7
100
AcDbLine
 10
2.520999999999999
 20
141.631
 30
0.0
 11
3.907999999999998
 21
141.631
 31
0.0
  0
LINE
  5
F2
330
A
100
AcDbEntity
  8
PV
  6
Continuous
 62
     7
100
AcDbLine
 10
2.748999999999998
 20
142.925
 30
0.0
 11
4.136
 21
142.925
 31
0.0
  0
LINE
  5
F3
330
A
100
AcDbEntity
  8
PV
  6
Continuous
 62
     7
100
AcDbLine
 10
2.221
 20
139.9299999999998
 30
0.0
 11
3.608
 21
139.9299999999998
 31
0.0
  0
LINE
  5
F4
330
A
100
AcDbEntity
  8
PV
  6
Continuous
 62
     7
100
AcDbLine
 10
2.221
 20
139.9299999999998
 30
0.0
 11
2.451999999999999
 21
141.2379999999999
 31
0.0
  0
LINE
  5
F5
330
A
100
AcDbEntity
  8
PV
  6
Continuous
 62
     7
100
AcDbLine
 10
3.839
 20
141.2379999999999
 30
0.0
 11
3.907999999999998
 21
141.631
 31
0.0
  0
LINE
  5
F6
330
A
100
AcDbEntity
  8
PV
  6
Continuous
 62
     7
100
AcDbLine
 10
4.136
 20
142.925
 30
0.0
 11
4.209999999999999
 21
143.3429999999999
 31
0.0
  0
LINE
  5
F7
330
A
100
AcDbEntity
  8
PV
  6
Continuous
 62
     7
100
AcDbLine
 10
2.520999999999999
 20
141.631
 30
0.0
 11
2.748999999999998
 21
142.925
 31
0.0
  0
LINE
  5
F8
330
A
100
AcDbEntity
  8
PV
  6
Continuous
 62
     7
100
AcDbLine
 10
11.442
 20
139.543
 30
0.0
 11
11.847
 21
139.543
 31
0.0
  0
LINE
  5
F9
330
A
100
AcDbEntity
  8
PV
  6
Continuous
 62
     7
100
AcDbLine
 10
12.82499999999999
 20
143.3429999999999
 30
0.0
 11
13.24
 21
143.3429999999999
 31
0.0
  0
LINE
  5
FA
330
A
100
AcDbEntity
  8
PV
  6
Continuous
 62
     7
100
AcDbLine
 10
11.442
 20
139.543
 30
0.0
 11
12.82499999999999
 21
143.3429999999999
 31
0.0
  0
LINE
  5
FB
330
A
100
AcDbEntity
  8
PV
  6
Continuous
 62
     7
100
AcDbLine
 10
11.847
 20
139.543
 30
0.0
 11
12.14
 21
140.35
 31
0.0
  0
LINE
  5
FC
330
A
100
AcDbEntity
  8
PV
  6
Continuous
 62
     7
100
AcDbLine
 10
13.24
 20
143.3429999999999
 30
0.0
 11
14.25799999999999
 21
139.543
 31
0.0
  0
LINE
  5
FD
330
A
100
AcDbEntity
  8
PV
  6
Continuous
 62
     7
100
AcDbLine
 10
13.009
 20
142.736
 30
0.0
 11
13.542
 21
140.745
 31
0.0
  0
LINE
  5
FE
330
A
100
AcDbEntity
  8
PV
  6
Continuous
 62
     7
100
AcDbLine
 10
13.864
 20
139.543
 30
0.0
 11
14.25799999999999
 21
139.543
 31
0.0
  0
LINE
  5
FF
330
A
100
AcDbEntity
  8
PV
  6
Continuous
 62
     7
100
AcDbLine
 10
12.14
 20
140.35
 30
0.0
 11
13.648
 21
140.35
 31
0.0
  0
LINE
  5
100
330
A
100
AcDbEntity
  8
PV
  6
Continuous
 62
     7
100
AcDbLine
 10
12.284
 20
140.745
 30
0.0
 11
13.542
 21
140.745
 31
0.0
  0
LINE
  5
101
330
A
100
AcDbEntity
  8
PV
  6
Continuous
 62
     7
100
AcDbLine
 10
12.284
 20
140.745
 30
0.0
 11
13.009
 21
142.736
 31
0.0
  0
LINE
  5
102
330
A
100
AcDbEntity
  8
PV
  6
Continuous
 62
     7
100
AcDbLine
 10
13.648
 20
140.35
 30
0.0
 11
13.864
 21
139.543
 31
0.0
  0
LINE
  5
103
330
A
100
AcDbEntity
  8
PV
  6
Continuous
 62
     7
100
AcDbLine
 10
15.719
 20
139.543
 30
0.0
 11
17.778
 21
139.543
 31
0.0
  0
LINE
  5
104
330
A
100
AcDbEntity
  8
PV
  6
Continuous
 62
     7
100
AcDbLine
 10
16.389
 20
143.3429999999999
 30
0.0
 11
16.785
 21
143.3429999999999
 31
0.0
  0
LINE
  5
105
330
A
100
AcDbEntity
  8
PV
  6
Continuous
 62
     7
100
AcDbLine
 10
23.732
 20
143.3429999999999
 30
0.0
 11
25.51
 21
143.3429999999999
 31
0.0
  0
LINE
  5
106
330
A
100
AcDbEntity
  8
PV
  6
Continuous
 62
     7
100
AcDbLine
 10
23.062
 20
139.543
 30
0.0
 11
24.83999999999999
 21
139.543
 31
0.0
  0
LINE
  5
107
330
A
100
AcDbEntity
  8
PV
  6
Continuous
 62
     7
100
AcDbLine
 10
17.778
 20
139.543
 30
0.0
 11
17.849
 21
139.9479999999998
 31
0.0
  0
LINE
  5
108
330
A
100
AcDbEntity
  8
PV
  6
Continuous
 62
     7
100
AcDbLine
 10
15.719
 20
139.543
 30
0.0
 11
16.389
 21
143.3429999999999
 31
0.0
  0
LINE
  5
109
330
A
100
AcDbEntity
  8
PV
  6
Continuous
 62
     7
100
AcDbLine
 10
16.18599999999998
 20
139.9479999999998
 30
0.0
 11
16.785
 21
143.3429999999999
 31
0.0
  0
LINE
  5
10A
330
A
100
AcDbEntity
  8
PV
  6
Continuous
 62
     7
100
AcDbLine
 10
16.18599999999998
 20
139.9479999999998
 30
0.0
 11
17.849
 21
139.9479999999998
 31
0.0
  0
LINE
  5
10B
330
A
100
AcDbEntity
  8
PV
  6
Continuous
 62
     7
100
AcDbLine
 10
23.062
 20
139.543
 30
0.0
 11
23.732
 21
143.3429999999999
 31
0.0
  0
LINE
  5
10C
330
A
100
AcDbEntity
  8
PV
  6
Continuous
 62
     7
100
AcDbLine
 10
24.83999999999999
 20
139.543
 30
0.0
 11
24.908
 21
139.9299999999998
 31
0.0
  0
LINE
  5
10D
330
A
100
AcDbEntity
  8
PV
  6
Continuous
 62
     7
100
AcDbLine
 10
23.75199999999999
 20
141.2379999999999
 30
0.0
 11
25.139
 21
141.2379999999999
 31
0.0
  0
LINE
  5
10E
330
A
100
AcDbEntity
  8
PV
  6
Continuous
 62
     7
100
AcDbLine
 10
23.82099999999998
 20
141.631
 30
0.0
 11
25.208
 21
141.631
 31
0.0
  0
LINE
  5
10F
330
A
100
AcDbEntity
  8
PV
  6
Continuous
 62
     7
100
AcDbLine
 10
24.049
 20
142.925
 30
0.0
 11
25.436
 21
142.925
 31
0.0
  0
LINE
  5
110
330
A
100
AcDbEntity
  8
PV
  6
Continuous
 62
     7
100
AcDbLine
 10
23.521
 20
139.9299999999998
 30
0.0
 11
24.908
 21
139.9299999999998
 31
0.0
  0
LINE
  5
111
330
A
100
AcDbEntity
  8
PV
  6
Continuous
 62
     7
100
AcDbLine
 10
23.521
 20
139.9299999999998
 30
0.0
 11
23.75199999999999
 21
141.2379999999999
 31
0.0
  0
LINE
  5
112
330
A
100
AcDbEntity
  8
PV
  6
Continuous
 62
     7
100
AcDbLine
 10
25.139
 20
141.2379999999999
 30
0.0
 11
25.208
 21
141.631
 31
0.0
  0
LINE
  5
113
330
A
100
AcDbEntity
  8
PV
  6
Continuous
 62
     7
100
AcDbLine
 10
25.436
 20
142.925
 30
0.0
 11
25.51
 21
143.3429999999999
 31
0.0
  0
LINE
  5
114
330
A
100
AcDbEntity
  8
PV
  6
Continuous
 62
     7
100
AcDbLine
 10
23.82099999999998
 20
141.631
 30
0.0
 11
24.049
 21
142.925
 31
0.0
  0
LINE
  5
115
330
A
100
AcDbEntity
  8
PV
  6
Continuous
 62
     7
100
AcDbLine
 10
19.91799999999998
 20
139.543
 30
0.0
 11
20.401
 21
139.543
 31
0.0
  0
LINE
  5
116
330
A
100
AcDbEntity
  8
PV
  6
Continuous
 62
     7
100
AcDbLine
 10
19.248
 20
143.3429999999999
 30
0.0
 11
19.643
 21
143.3429999999999
 31
0.0
  0
LINE
  5
117
330
A
100
AcDbEntity
  8
PV
  6
Continuous
 62
     7
100
AcDbLine
 10
20.401
 20
139.543
 30
0.0
 11
21.784
 21
143.3429999999999
 31
0.0
  0
LINE
  5
118
330
A
100
AcDbEntity
  8
PV
  6
Continuous
 62
     7
100
AcDbLine
 10
20.20799999999999
 20
140.141
 30
0.0
 11
21.373
 21
143.3429999999999
 31
0.0
  0
LINE
  5
119
330
A
100
AcDbEntity
  8
PV
  6
Continuous
 62
     7
100
AcDbLine
 10
19.643
 20
143.3429999999999
 30
0.0
 11
20.20799999999999
 21
140.141
 31
0.0
  0
LINE
  5
11A
330
A
100
AcDbEntity
  8
PV
  6
Continuous
 62
     7
100
AcDbLine
 10
19.248
 20
143.3429999999999
 30
0.0
 11
19.91799999999998
 21
139.543
 31
0.0
  0
LINE
  5
11B
330
A
100
AcDbEntity
  8
PV
  6
Continuous
 62
     7
100
AcDbLine
 10
21.373
 20
143.3429999999999
 30
0.0
 11
21.784
 21
143.3429999999999
 31
0.0
  0
LINE
  5
11C
330
A
100
AcDbEntity
  8
PV
  6
Continuous
 62
     7
100
AcDbLine
 10
8.667999999999999
 20
139.543
 30
0.0
 11
9.150999999999999
 21
139.543
 31
0.0
  0
LINE
  5
11D
330
A
100
AcDbEntity
  8
PV
  6
Continuous
 62
     7
100
AcDbLine
 10
7.997999999999998
 20
143.3429999999999
 30
0.0
 11
8.392999999999997
 21
143.3429999999999
 31
0.0
  0
LINE
  5
11E
330
A
100
AcDbEntity
  8
PV
  6
Continuous
 62
     7
100
AcDbLine
 10
9.150999999999999
 20
139.543
 30
0.0
 11
10.534
 21
143.3429999999999
 31
0.0
  0
LINE
  5
11F
330
A
100
AcDbEntity
  8
PV
  6
Continuous
 62
     7
100
AcDbLine
 10
8.958
 20
140.141
 30
0.0
 11
10.12299999999999
 21
143.3429999999999
 31
0.0
  0
LINE
  5
120
330
A
100
AcDbEntity
  8
PV
  6
Continuous
 62
     7
100
AcDbLine
 10
8.392999999999997
 20
143.3429999999999
 30
0.0
 11
8.958
 21
140.141
 31
0.0
  0
LINE
  5
121
330
A
100
AcDbEntity
  8
PV
  6
Continuous
 62
     7
100
AcDbLine
 10
7.997999999999998
 20
143.3429999999999
 30
0.0
 11
8.667999999999999
 21
139.543
 31
0.0
  0
LINE
  5
122
330
A
100
AcDbEntity
  8
PV
  6
Continuous
 62
     7
100
AcDbLine
 10
10.12299999999999
 20
143.3429999999999
 30
0.0
 11
10.534
 21
143.3429999999999
 31
0.0
  0
LINE
  5
123
330
A
100
AcDbEntity
  8
PV
  6
Continuous
 62
     7
100
AcDbLine
 10
26.706
 20
140.2879999999998
 30
0.0
 11
27.021
 21
140.47
 31
0.0
  0
LINE
  5
124
330
A
100
AcDbEntity
  8
PV
  6
Continuous
 62
     7
100
AcDbLine
 10
29.10999999999999
 20
142.6399999999999
 30
0.0
 11
28.795
 21
142.4579999999999
 31
0.0
  0
LINE
  5
125
330
A
100
AcDbEntity
  8
PV
  6
Continuous
 62
     7
100
AcDbLine
 10
27.693
 20
141.302
 30
0.0
 11
28.092
 21
141.242
 31
0.0
  0
LINE
  5
126
330
A
100
AcDbEntity
  8
PV
  6
Continuous
 62
     7
100
AcDbLine
 10
27.73
 20
141.682
 30
0.0
 11
28.123
 21
141.626
 31
0.0
  0
LINE
  5
127
330
A
100
AcDbEntity
  8
PV
  6
Continuous
 62
     7
100
AcDbLine
 10
28.394
 20
149.939
 30
0.0
 11
-14.907
 21
149.939
 31
0.0
  0
LINE
  5
128
330
A
100
AcDbEntity
  8
PV
  6
Continuous
 62
   254
100
AcDbLine
 10
-2.165
 20
152.2429999999999
 30
0.0
 11
-1.865999999999999
 21
152.2429999999999
 31
0.0
  0
LINE
  5
129
330
A
100
AcDbEntity
  8
PV
  6
Continuous
 62
     7
100
AcDbLine
 10
5.593999999999998
 20
159.799
 30
0.0
 11
5.593999999999998
 21
156.2489999999999
 31
0.0
  0
LINE
  5
12A
330
A
100
AcDbEntity
  8
PV
  6
Continuous
 62
     7
100
AcDbLine
 10
1.459
 20
158.849
 30
0.0
 11
3.358999999999998
 21
158.849
 31
0.0
  0
LINE
  5
12B
330
A
100
AcDbEntity
  8
PV
  6
Continuous
 62
     7
100
AcDbLine
 10
1.459
 20
158.849
 30
0.0
 11
1.459
 21
156.2489999999999
 31
0.0
  0
LINE
  5
12C
330
A
100
AcDbEntity
  8
PV
  6
Continuous
 62
     7
100
AcDbLine
 10
3.358999999999998
 20
158.849
 30
0.0
 11
3.358999999999998
 21
156.2489999999999
 31
0.0
  0
LINE
  5
12D
330
A
100
AcDbEntity
  8
PV
  6
Continuous
 62
     7
100
AcDbLine
 10
1.459
 20
156.2489999999999
 30
0.0
 11
3.358999999999998
 21
156.2489999999999
 31
0.0
  0
LINE
  5
12E
330
A
100
AcDbEntity
  8
PV
  6
Continuous
 62
     7
100
AcDbLine
 10
4.043999999999998
 20
159.799
 30
0.0
 11
4.043999999999998
 21
156.2489999999999
 31
0.0
  0
LINE
  5
12F
330
A
100
AcDbEntity
  8
PV
  6
Continuous
 62
     7
100
AcDbLine
 10
4.043999999999998
 20
159.799
 30
0.0
 11
5.593999999999998
 21
159.799
 31
0.0
  0
LINE
  5
130
330
A
100
AcDbEntity
  8
PV
  6
Continuous
 62
     7
100
AcDbLine
 10
4.043999999999998
 20
156.2489999999999
 30
0.0
 11
5.593999999999998
 21
156.2489999999999
 31
0.0
  0
LINE
  5
131
330
A
100
AcDbEntity
  8
PV
  6
Continuous
 62
     7
100
AcDbLine
 10
7.368999999999998
 20
159.799
 30
0.0
 11
7.368999999999998
 21
158.999
 31
0.0
  0
LINE
  5
132
330
A
100
AcDbEntity
  8
PV
  6
Continuous
 62
     7
100
AcDbLine
 10
12.144
 20
159.024
 30
0.0
 11
12.144
 21
157.024
 31
0.0
  0
LINE
  5
133
330
A
100
AcDbEntity
  8
PV
  6
Continuous
 62
     7
100
AcDbLine
 10
7.368999999999998
 20
157.049
 30
0.0
 11
7.368999999999998
 21
156.2489999999999
 31
0.0
  0
LINE
  5
134
330
A
100
AcDbEntity
  8
PV
  6
Continuous
 62
     7
100
AcDbLine
 10
7.368999999999998
 20
158.999
 30
0.0
 11
7.368999999999998
 21
157.049
 31
0.0
  0
LINE
  5
135
330
A
100
AcDbEntity
  8
PV
  6
Continuous
 62
   254
100
AcDbLine
 10
-4.596999999999998
 20
152.5749999999999
 30
0.0
 11
-3.588999999999998
 21
152.5749999999999
 31
0.0
  0
LINE
  5
136
330
A
100
AcDbEntity
  8
PV
  6
Continuous
 62
   254
100
AcDbLine
 10
-9.857999999999996
 20
153.0229999999999
 30
0.0
 11
-9.41
 21
153.0229999999999
 31
0.0
  0
LINE
  5
137
330
A
100
AcDbEntity
  8
PV
  6
Continuous
 62
   254
100
AcDbLine
 10
-9.857999999999996
 20
150.7839999999999
 30
0.0
 11
-9.41
 21
150.7839999999999
 31
0.0
  0
LINE
  5
138
330
A
100
AcDbEntity
  8
PV
  6
Continuous
 62
   254
100
AcDbLine
 10
-9.857999999999996
 20
153.0229999999999
 30
0.0
 11
-9.857999999999996
 21
150.7839999999999
 31
0.0
  0
LINE
  5
139
330
A
100
AcDbEntity
  8
PV
  6
Continuous
 62
   254
100
AcDbLine
 10
-9.41
 20
153.0229999999999
 30
0.0
 11
-9.41
 21
150.7839999999999
 31
0.0
  0
LINE
  5
13A
330
A
100
AcDbEntity
  8
PV
  6
Continuous
 62
   254
100
AcDbLine
 10
-8.961999999999997
 20
153.0229999999999
 30
0.0
 11
-8.961999999999997
 21
152.3509999999999
 31
0.0
  0
LINE
  5
13B
330
A
100
AcDbEntity
  8
PV
  6
Continuous
 62
   254
100
AcDbLine
 10
-8.513999999999999
 20
152.5749999999999
 30
0.0
 11
-8.513999999999999
 21
152.3509999999999
 31
0.0
  0
LINE
  5
13C
330
A
100
AcDbEntity
  8
PV
  6
Continuous
 62
   254
100
AcDbLine
 10
7.044999999999999
 20
153.0229999999999
 30
0.0
 11
7.044999999999999
 21
152.5749999999999
 31
0.0
  0
LINE
  5
13D
330
A
100
AcDbEntity
  8
PV
  6
Continuous
 62
   254
100
AcDbLine
 10
-8.513999999999999
 20
151.68
 30
0.0
 11
-7.897
 21
151.68
 31
0.0
  0
LINE
  5
13E
330
A
100
AcDbEntity
  8
PV
  6
Continuous
 62
   254
100
AcDbLine
 10
-7.394999999999998
 20
152.5749999999999
 30
0.0
 11
-8.513999999999999
 21
152.5749999999999
 31
0.0
  0
LINE
  5
13F
330
A
100
AcDbEntity
  8
PV
  6
Continuous
 62
   254
100
AcDbLine
 10
-7.394999999999998
 20
152.127
 30
0.0
 11
-8.513999999999999
 21
152.127
 31
0.0
  0
LINE
  5
140
330
A
100
AcDbEntity
  8
PV
  6
Continuous
 62
   254
100
AcDbLine
 10
-8.961999999999997
 20
150.7839999999999
 30
0.0
 11
-8.513999999999999
 21
150.7839999999999
 31
0.0
  0
LINE
  5
141
330
A
100
AcDbEntity
  8
PV
  6
Continuous
 62
   254
100
AcDbLine
 10
-8.961999999999997
 20
153.0229999999999
 30
0.0
 11
-7.394999999999998
 21
153.0229999999999
 31
0.0
  0
LINE
  5
142
330
A
100
AcDbEntity
  8
PV
  6
Continuous
 62
   254
100
AcDbLine
 10
-8.513999999999999
 20
151.68
 30
0.0
 11
-8.513999999999999
 21
150.7839999999999
 31
0.0
  0
LINE
  5
143
330
A
100
AcDbEntity
  8
PV
  6
Continuous
 62
   254
100
AcDbLine
 10
-7.269999999999998
 20
150.7839999999999
 30
0.0
 11
-6.722999999999998
 21
150.7839999999999
 31
0.0
  0
LINE
  5
144
330
A
100
AcDbEntity
  8
PV
  6
Continuous
 62
   254
100
AcDbLine
 10
-6.387999999999999
 20
153.0229999999999
 30
0.0
 11
-5.94
 21
153.0229999999999
 31
0.0
  0
LINE
  5
145
330
A
100
AcDbEntity
  8
PV
  6
Continuous
 62
   254
100
AcDbLine
 10
-6.387999999999999
 20
150.7839999999999
 30
0.0
 11
-5.94
 21
150.7839999999999
 31
0.0
  0
LINE
  5
146
330
A
100
AcDbEntity
  8
PV
  6
Continuous
 62
   254
100
AcDbLine
 10
-6.387999999999999
 20
153.0229999999999
 30
0.0
 11
-6.387999999999999
 21
150.7839999999999
 31
0.0
  0
LINE
  5
147
330
A
100
AcDbEntity
  8
PV
  6
Continuous
 62
   254
100
AcDbLine
 10
-5.94
 20
153.0229999999999
 30
0.0
 11
-5.94
 21
150.7839999999999
 31
0.0
  0
LINE
  5
148
330
A
100
AcDbEntity
  8
PV
  6
Continuous
 62
   254
100
AcDbLine
 10
6.037999999999998
 20
153.0229999999999
 30
0.0
 11
7.044999999999999
 21
153.0229999999999
 31
0.0
  0
LINE
  5
149
330
A
100
AcDbEntity
  8
PV
  6
Continuous
 62
   254
100
AcDbLine
 10
6.037999999999998
 20
150.7839999999999
 30
0.0
 11
7.044999999999999
 21
150.7839999999999
 31
0.0
  0
LINE
  5
14A
330
A
100
AcDbEntity
  8
PV
  6
Continuous
 62
   254
100
AcDbLine
 10
2.68
 20
153.0229999999999
 30
0.0
 11
3.126999999999998
 21
153.0229999999999
 31
0.0
  0
LINE
  5
14B
330
A
100
AcDbEntity
  8
PV
  6
Continuous
 62
   254
100
AcDbLine
 10
2.68
 20
150.7839999999999
 30
0.0
 11
3.126999999999998
 21
150.7839999999999
 31
0.0
  0
LINE
  5
14C
330
A
100
AcDbEntity
  8
PV
  6
Continuous
 62
   254
100
AcDbLine
 10
5.405
 20
151.68
 30
0.0
 11
7.044999999999999
 21
151.68
 31
0.0
  0
LINE
  5
14D
330
A
100
AcDbEntity
  8
PV
  6
Continuous
 62
   254
100
AcDbLine
 10
5.405
 20
152.127
 30
0.0
 11
7.044999999999999
 21
152.127
 31
0.0
  0
LINE
  5
14E
330
A
100
AcDbEntity
  8
PV
  6
Continuous
 62
   254
100
AcDbLine
 10
6.037999999999998
 20
151.232
 30
0.0
 11
7.044999999999999
 21
151.232
 31
0.0
  0
LINE
  5
14F
330
A
100
AcDbEntity
  8
PV
  6
Continuous
 62
   254
100
AcDbLine
 10
6.037999999999998
 20
152.5749999999999
 30
0.0
 11
7.044999999999999
 21
152.5749999999999
 31
0.0
  0
LINE
  5
150
330
A
100
AcDbEntity
  8
PV
  6
Continuous
 62
   254
100
AcDbLine
 10
7.044999999999999
 20
152.127
 30
0.0
 11
7.044999999999999
 21
151.68
 31
0.0
  0
LINE
  5
151
330
A
100
AcDbEntity
  8
PV
  6
Continuous
 62
   254
100
AcDbLine
 10
7.044999999999999
 20
151.232
 30
0.0
 11
7.044999999999999
 21
150.7839999999999
 31
0.0
  0
LINE
  5
152
330
A
100
AcDbEntity
  8
PV
  6
Continuous
 62
   254
100
AcDbLine
 10
2.68
 20
153.0229999999999
 30
0.0
 11
2.68
 21
150.7839999999999
 31
0.0
  0
LINE
  5
153
330
A
100
AcDbEntity
  8
PV
  6
Continuous
 62
   254
100
AcDbLine
 10
3.126999999999998
 20
153.0229999999999
 30
0.0
 11
3.126999999999998
 21
152.237
 31
0.0
  0
LINE
  5
154
330
A
100
AcDbEntity
  8
PV
  6
Continuous
 62
   254
100
AcDbLine
 10
-6.722999999999998
 20
150.7839999999999
 30
0.0
 11
-7.350999999999999
 21
151.681
 31
0.0
  0
LINE
  5
155
330
A
100
AcDbEntity
  8
PV
  6
Continuous
 62
   254
100
AcDbLine
 10
-7.269999999999998
 20
150.7839999999999
 30
0.0
 11
-7.897
 21
151.68
 31
0.0
  0
LINE
  5
156
330
A
100
AcDbEntity
  8
PV
  6
Continuous
 62
   254
100
AcDbLine
 10
5.03
 20
150.7839999999999
 30
0.0
 11
4.11
 21
152.3779999999999
 31
0.0
  0
LINE
  5
157
330
A
100
AcDbEntity
  8
PV
  6
Continuous
 62
   254
100
AcDbLine
 10
5.03
 20
153.0229999999999
 30
0.0
 11
4.11
 21
152.3779999999999
 31
0.0
  0
LINE
  5
158
330
A
100
AcDbEntity
  8
PV
  6
Continuous
 62
   254
100
AcDbLine
 10
4.25
 20
153.0229999999999
 30
0.0
 11
3.126999999999998
 21
152.237
 31
0.0
  0
LINE
  5
159
330
A
100
AcDbEntity
  8
PV
  6
Continuous
 62
   254
100
AcDbLine
 10
4.512999999999999
 20
150.7839999999999
 30
0.0
 11
3.741999999999998
 21
152.121
 31
0.0
  0
LINE
  5
15A
330
A
100
AcDbEntity
  8
PV
  6
Continuous
 62
   254
100
AcDbLine
 10
3.741999999999998
 20
152.121
 30
0.0
 11
3.126999999999998
 21
151.6899999999999
 31
0.0
  0
LINE
  5
15B
330
A
100
AcDbEntity
  8
PV
  6
Continuous
 62
   254
100
AcDbLine
 10
3.126999999999998
 20
151.691
 30
0.0
 11
3.126999999999998
 21
150.7839999999999
 31
0.0
  0
LINE
  5
15C
330
A
100
AcDbEntity
  8
PV
  6
Continuous
 62
   254
100
AcDbLine
 10
4.25
 20
153.0229999999999
 30
0.0
 11
5.03
 21
153.0229999999999
 31
0.0
  0
LINE
  5
15D
330
A
100
AcDbEntity
  8
PV
  6
Continuous
 62
   254
100
AcDbLine
 10
4.512999999999999
 20
150.7839999999999
 30
0.0
 11
5.03
 21
150.7839999999999
 31
0.0
  0
LINE
  5
15E
330
A
100
AcDbEntity
  8
PV
  6
Continuous
 62
   254
100
AcDbLine
 10
14.097
 20
150.7839999999999
 30
0.0
 11
14.321
 21
150.7839999999999
 31
0.0
  0
LINE
  5
15F
330
A
100
AcDbEntity
  8
PV
  6
Continuous
 62
   254
100
AcDbLine
 10
14.097
 20
153.0229999999999
 30
0.0
 11
14.321
 21
153.0229999999999
 31
0.0
  0
LINE
  5
160
330
A
100
AcDbEntity
  8
PV
  6
Continuous
 62
   254
100
AcDbLine
 10
12.86599999999999
 20
150.787
 30
0.0
 11
12.86599999999999
 21
151.232
 31
0.0
  0
LINE
  5
161
330
A
100
AcDbEntity
  8
PV
  6
Continuous
 62
   254
100
AcDbLine
 10
14.097
 20
151.232
 30
0.0
 11
14.321
 21
151.232
 31
0.0
  0
LINE
  5
162
330
A
100
AcDbEntity
  8
PV
  6
Continuous
 62
   254
100
AcDbLine
 10
14.097
 20
152.5749999999999
 30
0.0
 11
14.321
 21
152.5749999999999
 31
0.0
  0
LINE
  5
163
330
A
100
AcDbEntity
  8
PV
  6
Continuous
 62
   254
100
AcDbLine
 10
-2.245999999999999
 20
153.0229999999999
 30
0.0
 11
-1.798
 21
153.0229999999999
 31
0.0
  0
LINE
  5
164
330
A
100
AcDbEntity
  8
PV
  6
Continuous
 62
   254
100
AcDbLine
 10
-2.245999999999999
 20
150.7839999999999
 30
0.0
 11
-1.798
 21
150.7839999999999
 31
0.0
  0
LINE
  5
165
330
A
100
AcDbEntity
  8
PV
  6
Continuous
 62
   254
100
AcDbLine
 10
-2.245999999999999
 20
153.0229999999999
 30
0.0
 11
-2.245999999999999
 21
150.7839999999999
 31
0.0
  0
LINE
  5
166
330
A
100
AcDbEntity
  8
PV
  6
Continuous
 62
   254
100
AcDbLine
 10
-1.798
 20
153.0229999999999
 30
0.0
 11
-1.798
 21
152.237
 31
0.0
  0
LINE
  5
167
330
A
100
AcDbEntity
  8
PV
  6
Continuous
 62
   254
100
AcDbLine
 10
0.105
 20
150.7839999999999
 30
0.0
 11
-0.816
 21
152.3779999999999
 31
0.0
  0
LINE
  5
168
330
A
100
AcDbEntity
  8
PV
  6
Continuous
 62
   254
100
AcDbLine
 10
0.105
 20
153.0229999999999
 30
0.0
 11
-0.816
 21
152.3779999999999
 31
0.0
  0
LINE
  5
169
330
A
100
AcDbEntity
  8
PV
  6
Continuous
 62
   254
100
AcDbLine
 10
-0.676
 20
153.0229999999999
 30
0.0
 11
-1.798
 21
152.237
 31
0.0
  0
LINE
  5
16A
330
A
100
AcDbEntity
  8
PV
  6
Continuous
 62
   254
100
AcDbLine
 10
-0.412
 20
150.7839999999999
 30
0.0
 11
-1.184
 21
152.121
 31
0.0
  0
LINE
  5
16B
330
A
100
AcDbEntity
  8
PV
  6
Continuous
 62
   254
100
AcDbLine
 10
-1.184
 20
152.121
 30
0.0
 11
-1.798
 21
151.6899999999999
 31
0.0
  0
LINE
  5
16C
330
A
100
AcDbEntity
  8
PV
  6
Continuous
 62
   254
100
AcDbLine
 10
-1.798
 20
151.691
 30
0.0
 11
-1.798
 21
150.7839999999999
 31
0.0
  0
LINE
  5
16D
330
A
100
AcDbEntity
  8
PV
  6
Continuous
 62
   254
100
AcDbLine
 10
-0.676
 20
153.0229999999999
 30
0.0
 11
0.105
 21
153.0229999999999
 31
0.0
  0
LINE
  5
16E
330
A
100
AcDbEntity
  8
PV
  6
Continuous
 62
   254
100
AcDbLine
 10
-0.412
 20
150.7839999999999
 30
0.0
 11
0.105
 21
150.7839999999999
 31
0.0
  0
LINE
  5
16F
330
A
100
AcDbEntity
  8
PV
  6
Continuous
 62
   254
100
AcDbLine
 10
-3.588999999999998
 20
153.0229999999999
 30
0.0
 11
-3.588999999999998
 21
152.5749999999999
 31
0.0
  0
LINE
  5
170
330
A
100
AcDbEntity
  8
PV
  6
Continuous
 62
   254
100
AcDbLine
 10
-4.596999999999998
 20
153.0229999999999
 30
0.0
 11
-3.588999999999998
 21
153.0229999999999
 31
0.0
  0
LINE
  5
171
330
A
100
AcDbEntity
  8
PV
  6
Continuous
 62
   254
100
AcDbLine
 10
-4.596999999999998
 20
150.7839999999999
 30
0.0
 11
-3.588999999999998
 21
150.7839999999999
 31
0.0
  0
LINE
  5
172
330
A
100
AcDbEntity
  8
PV
  6
Continuous
 62
   254
100
AcDbLine
 10
-5.23
 20
151.68
 30
0.0
 11
-3.588999999999998
 21
151.68
 31
0.0
  0
LINE
  5
173
330
A
100
AcDbEntity
  8
PV
  6
Continuous
 62
   254
100
AcDbLine
 10
-5.23
 20
152.127
 30
0.0
 11
-3.588999999999998
 21
152.127
 31
0.0
  0
LINE
  5
174
330
A
100
AcDbEntity
  8
PV
  6
Continuous
 62
   254
100
AcDbLine
 10
-4.596999999999998
 20
151.232
 30
0.0
 11
-3.588999999999998
 21
151.232
 31
0.0
  0
LINE
  5
175
330
A
100
AcDbEntity
  8
PV
  6
Continuous
 62
   254
100
AcDbLine
 10
-3.588999999999998
 20
152.127
 30
0.0
 11
-3.588999999999998
 21
151.68
 31
0.0
  0
LINE
  5
176
330
A
100
AcDbEntity
  8
PV
  6
Continuous
 62
   254
100
AcDbLine
 10
-3.588999999999998
 20
151.232
 30
0.0
 11
-3.588999999999998
 21
150.7839999999999
 31
0.0
  0
LINE
  5
177
330
A
100
AcDbEntity
  8
PV
  6
Continuous
 62
   254
100
AcDbLine
 10
11.747
 20
150.7839999999999
 30
0.0
 11
12.86599999999999
 21
150.7839999999999
 31
0.0
  0
LINE
  5
178
330
A
100
AcDbEntity
  8
PV
  6
Continuous
 62
   254
100
AcDbLine
 10
11.747
 20
153.0229999999999
 30
0.0
 11
12.86599999999999
 21
153.0229999999999
 31
0.0
  0
LINE
  5
179
330
A
100
AcDbEntity
  8
PV
  6
Continuous
 62
   254
100
AcDbLine
 10
11.747
 20
151.232
 30
0.0
 11
12.86599999999999
 21
151.232
 31
0.0
  0
LINE
  5
17A
330
A
100
AcDbEntity
  8
PV
  6
Continuous
 62
   254
100
AcDbLine
 10
11.747
 20
152.5749999999999
 30
0.0
 11
12.86599999999999
 21
152.5749999999999
 31
0.0
  0
LINE
  5
17B
330
A
100
AcDbEntity
  8
PV
  6
Continuous
 62
   254
100
AcDbLine
 10
12.86599999999999
 20
152.5749999999999
 30
0.0
 11
12.86599999999999
 21
153.0229999999999
 31
0.0
  0
LINE
  5
17C
330
A
100
AcDbEntity
  8
PV
  6
Continuous
 62
   254
100
AcDbLine
 10
17.791
 20
150.7839999999999
 30
0.0
 11
18.91099999999998
 21
150.7839999999999
 31
0.0
  0
LINE
  5
17D
330
A
100
AcDbEntity
  8
PV
  6
Continuous
 62
   254
100
AcDbLine
 10
7.383999999999998
 20
150.7839999999999
 30
0.0
 11
7.828999999999998
 21
150.7839999999999
 31
0.0
  0
LINE
  5
17E
330
A
100
AcDbEntity
  8
PV
  6
Continuous
 62
   254
100
AcDbLine
 10
8.388999999999999
 20
153.0229999999999
 30
0.0
 11
8.612
 21
153.0229999999999
 31
0.0
  0
LINE
  5
17F
330
A
100
AcDbEntity
  8
PV
  6
Continuous
 62
   254
100
AcDbLine
 10
7.381
 20
152.0159999999999
 30
0.0
 11
7.381
 21
150.7839999999999
 31
0.0
  0
LINE
  5
180
330
A
100
AcDbEntity
  8
PV
  6
Continuous
 62
   254
100
AcDbLine
 10
9.619999999999999
 20
152.0159999999999
 30
0.0
 11
9.619999999999999
 21
150.7839999999999
 31
0.0
  0
LINE
  5
181
330
A
100
AcDbEntity
  8
PV
  6
Continuous
 62
   254
100
AcDbLine
 10
8.388999999999999
 20
152.5749999999999
 30
0.0
 11
8.612
 21
152.5749999999999
 31
0.0
  0
LINE
  5
182
330
A
100
AcDbEntity
  8
PV
  6
Continuous
 62
   254
100
AcDbLine
 10
7.828999999999998
 20
152.0159999999999
 30
0.0
 11
7.828999999999998
 21
150.7839999999999
 31
0.0
  0
LINE
  5
183
330
A
100
AcDbEntity
  8
PV
  6
Continuous
 62
   254
100
AcDbLine
 10
9.172
 20
152.0159999999999
 30
0.0
 11
9.172
 21
150.7839999999999
 31
0.0
  0
LINE
  5
184
330
A
100
AcDbEntity
  8
PV
  6
Continuous
 62
   254
100
AcDbLine
 10
9.172
 20
150.7839999999999
 30
0.0
 11
9.619999999999999
 21
150.7839999999999
 31
0.0
  0
LINE
  5
185
330
A
100
AcDbEntity
  8
PV
  6
Continuous
 62
   254
100
AcDbLine
 10
1.112
 20
150.7839999999999
 30
0.0
 11
1.335999999999998
 21
150.7839999999999
 31
0.0
  0
LINE
  5
186
330
A
100
AcDbEntity
  8
PV
  6
Continuous
 62
   254
100
AcDbLine
 10
1.112
 20
153.0229999999999
 30
0.0
 11
1.335999999999998
 21
153.0229999999999
 31
0.0
  0
LINE
  5
187
330
A
100
AcDbEntity
  8
PV
  6
Continuous
 62
   254
100
AcDbLine
 10
1.112
 20
151.232
 30
0.0
 11
1.335999999999998
 21
151.232
 31
0.0
  0
LINE
  5
188
330
A
100
AcDbEntity
  8
PV
  6
Continuous
 62
   254
100
AcDbLine
 10
16.23
 20
150.4479999999998
 30
0.0
 11
16.59499999999999
 21
150.884
 31
0.0
  0
LINE
  5
189
330
A
100
AcDbEntity
  8
PV
  6
Continuous
 62
   254
100
AcDbLine
 10
16.058
 20
150.592
 30
0.0
 11
16.248
 21
150.8179999999998
 31
0.0
  0
LINE
  5
18A
330
A
100
AcDbEntity
  8
PV
  6
Continuous
 62
   254
100
AcDbLine
 10
16.058
 20
150.592
 30
0.0
 11
16.23
 21
150.4479999999998
 31
0.0
  0
LINE
  5
18B
330
A
100
AcDbEntity
  8
PV
  6
Continuous
 62
   254
100
AcDbLine
 10
16.896
 20
153.0229999999999
 30
0.0
 11
16.896
 21
151.68
 31
0.0
  0
LINE
  5
18C
330
A
100
AcDbEntity
  8
PV
  6
Continuous
 62
   254
100
AcDbLine
 10
18.91099999999998
 20
151.232
 30
0.0
 11
18.91099999999998
 21
150.7839999999999
 31
0.0
  0
LINE
  5
18D
330
A
100
AcDbEntity
  8
PV
  6
Continuous
 62
   254
100
AcDbLine
 10
17.344
 20
153.0229999999999
 30
0.0
 11
17.344
 21
151.68
 31
0.0
  0
LINE
  5
18E
330
A
100
AcDbEntity
  8
PV
  6
Continuous
 62
   254
100
AcDbLine
 10
17.791
 20
151.232
 30
0.0
 11
18.91099999999998
 21
151.232
 31
0.0
  0
LINE
  5
18F
330
A
100
AcDbEntity
  8
PV
  6
Continuous
 62
   254
100
AcDbLine
 10
21.14999999999998
 20
150.7839999999999
 30
0.0
 11
22.381
 21
150.7839999999999
 31
0.0
  0
LINE
  5
190
330
A
100
AcDbEntity
  8
PV
  6
Continuous
 62
   254
100
AcDbLine
 10
16.896
 20
153.0229999999999
 30
0.0
 11
17.344
 21
153.0229999999999
 31
0.0
  0
LINE
  5
191
330
A
100
AcDbEntity
  8
PV
  6
Continuous
 62
   254
100
AcDbLine
 10
18.687
 20
153.0229999999999
 30
0.0
 11
20.926
 21
153.0229999999999
 31
0.0
  0
LINE
  5
192
330
A
100
AcDbEntity
  8
PV
  6
Continuous
 62
   254
100
AcDbLine
 10
18.687
 20
153.0229999999999
 30
0.0
 11
18.687
 21
152.5749999999999
 31
0.0
  0
LINE
  5
193
330
A
100
AcDbEntity
  8
PV
  6
Continuous
 62
   254
100
AcDbLine
 10
20.926
 20
153.0229999999999
 30
0.0
 11
20.926
 21
152.5749999999999
 31
0.0
  0
LINE
  5
194
330
A
100
AcDbEntity
  8
PV
  6
Continuous
 62
   254
100
AcDbLine
 10
18.687
 20
152.5749999999999
 30
0.0
 11
19.58299999999998
 21
152.5749999999999
 31
0.0
  0
LINE
  5
195
330
A
100
AcDbEntity
  8
PV
  6
Continuous
 62
   254
100
AcDbLine
 10
20.03
 20
152.5749999999999
 30
0.0
 11
20.03
 21
150.7839999999999
 31
0.0
  0
LINE
  5
196
330
A
100
AcDbEntity
  8
PV
  6
Continuous
 62
   254
100
AcDbLine
 10
19.58299999999998
 20
152.5749999999999
 30
0.0
 11
19.58299999999998
 21
150.7839999999999
 31
0.0
  0
LINE
  5
197
330
A
100
AcDbEntity
  8
PV
  6
Continuous
 62
   254
100
AcDbLine
 10
21.59699999999999
 20
152.5749999999999
 30
0.0
 11
22.381
 21
152.5749999999999
 31
0.0
  0
LINE
  5
198
330
A
100
AcDbEntity
  8
PV
  6
Continuous
 62
   254
100
AcDbLine
 10
21.14999999999998
 20
153.0229999999999
 30
0.0
 11
22.381
 21
153.0229999999999
 31
0.0
  0
LINE
  5
199
330
A
100
AcDbEntity
  8
PV
  6
Continuous
 62
   254
100
AcDbLine
 10
20.03
 20
152.5749999999999
 30
0.0
 11
20.926
 21
152.5749999999999
 31
0.0
  0
LINE
  5
19A
330
A
100
AcDbEntity
  8
PV
  6
Continuous
 62
   254
100
AcDbLine
 10
19.58299999999998
 20
150.7839999999999
 30
0.0
 11
20.03
 21
150.7839999999999
 31
0.0
  0
LINE
  5
19B
330
A
100
AcDbEntity
  8
PV
  6
Continuous
 62
   254
100
AcDbLine
 10
21.14999999999998
 20
153.0229999999999
 30
0.0
 11
21.14999999999998
 21
151.9039999999999
 31
0.0
  0
LINE
  5
19C
330
A
100
AcDbEntity
  8
PV
  6
Continuous
 62
   254
100
AcDbLine
 10
21.59699999999999
 20
151.232
 30
0.0
 11
22.381
 21
151.232
 31
0.0
  0
LINE
  5
19D
330
A
100
AcDbEntity
  8
PV
  6
Continuous
 62
   254
100
AcDbLine
 10
21.59699999999999
 20
152.5749999999999
 30
0.0
 11
21.59699999999999
 21
151.9039999999999
 31
0.0
  0
LINE
  5
19E
330
A
100
AcDbEntity
  8
PV
  6
Continuous
 62
   254
100
AcDbLine
 10
-8.961999999999997
 20
152.3509999999999
 30
0.0
 11
-8.961999999999997
 21
150.7839999999999
 31
0.0
  0
LINE
  5
19F
330
A
100
AcDbEntity
  8
PV
  6
Continuous
 62
   254
100
AcDbLine
 10
-8.513999999999999
 20
152.3509999999999
 30
0.0
 11
-8.513999999999999
 21
152.127
 31
0.0
  0
LINE
  5
1A0
330
A
100
AcDbEntity
  8
PV
  6
Continuous
 62
   254
100
AcDbLine
 10
21.14999999999998
 20
151.9039999999999
 30
0.0
 11
21.14999999999998
 21
150.7839999999999
 31
0.0
  0
LINE
  5
1A1
330
A
100
AcDbEntity
  8
PV
  6
Continuous
 62
   254
100
AcDbLine
 10
21.59699999999999
 20
151.9039999999999
 30
0.0
 11
21.59699999999999
 21
151.232
 31
0.0
  0
LINE
  5
1A2
330
A
100
AcDbEntity
  8
PV
  6
Continuous
 62
   254
100
AcDbLine
 10
1.112
 20
152.5749999999999
 30
0.0
 11
1.335999999999998
 21
152.5749999999999
 31
0.0
  0
LINE
  5
1A3
330
A
100
AcDbEntity
  8
PV
  6
Continuous
 62
     7
100
AcDbLine
 10
17.475
 20
117.986
 30
0.0
 11
19.585
 21
119.1079999999999
 31
0.0
  0
LINE
  5
1A4
330
A
100
AcDbEntity
  8
PV
  6
Continuous
 62
     7
100
AcDbLine
 10
18.108
 20
117.229
 30
0.0
 11
19.585
 21
119.1079999999999
 31
0.0
  0
LINE
  5
1A5
330
A
100
AcDbEntity
  8
PV
  6
Continuous
 62
     7
100
AcDbLine
 10
-4.863999999999998
 20
117.4649999999999
 30
0.0
 11
-6.341
 21
119.344
 31
0.0
  0
LINE
  5
1A6
330
A
100
AcDbEntity
  8
PV
  6
Continuous
 62
     7
100
AcDbLine
 10
-4.230999999999998
 20
118.222
 30
0.0
 11
-6.341
 21
119.344
 31
0.0
  0
CIRCLE
  5
1A7
330
A
100
AcDbEntity
  8
PV
  6
Continuous
 62
     7
100
AcDbCircle
 10
6.742999999999998
 20
137.439
 30
0.0
 40
25.0
  0
ARC
  5
1A8
330
A
100
AcDbEntity
  8
PV
  6
Continuous
 62
     7
100
AcDbCircle
 10
2.409
 20
158.849
 30
0.0
 40
0.95
100
AcDbArc
 50
0.0
 51
180.000005
  0
ARC
  5
1A9
330
A
100
AcDbEntity
  8
PV
  6
Continuous
 62
     7
100
AcDbCircle
 10
2.409
 20
158.849
 30
0.0
 40
0.95
100
AcDbArc
 50
179.9999949999999
 51
0.0
  0
ARC
  5
1AA
330
A
100
AcDbEntity
  8
PV
  6
Continuous
 62
     7
100
AcDbCircle
 10
7.368999999999998
 20
158.024
 30
0.0
 40
1.774999999999999
100
AcDbArc
 50
90.00000300000001
 51
270.000001
  0
ARC
  5
1AB
330
A
100
AcDbEntity
  8
PV
  6
Continuous
 62
     7
100
AcDbCircle
 10
7.368999999999998
 20
158.024
 30
0.0
 40
0.975
100
AcDbArc
 50
90.00000300000001
 51
270.000001
  0
ARC
  5
1AC
330
A
100
AcDbEntity
  8
PV
  6
Continuous
 62
     7
100
AcDbCircle
 10
7.368999999999998
 20
158.024
 30
0.0
 40
0.975
100
AcDbArc
 50
269.9999969999999
 51
90.00000300000001
  0
ARC
  5
1AD
330
A
100
AcDbEntity
  8
PV
  6
Continuous
 62
     7
100
AcDbCircle
 10
10.619
 20
158.024
 30
0.0
 40
1.774999999999999
100
AcDbArc
 50
34.225552
 51
325.774451
  0
ARC
  5
1AE
330
A
100
AcDbEntity
  8
PV
  6
Continuous
 62
     7
100
AcDbCircle
 10
12.144
 20
158.024
 30
0.0
 40
1.0
100
AcDbArc
 50
90.00000300000001
 51
270.000001
  0
ARC
  5
1AF
330
A
100
AcDbEntity
  8
PV
  6
Continuous
 62
     7
100
AcDbCircle
 10
12.144
 20
158.024
 30
0.0
 40
1.0
100
AcDbArc
 50
269.9999969999999
 51
90.00000300000001
  0
ARC
  5
1B0
330
A
100
AcDbEntity
  8
PV
  6
Continuous
 62
   254
100
AcDbCircle
 10
-7.394999999999998
 20
152.3509999999999
 30
0.0
 40
0.6720000000000002
100
AcDbArc
 50
273.7218359999999
 51
359.999996
  0
ARC
  5
1B1
330
A
100
AcDbEntity
  8
PV
  6
Continuous
 62
   254
100
AcDbCircle
 10
-7.394999999999998
 20
152.3509999999999
 30
0.0
 40
0.224
100
AcDbArc
 50
270.0000109999999
 51
359.999996
  0
ARC
  5
1B2
330
A
100
AcDbEntity
  8
PV
  6
Continuous
 62
   254
100
AcDbCircle
 10
6.037999999999998
 20
151.9039999999999
 30
0.0
 40
1.118999999999998
100
AcDbArc
 50
89.999975
 51
270.000001
  0
ARC
  5
1B3
330
A
100
AcDbEntity
  8
PV
  6
Continuous
 62
   254
100
AcDbCircle
 10
6.037999999999998
 20
151.9039999999999
 30
0.0
 40
0.6720000000000002
100
AcDbArc
 50
89.999975
 51
160.528775
  0
ARC
  5
1B4
330
A
100
AcDbEntity
  8
PV
  6
Continuous
 62
   254
100
AcDbCircle
 10
6.037999999999998
 20
151.9039999999999
 30
0.0
 40
0.6720000000000002
100
AcDbArc
 50
199.471211
 51
270.0000109999999
  0
ARC
  5
1B5
330
A
100
AcDbEntity
  8
PV
  6
Continuous
 62
   254
100
AcDbCircle
 10
14.097
 20
151.9039999999999
 30
0.0
 40
1.118999999999998
100
AcDbArc
 50
89.999975
 51
179.99995
  0
ARC
  5
1B6
330
A
100
AcDbEntity
  8
PV
  6
Continuous
 62
   254
100
AcDbCircle
 10
14.321
 20
151.9039999999999
 30
0.0
 40
1.118999999999998
100
AcDbArc
 50
270.0000109999999
 51
359.999996
  0
ARC
  5
1B7
330
A
100
AcDbEntity
  8
PV
  6
Continuous
 62
   254
100
AcDbCircle
 10
14.097
 20
151.9039999999999
 30
0.0
 40
0.6720000000000002
100
AcDbArc
 50
89.999975
 51
179.99995
  0
ARC
  5
1B8
330
A
100
AcDbEntity
  8
PV
  6
Continuous
 62
   254
100
AcDbCircle
 10
14.321
 20
151.9039999999999
 30
0.0
 40
0.6720000000000002
100
AcDbArc
 50
270.0000109999999
 51
359.999996
  0
ARC
  5
1B9
330
A
100
AcDbEntity
  8
PV
  6
Continuous
 62
   254
100
AcDbCircle
 10
-4.596999999999998
 20
151.9039999999999
 30
0.0
 40
1.118999999999998
100
AcDbArc
 50
89.999975
 51
270.000001
  0
ARC
  5
1BA
330
A
100
AcDbEntity
  8
PV
  6
Continuous
 62
   254
100
AcDbCircle
 10
-4.596999999999998
 20
151.9039999999999
 30
0.0
 40
0.6720000000000002
100
AcDbArc
 50
89.999975
 51
160.528775
  0
ARC
  5
1BB
330
A
100
AcDbEntity
  8
PV
  6
Continuous
 62
   254
100
AcDbCircle
 10
-4.596999999999998
 20
151.9039999999999
 30
0.0
 40
0.6720000000000002
100
AcDbArc
 50
199.471211
 51
270.0000109999999
  0
ARC
  5
1BC
330
A
100
AcDbEntity
  8
PV
  6
Continuous
 62
   254
100
AcDbCircle
 10
8.388999999999999
 20
152.0159999999999
 30
0.0
 40
1.007
100
AcDbArc
 50
89.999975
 51
179.99995
  0
ARC
  5
1BD
330
A
100
AcDbEntity
  8
PV
  6
Continuous
 62
   254
100
AcDbCircle
 10
8.612
 20
152.0159999999999
 30
0.0
 40
1.007
100
AcDbArc
 50
359.999996
 51
89.999975
  0
ARC
  5
1BE
330
A
100
AcDbEntity
  8
PV
  6
Continuous
 62
   254
100
AcDbCircle
 10
8.388999999999999
 20
152.0159999999999
 30
0.0
 40
0.5600000000000001
100
AcDbArc
 50
89.999975
 51
179.99995
  0
ARC
  5
1BF
330
A
100
AcDbEntity
  8
PV
  6
Continuous
 62
   254
100
AcDbCircle
 10
8.612
 20
152.0159999999999
 30
0.0
 40
0.5600000000000001
100
AcDbArc
 50
359.999996
 51
89.999975
  0
ARC
  5
1C0
330
A
100
AcDbEntity
  8
PV
  6
Continuous
 62
   254
100
AcDbCircle
 10
1.112
 20
151.9039999999999
 30
0.0
 40
1.118999999999998
100
AcDbArc
 50
89.999975
 51
179.99995
  0
ARC
  5
1C1
330
A
100
AcDbEntity
  8
PV
  6
Continuous
 62
   254
100
AcDbCircle
 10
1.335999999999998
 20
151.9039999999999
 30
0.0
 40
1.118999999999998
100
AcDbArc
 50
270.0000109999999
 51
359.999996
  0
ARC
  5
1C2
330
A
100
AcDbEntity
  8
PV
  6
Continuous
 62
   254
100
AcDbCircle
 10
1.112
 20
151.9039999999999
 30
0.0
 40
0.6720000000000002
100
AcDbArc
 50
89.999975
 51
179.99995
  0
ARC
  5
1C3
330
A
100
AcDbEntity
  8
PV
  6
Continuous
 62
   254
100
AcDbCircle
 10
1.335999999999998
 20
151.9039999999999
 30
0.0
 40
0.6720000000000002
100
AcDbArc
 50
270.0000109999999
 51
359.999996
  0
ARC
  5
1C4
330
A
100
AcDbEntity
  8
PV
  6
Continuous
 62
   254
100
AcDbCircle
 10
16.381
 20
151.0639999999999
 30
0.0
 40
0.28
100
AcDbArc
 50
319.9999189999998
 51
241.536827
  0
CIRCLE
  5
1C5
330
A
100
AcDbEntity
  8
PV
  6
Continuous
 62
   254
100
AcDbCircle
 10
15.665
 20
151.0639999999999
 30
0.0
 40
0.28
  0
ARC
  5
1C6
330
A
100
AcDbEntity
  8
PV
  6
Continuous
 62
   254
100
AcDbCircle
 10
17.791
 20
151.68
 30
0.0
 40
0.8959999999999999
100
AcDbArc
 50
179.999978
 51
270.000001
  0
ARC
  5
1C7
330
A
100
AcDbEntity
  8
PV
  6
Continuous
 62
   254
100
AcDbCircle
 10
17.791
 20
151.68
 30
0.0
 40
0.448
100
AcDbArc
 50
179.999978
 51
270.000001
  0
ARC
  5
1C8
330
A
100
AcDbEntity
  8
PV
  6
Continuous
 62
   254
100
AcDbCircle
 10
22.381
 20
151.9039999999999
 30
0.0
 40
1.118999999999998
100
AcDbArc
 50
270.0000109999999
 51
359.999996
  0
ARC
  5
1C9
330
A
100
AcDbEntity
  8
PV
  6
Continuous
 62
   254
100
AcDbCircle
 10
22.381
 20
151.9039999999999
 30
0.0
 40
0.6720000000000002
100
AcDbArc
 50
270.0000109999999
 51
359.999996
  0
ARC
  5
1CA
330
A
100
AcDbEntity
  8
PV
  6
Continuous
 62
   254
100
AcDbCircle
 10
11.747
 20
151.9039999999999
 30
0.0
 40
1.118999999999998
100
AcDbArc
 50
89.999975
 51
270.000001
  0
ARC
  5
1CB
330
A
100
AcDbEntity
  8
PV
  6
Continuous
 62
   254
100
AcDbCircle
 10
11.747
 20
151.9039999999999
 30
0.0
 40
0.6720000000000002
100
AcDbArc
 50
89.999975
 51
270.000001
  0
ARC
  5
1CC
330
A
100
AcDbEntity
  8
PV
  6
Continuous
 62
   254
100
AcDbCircle
 10
-7.394999999999998
 20
152.3509999999999
 30
0.0
 40
0.224
100
AcDbArc
 50
359.999996
 51
89.999975
  0
ARC
  5
1CD
330
A
100
AcDbEntity
  8
PV
  6
Continuous
 62
   254
100
AcDbCircle
 10
-7.394999999999998
 20
152.3509999999999
 30
0.0
 40
0.6720000000000002
100
AcDbArc
 50
359.999996
 51
89.999975
  0
ARC
  5
1CE
330
A
100
AcDbEntity
  8
PV
  6
Continuous
 62
   254
100
AcDbCircle
 10
1.335999999999998
 20
151.9039999999999
 30
0.0
 40
1.118999999999998
100
AcDbArc
 50
359.999996
 51
89.999975
  0
ARC
  5
1CF
330
A
100
AcDbEntity
  8
PV
  6
Continuous
 62
   254
100
AcDbCircle
 10
1.335999999999998
 20
151.9039999999999
 30
0.0
 40
0.6720000000000002
100
AcDbArc
 50
359.999996
 51
89.999975
  0
ARC
  5
1D0
330
A
100
AcDbEntity
  8
PV
  6
Continuous
 62
   254
100
AcDbCircle
 10
1.112
 20
151.9039999999999
 30
0.0
 40
0.6720000000000002
100
AcDbArc
 50
179.999978
 51
270.000001
  0
ARC
  5
1D1
330
A
100
AcDbEntity
  8
PV
  6
Continuous
 62
   254
100
AcDbCircle
 10
1.112
 20
151.9039999999999
 30
0.0
 40
1.118999999999998
100
AcDbArc
 50
179.999978
 51
270.000001
  0
ARC
  5
1D2
330
A
100
AcDbEntity
  8
PV
  6
Continuous
 62
   254
100
AcDbCircle
 10
14.097
 20
151.9039999999999
 30
0.0
 40
1.118999999999998
100
AcDbArc
 50
179.999978
 51
270.000001
  0
ARC
  5
1D3
330
A
100
AcDbEntity
  8
PV
  6
Continuous
 62
   254
100
AcDbCircle
 10
14.097
 20
151.9039999999999
 30
0.0
 40
0.6720000000000002
100
AcDbArc
 50
179.999978
 51
270.000001
  0
ARC
  5
1D4
330
A
100
AcDbEntity
  8
PV
  6
Continuous
 62
   254
100
AcDbCircle
 10
14.321
 20
151.9039999999999
 30
0.0
 40
0.6720000000000002
100
AcDbArc
 50
359.999996
 51
89.999975
  0
ARC
  5
1D5
330
A
100
AcDbEntity
  8
PV
  6
Continuous
 62
   254
100
AcDbCircle
 10
14.321
 20
151.9039999999999
 30
0.0
 40
1.118999999999998
100
AcDbArc
 50
359.999996
 51
89.999975
  0
ARC
  5
1D6
330
A
100
AcDbEntity
  8
PV
  6
Continuous
 62
   254
100
AcDbCircle
 10
22.381
 20
151.9039999999999
 30
0.0
 40
0.6720000000000002
100
AcDbArc
 50
359.999996
 51
90.00003000000003
  0
ARC
  5
1D7
330
A
100
AcDbEntity
  8
PV
  6
Continuous
 62
   254
100
AcDbCircle
 10
22.381
 20
151.9039999999999
 30
0.0
 40
1.118999999999998
100
AcDbArc
 50
359.999996
 51
90.00003000000003
  0
ARC
  5
1D8
330
A
100
AcDbEntity
  8
PV
  6
Continuous
 62
     7
100
AcDbCircle
 10
5.125
 20
132.2319999999999
 30
0.0
 40
17.25
100
AcDbArc
 50
228.339771
 51
242.636245
  0
ARC
  5
1D9
330
A
100
AcDbEntity
  8
PV
  6
Continuous
 62
     7
100
AcDbCircle
 10
8.118999999999997
 20
131.995
 30
0.0
 40
17.25
100
AcDbArc
 50
298.4734849999998
 51
311.660234
  0
LWPOLYLINE
  5
1DA
330
A
100
AcDbEntity
  8
PV
  6
Continuous
 62
     7
100
AcDbPolyline
 90
      113
 70
     0
 43
0.0
 10
-4.817
 20
143.3149999999999
 10
-4.888999999999998
 20
143.3249999999999
 10
-4.959999999999999
 20
143.3319999999999
 10
-5.032
 20
143.336
 10
-5.105
 20
143.336
 10
-5.177
 20
143.3319999999999
 10
-5.248999999999998
 20
143.3249999999999
 10
-5.321
 20
143.3139999999999
 10
-5.392999999999998
 20
143.3
 10
-5.463999999999998
 20
143.282
 10
-5.535
 20
143.2599999999998
 10
-5.605
 20
143.235
 10
-5.673999999999998
 20
143.2069999999999
 10
-5.742
 20
143.175
 10
-5.809
 20
143.1409999999999
 10
-5.875
 20
143.102
 10
-5.939
 20
143.061
 10
-6.002
 20
143.0169999999999
 10
-6.062999999999998
 20
142.9689999999999
 10
-6.122999999999998
 20
142.919
 10
-6.179999999999998
 20
142.866
 10
-6.236
 20
142.81
 10
-6.288999999999998
 20
142.751
 10
-6.341
 20
142.69
 10
-6.389999999999998
 20
142.627
 10
-6.435999999999999
 20
142.562
 10
-6.480999999999998
 20
142.494
 10
-6.522
 20
142.424
 10
-6.560999999999999
 20
142.3529999999999
 10
-6.597999999999998
 20
142.2789999999999
 10
-6.632
 20
142.204
 10
-6.662
 20
142.1279999999998
 10
-6.69
 20
142.051
 10
-6.714999999999998
 20
141.972
 10
-6.737
 20
141.8919999999999
 10
-6.756
 20
141.811
 10
-6.772
 20
141.73
 10
-6.785
 20
141.6479999999999
 10
-6.794999999999999
 20
141.566
 10
-6.801
 20
141.483
 10
-6.804999999999998
 20
141.401
 10
-6.804999999999998
 20
141.3179999999998
 10
-6.802
 20
141.2359999999999
 10
-6.796
 20
141.154
 10
-6.787
 20
141.0729999999998
 10
-6.775
 20
140.992
 10
-6.759999999999998
 20
140.912
 10
-6.741
 20
140.834
 10
-6.719999999999998
 20
140.7559999999999
 10
-6.695
 20
140.68
 10
-6.667999999999998
 20
140.605
 10
-6.637
 20
140.532
 10
-6.604
 20
140.46
 10
-6.567999999999998
 20
140.3909999999999
 10
-6.53
 20
140.3229999999998
 10
-6.487999999999998
 20
140.257
 10
-6.445
 20
140.1939999999999
 10
-6.397999999999998
 20
140.1329999999999
 10
-6.349999999999998
 20
140.0749999999999
 10
-6.298999999999998
 20
140.019
 10
-6.246
 20
139.966
 10
-6.19
 20
139.9159999999999
 10
-6.132999999999999
 20
139.8689999999999
 10
-6.073999999999998
 20
139.8239999999999
 10
-6.012999999999999
 20
139.7829999999999
 10
-5.951
 20
139.745
 10
-5.887
 20
139.71
 10
-5.821
 20
139.6789999999999
 10
-5.753999999999998
 20
139.65
 10
-5.687
 20
139.626
 10
-5.617999999999998
 20
139.6039999999999
 10
-5.547999999999999
 20
139.587
 10
-5.477
 20
139.572
 10
-5.406
 20
139.562
 10
-5.333999999999998
 20
139.554
 10
-5.262
 20
139.551
 10
-5.19
 20
139.551
 10
-5.118
 20
139.555
 10
-5.046
 20
139.562
 10
-4.972999999999998
 20
139.5729999999999
 10
-4.902
 20
139.587
 10
-4.83
 20
139.605
 10
-4.759999999999998
 20
139.627
 10
-4.69
 20
139.651
 10
-4.621
 20
139.68
 10
-4.552999999999999
 20
139.711
 10
-4.486
 20
139.746
 10
-4.419999999999999
 20
139.785
 10
-4.355999999999998
 20
139.826
 10
-4.293
 20
139.87
 10
-4.232
 20
139.918
 10
-4.171999999999998
 20
139.9679999999999
 10
-4.115
 20
140.021
 10
-4.059
 20
140.077
 10
-4.006
 20
140.1349999999998
 10
-3.953999999999998
 20
140.196
 10
-3.904999999999999
 20
140.2599999999999
 10
-3.858
 20
140.3249999999998
 10
-3.813999999999998
 20
140.393
 10
-3.771999999999998
 20
140.463
 10
-3.733
 20
140.5339999999999
 10
-3.697
 20
140.608
 10
-3.663
 20
140.682
 10
-3.631999999999998
 20
140.7589999999999
 10
-3.603999999999998
 20
140.836
 10
-3.578999999999998
 20
140.9149999999999
 10
-3.556999999999998
 20
140.995
 10
-3.538
 20
141.0759999999999
 10
-3.521999999999998
 20
141.157
 10
-3.509999999999998
 20
141.239
 10
-3.5
 20
141.321
 10
-3.493
 20
141.4039999999999
 10
-3.491
 20
141.4429999999998
  0
LWPOLYLINE
  5
1DB
330
A
100
AcDbEntity
  8
PV
  6
Continuous
 62
     7
100
AcDbPolyline
 90
       26
 70
     0
 43
0.0
 10
-3.573999999999998
 20
142.1279999999998
 10
-3.575
 20
142.131
 10
-3.6
 20
142.2069999999999
 10
-3.626999999999998
 20
142.282
 10
-3.657
 20
142.3549999999998
 10
-3.691
 20
142.427
 10
-3.726
 20
142.496
 10
-3.765
 20
142.564
 10
-3.806
 20
142.6289999999999
 10
-3.85
 20
142.6929999999998
 10
-3.896
 20
142.7529999999999
 10
-3.944999999999998
 20
142.812
 10
-3.996
 20
142.8679999999999
 10
-4.048999999999998
 20
142.9209999999999
 10
-4.104
 20
142.971
 10
-4.161999999999999
 20
143.018
 10
-4.221
 20
143.062
 10
-4.282
 20
143.1039999999998
 10
-4.343999999999998
 20
143.1419999999999
 10
-4.408
 20
143.177
 10
-4.474
 20
143.208
 10
-4.54
 20
143.2359999999999
 10
-4.608
 20
143.2609999999999
 10
-4.676999999999998
 20
143.282
 10
-4.746999999999998
 20
143.3
 10
-4.817
 20
143.3149999999999
  0
LWPOLYLINE
  5
1DC
330
A
100
AcDbEntity
  8
PV
  6
Continuous
 62
     7
100
AcDbPolyline
 90
       94
 70
     0
 43
0.0
 10
26.705
 20
140.289
 10
26.707
 20
140.2839999999999
 10
26.721
 20
140.239
 10
26.738
 20
140.1939999999999
 10
26.756
 20
140.15
 10
26.77699999999999
 20
140.1069999999999
 10
26.79899999999999
 20
140.0649999999999
 10
26.82199999999999
 20
140.0239999999999
 10
26.848
 20
139.984
 10
26.875
 20
139.9459999999999
 10
26.904
 20
139.9079999999998
 10
26.934
 20
139.872
 10
26.966
 20
139.837
 10
26.999
 20
139.8039999999999
 10
27.033
 20
139.7729999999999
 10
27.069
 20
139.7429999999999
 10
27.10599999999999
 20
139.714
 10
27.144
 20
139.6879999999999
 10
27.183
 20
139.6629999999998
 10
27.223
 20
139.6399999999998
 10
27.26399999999999
 20
139.6179999999999
 10
27.30599999999999
 20
139.5989999999999
 10
27.349
 20
139.582
 10
27.392
 20
139.566
 10
27.436
 20
139.5529999999999
 10
27.48099999999999
 20
139.541
 10
27.526
 20
139.532
 10
27.57099999999999
 20
139.525
 10
27.616
 20
139.519
 10
27.66199999999999
 20
139.5159999999999
 10
27.708
 20
139.5149999999999
 10
27.754
 20
139.5159999999999
 10
27.799
 20
139.519
 10
27.84499999999999
 20
139.525
 10
27.89
 20
139.532
 10
27.93499999999999
 20
139.541
 10
27.98
 20
139.5529999999999
 10
28.024
 20
139.566
 10
28.06699999999999
 20
139.582
 10
28.10999999999999
 20
139.5989999999999
 10
28.15199999999999
 20
139.6179999999999
 10
28.193
 20
139.6399999999998
 10
28.233
 20
139.6629999999998
 10
28.27199999999999
 20
139.6879999999999
 10
28.30999999999999
 20
139.714
 10
28.34699999999999
 20
139.7429999999999
 10
28.383
 20
139.7729999999999
 10
28.41699999999999
 20
139.8039999999999
 10
28.45
 20
139.837
 10
28.482
 20
139.872
 10
28.512
 20
139.9079999999998
 10
28.541
 20
139.9459999999999
 10
28.568
 20
139.984
 10
28.594
 20
140.0239999999999
 10
28.61699999999999
 20
140.0649999999999
 10
28.639
 20
140.1069999999999
 10
28.66
 20
140.15
 10
28.678
 20
140.1939999999999
 10
28.695
 20
140.239
 10
28.709
 20
140.2839999999999
 10
28.72199999999999
 20
140.331
 10
28.733
 20
140.377
 10
28.742
 20
140.424
 10
28.749
 20
140.472
 10
28.754
 20
140.519
 10
28.757
 20
140.567
 10
28.758
 20
140.615
 10
28.757
 20
140.6629999999998
 10
28.754
 20
140.711
 10
28.749
 20
140.7589999999999
 10
28.742
 20
140.806
 10
28.733
 20
140.8529999999998
 10
28.72199999999999
 20
140.8999999999998
 10
28.709
 20
140.9459999999999
 10
28.695
 20
140.991
 10
28.678
 20
141.036
 10
28.66
 20
141.08
 10
28.639
 20
141.1229999999999
 10
28.61699999999999
 20
141.1649999999999
 10
28.594
 20
141.206
 10
28.568
 20
141.246
 10
28.541
 20
141.2849999999999
 10
28.512
 20
141.322
 10
28.482
 20
141.358
 10
28.45
 20
141.393
 10
28.41699999999999
 20
141.426
 10
28.383
 20
141.4579999999999
 10
28.34699999999999
 20
141.4879999999999
 10
28.30999999999999
 20
141.516
 10
28.27199999999999
 20
141.543
 10
28.233
 20
141.5679999999998
 10
28.193
 20
141.591
 10
28.15199999999999
 20
141.612
 10
28.124
 20
141.6249999999999
  0
LWPOLYLINE
  5
1DD
330
A
100
AcDbEntity
  8
PV
  6
Continuous
 62
     7
100
AcDbPolyline
 90
       94
 70
     0
 43
0.0
 10
29.111
 20
142.639
 10
29.109
 20
142.643
 10
29.09499999999999
 20
142.689
 10
29.078
 20
142.7329999999999
 10
29.06
 20
142.777
 10
29.039
 20
142.8199999999999
 10
29.01699999999999
 20
142.862
 10
28.99399999999999
 20
142.903
 10
28.968
 20
142.9429999999999
 10
28.94099999999999
 20
142.982
 10
28.91199999999999
 20
143.02
 10
28.88199999999999
 20
143.056
 10
28.85
 20
143.09
 10
28.817
 20
143.123
 10
28.783
 20
143.155
 10
28.747
 20
143.185
 10
28.71
 20
143.2139999999999
 10
28.672
 20
143.24
 10
28.633
 20
143.2649999999999
 10
28.593
 20
143.2879999999999
 10
28.55199999999999
 20
143.3089999999999
 10
28.51
 20
143.329
 10
28.467
 20
143.346
 10
28.42399999999999
 20
143.3619999999999
 10
28.38
 20
143.375
 10
28.335
 20
143.3859999999999
 10
28.29
 20
143.396
 10
28.245
 20
143.4029999999999
 10
28.199
 20
143.4079999999999
 10
28.154
 20
143.4109999999999
 10
28.108
 20
143.412
 10
28.062
 20
143.4109999999999
 10
28.016
 20
143.4079999999999
 10
27.971
 20
143.4029999999999
 10
27.926
 20
143.396
 10
27.881
 20
143.3859999999999
 10
27.83599999999999
 20
143.375
 10
27.79199999999999
 20
143.3619999999999
 10
27.749
 20
143.346
 10
27.70599999999999
 20
143.329
 10
27.664
 20
143.3089999999999
 10
27.623
 20
143.2879999999999
 10
27.583
 20
143.2649999999999
 10
27.544
 20
143.24
 10
27.506
 20
143.2139999999999
 10
27.469
 20
143.185
 10
27.433
 20
143.155
 10
27.399
 20
143.123
 10
27.366
 20
143.09
 10
27.334
 20
143.056
 10
27.304
 20
143.02
 10
27.275
 20
142.982
 10
27.248
 20
142.9429999999999
 10
27.22199999999999
 20
142.903
 10
27.199
 20
142.862
 10
27.177
 20
142.8199999999999
 10
27.156
 20
142.777
 10
27.138
 20
142.7329999999999
 10
27.12099999999999
 20
142.689
 10
27.107
 20
142.643
 10
27.094
 20
142.597
 10
27.083
 20
142.551
 10
27.074
 20
142.5029999999999
 10
27.06699999999999
 20
142.456
 10
27.06199999999999
 20
142.4079999999999
 10
27.059
 20
142.36
 10
27.058
 20
142.312
 10
27.059
 20
142.264
 10
27.06199999999999
 20
142.217
 10
27.06699999999999
 20
142.1689999999999
 10
27.074
 20
142.121
 10
27.083
 20
142.0739999999999
 10
27.094
 20
142.0279999999999
 10
27.107
 20
141.982
 10
27.12099999999999
 20
141.936
 10
27.138
 20
141.8909999999999
 10
27.156
 20
141.8479999999999
 10
27.177
 20
141.805
 10
27.199
 20
141.762
 10
27.22199999999999
 20
141.721
 10
27.248
 20
141.682
 10
27.275
 20
141.643
 10
27.304
 20
141.605
 10
27.334
 20
141.5689999999998
 10
27.366
 20
141.5349999999999
 10
27.399
 20
141.501
 10
27.433
 20
141.47
 10
27.469
 20
141.44
 10
27.506
 20
141.4109999999999
 10
27.544
 20
141.3849999999999
 10
27.583
 20
141.36
 10
27.623
 20
141.337
 10
27.664
 20
141.3159999999999
 10
27.69199999999999
 20
141.302
  0
MTEXT
  5
1DE
330
A
100
AcDbEntity
  8
PV
  6
Continuous
 62
     7
100
AcDbMText
 10
6.746
 20
130.2259999999999
 30
0.0
 40
2.0
 41
0.0
 71
     2
 72
     1
  1
\W0.925;\A1;HIGH VACUUM VALVES
 73
     1
 44
1.0
  0
MTEXT
  5
1DF
330
A
100
AcDbEntity
  8
PV
  6
Continuous
 62
     7
100
AcDbMText
 10
6.684
 20
125.164
 30
0.0
 40
2.0
 41
0.0
 71
     2
 72
     1
  1
\W0.930;\A1;METAL BELLOWS
 73
     1
 44
1.0
  0
MTEXT
  5
1E0
330
A
100
AcDbEntity
  8
PV
  6
Continuous
 62
     7
100
AcDbMText
 10
9.596097999999999
 20
115.664179
 30
0.0
 40
1.5
 41
0.0
 71
     2
 72
     1
  1
\W1.048;\A1;O
 11
0.9935718815697164
 21
0.113202986506601
 31
0.0
 73
     1
 44
1.0
  0
MTEXT
  5
1E1
330
A
100
AcDbEntity
  8
PV
  6
Continuous
 62
     7
100
AcDbMText
 10
11.017474
 20
115.888944
 30
0.0
 40
1.5
 41
0.0
 71
     2
 72
     1
  1
\A1;P
 11
0.9799247035488139
 21
0.1993679396863229
 31
0.0
 73
     1
 44
1.0
  0
MTEXT
  5
1E2
330
A
100
AcDbEntity
  8
PV
  6
Continuous
 62
     7
100
AcDbMText
 10
12.413989
 20
116.237115
 30
0.0
 40
1.5
 41
0.0
 71
     2
 72
     1
  1
\W0.905;\A1;E
 11
0.9588198501244839
 21
0.2840149556049157
 31
0.0
 73
     1
 44
1.0
  0
MTEXT
  5
1E3
330
A
100
AcDbEntity
  8
PV
  6
Continuous
 62
     7
100
AcDbMText
 10
-1.43398
 20
117.1804709999999
 30
0.0
 40
1.5
 41
0.0
 71
     2
 72
     1
  1
\A1;C
 11
0.9099613158612768
 21
-0.4146931439462357
 31
0.0
 73
     1
 44
1.0
  0
MTEXT
  5
1E4
330
A
100
AcDbEntity
  8
PV
  6
Continuous
 62
     7
100
AcDbMText
 10
-0.098645
 20
116.640981
 30
0.0
 40
1.5
 41
0.0
 71
     2
 72
     1
  1
\W0.810;\A1;L
 11
0.9426413920776289
 21
-0.3338071388421013
 31
0.0
 73
     1
 44
1.0
  0
MTEXT
  5
1E5
330
A
100
AcDbEntity
  8
PV
  6
Continuous
 62
     7
100
AcDbMText
 10
1.277784999999999
 20
116.220111
 30
0.0
 40
1.5
 41
0.0
 71
     2
 72
     1
  1
\W1.048;\A1;O
 11
0.9681476639056606
 21
-0.2503799130801276
 31
0.0
 73
     1
 44
1.0
  0
MTEXT
  5
1E6
330
A
100
AcDbEntity
  8
PV
  6
Continuous
 62
     7
100
AcDbMText
 10
2.685786
 20
115.9207139999999
 30
0.0
 40
1.5
 41
0.0
 71
     2
 72
     1
  1
\W0.952;\A1;S
 11
0.9862855482320082
 21
-0.1650479243998155
 31
0.0
 73
     1
 44
1.0
  0
MTEXT
  5
1E7
330
A
100
AcDbEntity
  8
PV
  6
Continuous
 62
     7
100
AcDbMText
 10
4.113844
 20
115.7456879999999
 30
0.0
 40
1.5
 41
0.0
 71
     2
 72
     1
  1
\W0.905;\A1;E
 11
0.9969173391662904
 21
-0.0784590266929423
 31
0.0
 73
     1
 44
1.0
  0
MTEXT
  5
1E8
330
A
100
AcDbEntity
  8
PV
  6
Continuous
 62
     7
100
AcDbMText
 10
13.775124
 20
116.705813
 30
0.0
 40
1.5
 41
0.0
 71
     2
 72
     1
  1
\W1.048;\A1;N
 11
0.9304177033247324
 21
0.3665008831366308
 31
0.0
 73
     1
 44
1.0
  0
SOLID
  5
1E9
330
A
100
AcDbEntity
  8
PV
  6
Continuous
 62
     7
100
AcDbTrace
 10
4.043999999999998
 20
156.2489999999999
 30
0.0
 11
5.593999999999998
 21
156.2489999999999
 31
0.0
 12
4.043999999999998
 22
159.799
 32
0.0
 13
5.593999999999998
 23
159.799
 33
0.0
  0
SOLID
  5
1EA
330
A
100
AcDbEntity
  8
PV
  6
Continuous
 62
     7
100
AcDbTrace
 10
-9.857999999999996
 20
150.7839999999999
 30
0.0
 11
-9.41
 21
150.7839999999999
 31
0.0
 12
-9.857999999999996
 22
153.0229999999999
 32
0.0
 13
-9.41
 23
153.0229999999999
 33
0.0
  0
SOLID
  5
1EB
330
A
100
AcDbEntity
  8
PV
  6
Continuous
 62
     7
100
AcDbTrace
 10
-6.387999999999999
 20
150.7839999999999
 30
0.0
 11
-5.94
 21
150.7839999999999
 31
0.0
 12
-6.387999999999999
 22
153.0229999999999
 32
0.0
 13
-5.94
 23
153.0229999999999
 33
0.0
  0
LINE
  5
1EC
330
A
100
AcDbEntity
  8
PV
  6
Continuous
 62
     7
100
AcDbLine
 10
-32.25699999999999
 20
182.83
 30
0.0
 11
-36.257
 21
185.139
 31
0.0
  0
LINE
  5
1ED
330
A
100
AcDbEntity
  8
PV
  6
Continuous
 62
     7
100
AcDbLine
 10
-36.257
 20
175.739
 30
0.0
 11
-32.25699999999999
 21
178.049
 31
0.0
  0
LINE
  5
1EE
330
A
100
AcDbEntity
  8
PV
  6
Continuous
 62
     7
100
AcDbLine
 10
-32.25699999999999
 20
182.83
 30
0.0
 11
-32.25699999999999
 21
178.049
 31
0.0
  0
LINE
  5
1EF
330
A
100
AcDbEntity
  8
PV
  6
Continuous
 62
     7
100
AcDbLine
 10
-40.25699999999999
 20
182.83
 30
0.0
 11
-40.25699999999999
 21
178.049
 31
0.0
  0
LINE
  5
1F0
330
A
100
AcDbEntity
  8
PV
  6
Continuous
 62
     7
100
AcDbLine
 10
-36.257
 20
185.139
 30
0.0
 11
-40.25699999999999
 21
182.83
 31
0.0
  0
LINE
  5
1F1
330
A
100
AcDbEntity
  8
PV
  6
Continuous
 62
     7
100
AcDbLine
 10
-40.25699999999999
 20
178.049
 30
0.0
 11
-36.257
 21
175.739
 31
0.0
  0
CIRCLE
  5
1F2
330
A
100
AcDbEntity
  8
PV
  6
Continuous
 62
     7
100
AcDbCircle
 10
-36.257
 20
180.439
 30
0.0
 40
8.0
  0
CIRCLE
  5
1F3
330
A
100
AcDbEntity
  8
PV
  6
Continuous
 62
     7
100
AcDbCircle
 10
-36.257
 20
180.439
 30
0.0
 40
6.961
  0
LINE
  5
1F4
330
A
100
AcDbEntity
  8
PV
  6
Continuous
 62
     7
100
AcDbLine
 10
45.743
 20
96.82999999999999
 30
0.0
 11
49.743
 21
99.13899999999999
 31
0.0
  0
LINE
  5
1F5
330
A
100
AcDbEntity
  8
PV
  6
Continuous
 62
     7
100
AcDbLine
 10
49.743
 20
89.73899999999998
 30
0.0
 11
45.743
 21
92.049
 31
0.0
  0
LINE
  5
1F6
330
A
100
AcDbEntity
  8
PV
  6
Continuous
 62
     7
100
AcDbLine
 10
45.743
 20
96.82999999999999
 30
0.0
 11
45.743
 21
92.049
 31
0.0
  0
LINE
  5
1F7
330
A
100
AcDbEntity
  8
PV
  6
Continuous
 62
     7
100
AcDbLine
 10
53.743
 20
96.82999999999999
 30
0.0
 11
53.743
 21
92.049
 31
0.0
  0
LINE
  5
1F8
330
A
100
AcDbEntity
  8
PV
  6
Continuous
 62
     7
100
AcDbLine
 10
49.743
 20
99.13899999999999
 30
0.0
 11
53.743
 21
96.82999999999999
 31
0.0
  0
LINE
  5
1F9
330
A
100
AcDbEntity
  8
PV
  6
Continuous
 62
     7
100
AcDbLine
 10
53.743
 20
92.049
 30
0.0
 11
49.743
 21
89.73899999999998
 31
0.0
  0
CIRCLE
  5
1FA
330
A
100
AcDbEntity
  8
PV
  6
Continuous
 62
     7
100
AcDbCircle
 10
49.743
 20
94.43899999999999
 30
0.0
 40
8.0
  0
CIRCLE
  5
1FB
330
A
100
AcDbEntity
  8
PV
  6
Continuous
 62
     7
100
AcDbCircle
 10
49.743
 20
94.43899999999999
 30
0.0
 40
6.961
  0
LINE
  5
1FC
330
A
100
AcDbEntity
  8
PV
  6
Continuous
 62
     7
100
AcDbLine
 10
53.743
 20
182.83
 30
0.0
 11
49.743
 21
185.139
 31
0.0
  0
LINE
  5
1FD
330
A
100
AcDbEntity
  8
PV
  6
Continuous
 62
     7
100
AcDbLine
 10
49.743
 20
175.739
 30
0.0
 11
53.743
 21
178.049
 31
0.0
  0
LINE
  5
1FE
330
A
100
AcDbEntity
  8
PV
  6
Continuous
 62
     7
100
AcDbLine
 10
53.743
 20
182.83
 30
0.0
 11
53.743
 21
178.049
 31
0.0
  0
LINE
  5
1FF
330
A
100
AcDbEntity
  8
PV
  6
Continuous
 62
     7
100
AcDbLine
 10
45.743
 20
182.83
 30
0.0
 11
45.743
 21
178.049
 31
0.0
  0
LINE
  5
200
330
A
100
AcDbEntity
  8
PV
  6
Continuous
 62
     7
100
AcDbLine
 10
49.743
 20
185.139
 30
0.0
 11
45.743
 21
182.83
 31
0.0
  0
LINE
  5
201
330
A
100
AcDbEntity
  8
PV
  6
Continuous
 62
     7
100
AcDbLine
 10
45.743
 20
178.049
 30
0.0
 11
49.743
 21
175.739
 31
0.0
  0
CIRCLE
  5
202
330
A
100
AcDbEntity
  8
PV
  6
Continuous
 62
     7
100
AcDbCircle
 10
49.743
 20
180.439
 30
0.0
 40
8.0
  0
CIRCLE
  5
203
330
A
100
AcDbEntity
  8
PV
  6
Continuous
 62
     7
100
AcDbCircle
 10
49.743
 20
180.439
 30
0.0
 40
6.961
  0
LINE
  5
204
330
A
100
AcDbEntity
  8
PV
  6
Continuous
 62
     7
100
AcDbLine
 10
-32.25699999999999
 20
96.82999999999999
 30
0.0
 11
-36.257
 21
99.13899999999999
 31
0.0
  0
LINE
  5
205
330
A
100
AcDbEntity
  8
PV
  6
Continuous
 62
     7
100
AcDbLine
 10
-36.257
 20
89.73899999999998
 30
0.0
 11
-32.25699999999999
 21
92.049
 31
0.0
  0
LINE
  5
206
330
A
100
AcDbEntity
  8
PV
  6
Continuous
 62
     7
100
AcDbLine
 10
-32.25699999999999
 20
96.82999999999999
 30
0.0
 11
-32.25699999999999
 21
92.049
 31
0.0
  0
LINE
  5
207
330
A
100
AcDbEntity
  8
PV
  6
Continuous
 62
     7
100
AcDbLine
 10
-40.25699999999999
 20
96.82999999999999
 30
0.0
 11
-40.25699999999999
 21
92.049
 31
0.0
  0
LINE
  5
208
330
A
100
AcDbEntity
  8
PV
  6
Continuous
 62
     7
100
AcDbLine
 10
-36.257
 20
99.13899999999999
 30
0.0
 11
-40.25699999999999
 21
96.82999999999999
 31
0.0
  0
LINE
  5
209
330
A
100
AcDbEntity
  8
PV
  6
Continuous
 62
     7
100
AcDbLine
 10
-40.25699999999999
 20
92.049
 30
0.0
 11
-36.257
 21
89.73899999999998
 31
0.0
  0
CIRCLE
  5
20A
330
A
100
AcDbEntity
  8
PV
  6
Continuous
 62
     7
100
AcDbCircle
 10
-36.257
 20
94.43899999999999
 30
0.0
 40
8.0
  0
CIRCLE
  5
20B
330
A
100
AcDbEntity
  8
PV
  6
Continuous
 62
     7
100
AcDbCircle
 10
-36.257
 20
94.43899999999999
 30
0.0
 40
6.961
  0
POINT
  5
20C
330
A
100
AcDbEntity
  8
PV
  6
Continuous
 62
     7
100
AcDbPoint
 10
106.9439999999999
 20
82.439
 30
0.0
  0
POINT
  5
20D
330
A
100
AcDbEntity
  8
PV
  6
Continuous
 62
     7
100
AcDbPoint
 10
54.743
 20
82.439
 30
0.0
  0
POINT
  5
20E
330
A
100
AcDbEntity
  8
PV
  6
Continuous
 62
     7
100
AcDbPoint
 10
54.743
 20
192.439
 30
0.0
  0
MTEXT
  5
20F
330
A
100
AcDbEntity
  8
PV
  6
Continuous
 62
     7
100
AcDbMText
 10
96.16066700000001
 20
137.439
 30
0.0
 40
8.4
 41
0.0
 71
     2
 72
     1
  1
\A1;□110
 11
0.0
 21
1.0
 31
0.0
 73
     1
 44
1.0
  0
LINE
  5
210
330
A
100
AcDbEntity
  8
PV
  6
Continuous
 62
     7
100
AcDbLine
 10
57.918
 20
82.439
 30
0.0
 11
109.801
 21
82.439
 31
0.0
  0
LINE
  5
211
330
A
100
AcDbEntity
  8
PV
  6
Continuous
 62
     7
100
AcDbLine
 10
57.918
 20
192.439
 30
0.0
 11
109.801
 21
192.439
 31
0.0
  0
LINE
  5
212
330
A
100
AcDbEntity
  8
PV
  6
Continuous
 62
     7
100
AcDbLine
 10
106.9439999999999
 20
192.439
 30
0.0
 11
106.9439999999999
 21
82.439
 31
0.0
  0
LINE
  5
213
330
A
100
AcDbEntity
  8
PV
  6
Continuous
 62
     7
100
AcDbLine
 10
106.9439999999999
 20
82.439
 30
0.0
 11
106.9439999999999
 21
85.90200000000001
 31
0.0
  0
LINE
  5
214
330
A
100
AcDbEntity
  8
PV
  6
Continuous
 62
     7
100
AcDbLine
 10
106.9439999999999
 20
82.439
 30
0.0
 11
106.0159999999999
 21
85.90200000000001
 31
0.0
  0
LINE
  5
215
330
A
100
AcDbEntity
  8
PV
  6
Continuous
 62
     7
100
AcDbLine
 10
107.872
 20
85.90200000000001
 30
0.0
 11
106.9439999999999
 21
82.439
 31
0.0
  0
LINE
  5
216
330
A
100
AcDbEntity
  8
PV
  6
Continuous
 62
     7
100
AcDbLine
 10
106.9439999999999
 20
192.439
 30
0.0
 11
106.9439999999999
 21
188.977
 31
0.0
  0
LINE
  5
217
330
A
100
AcDbEntity
  8
PV
  6
Continuous
 62
     7
100
AcDbLine
 10
106.9439999999999
 20
192.439
 30
0.0
 11
107.872
 21
188.977
 31
0.0
  0
LINE
  5
218
330
A
100
AcDbEntity
  8
PV
  6
Continuous
 62
     7
100
AcDbLine
 10
106.0159999999999
 20
188.977
 30
0.0
 11
106.9439999999999
 21
192.439
 31
0.0
  0
LINE
  5
219
330
A
100
AcDbEntity
  8
PV
  6
Continuous
 62
     7
100
AcDbLine
 10
33.99899968584072
 20
-2.01199999999999
 30
0.0
 11
33.99899968584072
 21
-1.97399999999999
 31
0.0
  0
LINE
  5
21A
330
A
100
AcDbEntity
  8
PV
  6
Continuous
 62
     7
100
AcDbLine
 10
33.99899968584072
 20
-2.050999999999992
 30
0.0
 11
33.99899968584072
 21
-2.01199999999999
 31
0.0
  0
LINE
  5
21B
330
A
100
AcDbEntity
  8
PV
  6
Continuous
 62
     7
100
AcDbLine
 10
33.99899968584072
 20
-2.088999999999992
 30
0.0
 11
33.99899968584072
 21
-2.050999999999992
 31
0.0
  0
LINE
  5
21C
330
A
100
AcDbEntity
  8
PV
  6
Continuous
 62
     7
100
AcDbLine
 10
33.99799968584074
 20
-2.12799999999999
 30
0.0
 11
33.99899968584072
 21
-2.088999999999992
 31
0.0
  0
LINE
  5
21D
330
A
100
AcDbEntity
  8
PV
  6
Continuous
 62
     7
100
AcDbLine
 10
33.99799968584074
 20
-2.16599999999999
 30
0.0
 11
33.99799968584074
 21
-2.12799999999999
 31
0.0
  0
LINE
  5
21E
330
A
100
AcDbEntity
  8
PV
  6
Continuous
 62
     7
100
AcDbLine
 10
33.99699968584073
 20
-2.204999999999992
 30
0.0
 11
33.99799968584074
 21
-2.16599999999999
 31
0.0
  0
LINE
  5
21F
330
A
100
AcDbEntity
  8
PV
  6
Continuous
 62
     7
100
AcDbLine
 10
33.99599968584073
 20
-2.242999999999992
 30
0.0
 11
33.99699968584073
 21
-2.204999999999992
 31
0.0
  0
LINE
  5
220
330
A
100
AcDbEntity
  8
PV
  6
Continuous
 62
     7
100
AcDbLine
 10
33.99499968584072
 20
-2.281999999999992
 30
0.0
 11
33.99599968584073
 21
-2.242999999999992
 31
0.0
  0
LINE
  5
221
330
A
100
AcDbEntity
  8
PV
  6
Continuous
 62
     7
100
AcDbLine
 10
33.99399968584073
 20
-2.31999999999999
 30
0.0
 11
33.99499968584072
 21
-2.281999999999992
 31
0.0
  0
LINE
  5
222
330
A
100
AcDbEntity
  8
PV
  6
Continuous
 62
     7
100
AcDbLine
 10
33.99199968584072
 20
-2.358999999999993
 30
0.0
 11
33.99399968584073
 21
-2.31999999999999
 31
0.0
  0
LINE
  5
223
330
A
100
AcDbEntity
  8
PV
  6
Continuous
 62
     7
100
AcDbLine
 10
33.99099968584073
 20
-2.396999999999992
 30
0.0
 11
33.99199968584072
 21
-2.358999999999993
 31
0.0
  0
LINE
  5
224
330
A
100
AcDbEntity
  8
PV
  6
Continuous
 62
     7
100
AcDbLine
 10
33.98899968584072
 20
-2.434999999999992
 30
0.0
 11
33.99099968584073
 21
-2.396999999999992
 31
0.0
  0
LINE
  5
225
330
A
100
AcDbEntity
  8
PV
  6
Continuous
 62
     7
100
AcDbLine
 10
33.98799968584073
 20
-2.47399999999999
 30
0.0
 11
33.98899968584072
 21
-2.434999999999992
 31
0.0
  0
LINE
  5
226
330
A
100
AcDbEntity
  8
PV
  6
Continuous
 62
     7
100
AcDbLine
 10
33.98599968584072
 20
-2.51199999999999
 30
0.0
 11
33.98799968584073
 21
-2.47399999999999
 31
0.0
  0
LINE
  5
227
330
A
100
AcDbEntity
  8
PV
  6
Continuous
 62
     7
100
AcDbLine
 10
33.98399968584072
 20
-2.550999999999992
 30
0.0
 11
33.98599968584072
 21
-2.51199999999999
 31
0.0
  0
LINE
  5
228
330
A
100
AcDbEntity
  8
PV
  6
Continuous
 62
     7
100
AcDbLine
 10
33.98199968584073
 20
-2.588999999999992
 30
0.0
 11
33.98399968584072
 21
-2.550999999999992
 31
0.0
  0
LINE
  5
229
330
A
100
AcDbEntity
  8
PV
  6
Continuous
 62
     7
100
AcDbLine
 10
33.97899968584073
 20
-2.62799999999999
 30
0.0
 11
33.98199968584073
 21
-2.588999999999992
 31
0.0
  0
LINE
  5
22A
330
A
100
AcDbEntity
  8
PV
  6
Continuous
 62
     7
100
AcDbLine
 10
33.97699968584072
 20
-2.66599999999999
 30
0.0
 11
33.97899968584073
 21
-2.62799999999999
 31
0.0
  0
LINE
  5
22B
330
A
100
AcDbEntity
  8
PV
  6
Continuous
 62
     7
100
AcDbLine
 10
33.97399968584072
 20
-2.70399999999999
 30
0.0
 11
33.97699968584072
 21
-2.66599999999999
 31
0.0
  0
LINE
  5
22C
330
A
100
AcDbEntity
  8
PV
  6
Continuous
 62
     7
100
AcDbLine
 10
33.97199968584073
 20
-2.742999999999992
 30
0.0
 11
33.97399968584072
 21
-2.70399999999999
 31
0.0
  0
LINE
  5
22D
330
A
100
AcDbEntity
  8
PV
  6
Continuous
 62
     7
100
AcDbLine
 10
33.96899968584072
 20
-2.780999999999992
 30
0.0
 11
33.97199968584073
 21
-2.742999999999992
 31
0.0
  0
LINE
  5
22E
330
A
100
AcDbEntity
  8
PV
  6
Continuous
 62
     7
100
AcDbLine
 10
33.96599968584073
 20
-2.81999999999999
 30
0.0
 11
33.96899968584072
 21
-2.780999999999992
 31
0.0
  0
LINE
  5
22F
330
A
100
AcDbEntity
  8
PV
  6
Continuous
 62
     7
100
AcDbLine
 10
33.96299968584072
 20
-2.85799999999999
 30
0.0
 11
33.96599968584073
 21
-2.81999999999999
 31
0.0
  0
LINE
  5
230
330
A
100
AcDbEntity
  8
PV
  6
Continuous
 62
     7
100
AcDbLine
 10
33.95999968584073
 20
-2.895999999999991
 30
0.0
 11
33.96299968584072
 21
-2.85799999999999
 31
0.0
  0
LINE
  5
231
330
A
100
AcDbEntity
  8
PV
  6
Continuous
 62
     7
100
AcDbLine
 10
33.95599968584072
 20
-2.934999999999992
 30
0.0
 11
33.95999968584073
 21
-2.895999999999991
 31
0.0
  0
LINE
  5
232
330
A
100
AcDbEntity
  8
PV
  6
Continuous
 62
     7
100
AcDbLine
 10
33.95299968584072
 20
-2.972999999999992
 30
0.0
 11
33.95599968584072
 21
-2.934999999999992
 31
0.0
  0
LINE
  5
233
330
A
100
AcDbEntity
  8
PV
  6
Continuous
 62
     7
100
AcDbLine
 10
33.94899968584073
 20
-3.010999999999993
 30
0.0
 11
33.95299968584072
 21
-2.972999999999992
 31
0.0
  0
LINE
  5
234
330
A
100
AcDbEntity
  8
PV
  6
Continuous
 62
     7
100
AcDbLine
 10
33.94499968584073
 20
-3.048999999999993
 30
0.0
 11
33.94899968584073
 21
-3.010999999999993
 31
0.0
  0
LINE
  5
235
330
A
100
AcDbEntity
  8
PV
  6
Continuous
 62
     7
100
AcDbLine
 10
33.94099968584074
 20
-3.087999999999991
 30
0.0
 11
33.94499968584073
 21
-3.048999999999993
 31
0.0
  0
LINE
  5
236
330
A
100
AcDbEntity
  8
PV
  6
Continuous
 62
     7
100
AcDbLine
 10
33.93699968584073
 20
-3.125999999999995
 30
0.0
 11
33.94099968584074
 21
-3.087999999999991
 31
0.0
  0
LINE
  5
237
330
A
100
AcDbEntity
  8
PV
  6
Continuous
 62
     7
100
AcDbLine
 10
33.93299968584072
 20
-3.163999999999995
 30
0.0
 11
33.93699968584073
 21
-3.125999999999995
 31
0.0
  0
LINE
  5
238
330
A
100
AcDbEntity
  8
PV
  6
Continuous
 62
     7
100
AcDbLine
 10
33.92799968584073
 20
-3.201999999999991
 30
0.0
 11
33.93299968584072
 21
-3.163999999999995
 31
0.0
  0
LINE
  5
239
330
A
100
AcDbEntity
  8
PV
  6
Continuous
 62
     7
100
AcDbLine
 10
33.92399968584072
 20
-3.240999999999989
 30
0.0
 11
33.92799968584073
 21
-3.201999999999991
 31
0.0
  0
LINE
  5
23A
330
A
100
AcDbEntity
  8
PV
  6
Continuous
 62
     7
100
AcDbLine
 10
33.91899968584073
 20
-3.27899999999999
 30
0.0
 11
33.92399968584072
 21
-3.240999999999989
 31
0.0
  0
LINE
  5
23B
330
A
100
AcDbEntity
  8
PV
  6
Continuous
 62
     7
100
AcDbLine
 10
33.91399968584072
 20
-3.31699999999999
 30
0.0
 11
33.91899968584073
 21
-3.27899999999999
 31
0.0
  0
LINE
  5
23C
330
A
100
AcDbEntity
  8
PV
  6
Continuous
 62
     7
100
AcDbLine
 10
33.90899968584072
 20
-3.35499999999999
 30
0.0
 11
33.91399968584072
 21
-3.31699999999999
 31
0.0
  0
LINE
  5
23D
330
A
100
AcDbEntity
  8
PV
  6
Continuous
 62
     7
100
AcDbLine
 10
33.90399968584073
 20
-3.39299999999999
 30
0.0
 11
33.90899968584072
 21
-3.35499999999999
 31
0.0
  0
LINE
  5
23E
330
A
100
AcDbEntity
  8
PV
  6
Continuous
 62
     7
100
AcDbLine
 10
33.89899968584072
 20
-3.430999999999991
 30
0.0
 11
33.90399968584073
 21
-3.39299999999999
 31
0.0
  0
LINE
  5
23F
330
A
100
AcDbEntity
  8
PV
  6
Continuous
 62
     7
100
AcDbLine
 10
33.89399968584072
 20
-3.469999999999992
 30
0.0
 11
33.89899968584072
 21
-3.430999999999991
 31
0.0
  0
LINE
  5
240
330
A
100
AcDbEntity
  8
PV
  6
Continuous
 62
     7
100
AcDbLine
 10
33.88799968584072
 20
-3.507999999999992
 30
0.0
 11
33.89399968584072
 21
-3.469999999999992
 31
0.0
  0
LINE
  5
241
330
A
100
AcDbEntity
  8
PV
  6
Continuous
 62
     7
100
AcDbLine
 10
33.88199968584072
 20
-3.545999999999993
 30
0.0
 11
33.88799968584072
 21
-3.507999999999992
 31
0.0
  0
LINE
  5
242
330
A
100
AcDbEntity
  8
PV
  6
Continuous
 62
     7
100
AcDbLine
 10
33.87599968584072
 20
-3.583999999999993
 30
0.0
 11
33.88199968584072
 21
-3.545999999999993
 31
0.0
  0
LINE
  5
243
330
A
100
AcDbEntity
  8
PV
  6
Continuous
 62
     7
100
AcDbLine
 10
33.86999968584072
 20
-3.62199999999999
 30
0.0
 11
33.87599968584072
 21
-3.583999999999993
 31
0.0
  0
LINE
  5
244
330
A
100
AcDbEntity
  8
PV
  6
Continuous
 62
     7
100
AcDbLine
 10
33.86399968584074
 20
-3.65999999999999
 30
0.0
 11
33.86999968584072
 21
-3.62199999999999
 31
0.0
  0
LINE
  5
245
330
A
100
AcDbEntity
  8
PV
  6
Continuous
 62
     7
100
AcDbLine
 10
33.85799968584072
 20
-3.69799999999999
 30
0.0
 11
33.86399968584074
 21
-3.65999999999999
 31
0.0
  0
LINE
  5
246
330
A
100
AcDbEntity
  8
PV
  6
Continuous
 62
     7
100
AcDbLine
 10
33.85099968584073
 20
-3.73599999999999
 30
0.0
 11
33.85799968584072
 21
-3.69799999999999
 31
0.0
  0
LINE
  5
247
330
A
100
AcDbEntity
  8
PV
  6
Continuous
 62
     7
100
AcDbLine
 10
33.84499968584073
 20
-3.772999999999989
 30
0.0
 11
33.85099968584073
 21
-3.73599999999999
 31
0.0
  0
LINE
  5
248
330
A
100
AcDbEntity
  8
PV
  6
Continuous
 62
     7
100
AcDbLine
 10
33.83799968584073
 20
-3.81099999999999
 30
0.0
 11
33.84499968584073
 21
-3.772999999999989
 31
0.0
  0
LINE
  5
249
330
A
100
AcDbEntity
  8
PV
  6
Continuous
 62
     7
100
AcDbLine
 10
33.83099968584072
 20
-3.84899999999999
 30
0.0
 11
33.83799968584073
 21
-3.81099999999999
 31
0.0
  0
LINE
  5
24A
330
A
100
AcDbEntity
  8
PV
  6
Continuous
 62
     7
100
AcDbLine
 10
33.82399968584073
 20
-3.88699999999999
 30
0.0
 11
33.83099968584072
 21
-3.84899999999999
 31
0.0
  0
LINE
  5
24B
330
A
100
AcDbEntity
  8
PV
  6
Continuous
 62
     7
100
AcDbLine
 10
33.81599968584072
 20
-3.92499999999999
 30
0.0
 11
33.82399968584073
 21
-3.88699999999999
 31
0.0
  0
LINE
  5
24C
330
A
100
AcDbEntity
  8
PV
  6
Continuous
 62
     7
100
AcDbLine
 10
33.80899968584073
 20
-3.961999999999989
 30
0.0
 11
33.81599968584072
 21
-3.92499999999999
 31
0.0
  0
LINE
  5
24D
330
A
100
AcDbEntity
  8
PV
  6
Continuous
 62
     7
100
AcDbLine
 10
33.80099968584072
 20
-3.99999999999999
 30
0.0
 11
33.80899968584073
 21
-3.961999999999989
 31
0.0
  0
LINE
  5
24E
330
A
100
AcDbEntity
  8
PV
  6
Continuous
 62
     7
100
AcDbLine
 10
33.79399968584073
 20
-4.03799999999999
 30
0.0
 11
33.80099968584072
 21
-3.99999999999999
 31
0.0
  0
LINE
  5
24F
330
A
100
AcDbEntity
  8
PV
  6
Continuous
 62
     7
100
AcDbLine
 10
33.78599968584072
 20
-4.07599999999999
 30
0.0
 11
33.79399968584073
 21
-4.03799999999999
 31
0.0
  0
LINE
  5
250
330
A
100
AcDbEntity
  8
PV
  6
Continuous
 62
     7
100
AcDbLine
 10
33.77799968584072
 20
-4.112999999999993
 30
0.0
 11
33.78599968584072
 21
-4.07599999999999
 31
0.0
  0
LINE
  5
251
330
A
100
AcDbEntity
  8
PV
  6
Continuous
 62
     7
100
AcDbLine
 10
33.76899968584072
 20
-4.15099999999999
 30
0.0
 11
33.77799968584072
 21
-4.112999999999993
 31
0.0
  0
LINE
  5
252
330
A
100
AcDbEntity
  8
PV
  6
Continuous
 62
     7
100
AcDbLine
 10
33.76099968584073
 20
-4.187999999999992
 30
0.0
 11
33.76899968584072
 21
-4.15099999999999
 31
0.0
  0
LINE
  5
253
330
A
100
AcDbEntity
  8
PV
  6
Continuous
 62
     7
100
AcDbLine
 10
33.75199968584073
 20
-4.225999999999992
 30
0.0
 11
33.76099968584073
 21
-4.187999999999992
 31
0.0
  0
LINE
  5
254
330
A
100
AcDbEntity
  8
PV
  6
Continuous
 62
     7
100
AcDbLine
 10
33.74299968584073
 20
-4.262999999999991
 30
0.0
 11
33.75199968584073
 21
-4.225999999999992
 31
0.0
  0
LINE
  5
255
330
A
100
AcDbEntity
  8
PV
  6
Continuous
 62
     7
100
AcDbLine
 10
33.73499968584073
 20
-4.300999999999995
 30
0.0
 11
33.74299968584073
 21
-4.262999999999991
 31
0.0
  0
LINE
  5
256
330
A
100
AcDbEntity
  8
PV
  6
Continuous
 62
     7
100
AcDbLine
 10
33.72499968584072
 20
-4.337999999999991
 30
0.0
 11
33.73499968584073
 21
-4.300999999999995
 31
0.0
  0
LINE
  5
257
330
A
100
AcDbEntity
  8
PV
  6
Continuous
 62
     7
100
AcDbLine
 10
33.71599968584073
 20
-4.37499999999999
 30
0.0
 11
33.72499968584072
 21
-4.337999999999991
 31
0.0
  0
LINE
  5
258
330
A
100
AcDbEntity
  8
PV
  6
Continuous
 62
     7
100
AcDbLine
 10
33.70699968584073
 20
-4.41299999999999
 30
0.0
 11
33.71599968584073
 21
-4.37499999999999
 31
0.0
  0
LINE
  5
259
330
A
100
AcDbEntity
  8
PV
  6
Continuous
 62
     7
100
AcDbLine
 10
33.69699968584072
 20
-4.449999999999993
 30
0.0
 11
33.70699968584073
 21
-4.41299999999999
 31
0.0
  0
LINE
  5
25A
330
A
100
AcDbEntity
  8
PV
  6
Continuous
 62
     7
100
AcDbLine
 10
33.68699968584073
 20
-4.486999999999995
 30
0.0
 11
33.69699968584072
 21
-4.449999999999993
 31
0.0
  0
LINE
  5
25B
330
A
100
AcDbEntity
  8
PV
  6
Continuous
 62
     7
100
AcDbLine
 10
33.67699968584072
 20
-4.523999999999991
 30
0.0
 11
33.68699968584073
 21
-4.486999999999995
 31
0.0
  0
LINE
  5
25C
330
A
100
AcDbEntity
  8
PV
  6
Continuous
 62
     7
100
AcDbLine
 10
33.66699968584072
 20
-4.56099999999999
 30
0.0
 11
33.67699968584072
 21
-4.523999999999991
 31
0.0
  0
LINE
  5
25D
330
A
100
AcDbEntity
  8
PV
  6
Continuous
 62
     7
100
AcDbLine
 10
33.65699968584073
 20
-4.59899999999999
 30
0.0
 11
33.66699968584072
 21
-4.56099999999999
 31
0.0
  0
LINE
  5
25E
330
A
100
AcDbEntity
  8
PV
  6
Continuous
 62
     7
100
AcDbLine
 10
33.64599968584072
 20
-4.635999999999993
 30
0.0
 11
33.65699968584073
 21
-4.59899999999999
 31
0.0
  0
LINE
  5
25F
330
A
100
AcDbEntity
  8
PV
  6
Continuous
 62
     7
100
AcDbLine
 10
33.63499968584072
 20
-4.67199999999999
 30
0.0
 11
33.64599968584072
 21
-4.635999999999993
 31
0.0
  0
LINE
  5
260
330
A
100
AcDbEntity
  8
PV
  6
Continuous
 62
     7
100
AcDbLine
 10
33.62399968584073
 20
-4.708999999999993
 30
0.0
 11
33.63499968584072
 21
-4.67199999999999
 31
0.0
  0
LINE
  5
261
330
A
100
AcDbEntity
  8
PV
  6
Continuous
 62
     7
100
AcDbLine
 10
33.61299968584073
 20
-4.745999999999995
 30
0.0
 11
33.62399968584073
 21
-4.708999999999993
 31
0.0
  0
LINE
  5
262
330
A
100
AcDbEntity
  8
PV
  6
Continuous
 62
     7
100
AcDbLine
 10
33.60199968584072
 20
-4.782999999999995
 30
0.0
 11
33.61299968584073
 21
-4.745999999999995
 31
0.0
  0
LINE
  5
263
330
A
100
AcDbEntity
  8
PV
  6
Continuous
 62
     7
100
AcDbLine
 10
33.58999968584074
 20
-4.81999999999999
 30
0.0
 11
33.60199968584072
 21
-4.782999999999995
 31
0.0
  0
LINE
  5
264
330
A
100
AcDbEntity
  8
PV
  6
Continuous
 62
     7
100
AcDbLine
 10
33.57899968584073
 20
-4.855999999999995
 30
0.0
 11
33.58999968584074
 21
-4.81999999999999
 31
0.0
  0
LINE
  5
265
330
A
100
AcDbEntity
  8
PV
  6
Continuous
 62
     7
100
AcDbLine
 10
33.56699968584072
 20
-4.89299999999999
 30
0.0
 11
33.57899968584073
 21
-4.855999999999995
 31
0.0
  0
LINE
  5
266
330
A
100
AcDbEntity
  8
PV
  6
Continuous
 62
     7
100
AcDbLine
 10
33.55499968584072
 20
-4.928999999999992
 30
0.0
 11
33.56699968584072
 21
-4.89299999999999
 31
0.0
  0
LINE
  5
267
330
A
100
AcDbEntity
  8
PV
  6
Continuous
 62
     7
100
AcDbLine
 10
33.54199968584072
 20
-4.965999999999991
 30
0.0
 11
33.55499968584072
 21
-4.928999999999992
 31
0.0
  0
LINE
  5
268
330
A
100
AcDbEntity
  8
PV
  6
Continuous
 62
     7
100
AcDbLine
 10
33.52999968584072
 20
-5.001999999999989
 30
0.0
 11
33.54199968584072
 21
-4.965999999999991
 31
0.0
  0
LINE
  5
269
330
A
100
AcDbEntity
  8
PV
  6
Continuous
 62
     7
100
AcDbLine
 10
33.51699968584073
 20
-5.038999999999991
 30
0.0
 11
33.52999968584072
 21
-5.001999999999989
 31
0.0
  0
LINE
  5
26A
330
A
100
AcDbEntity
  8
PV
  6
Continuous
 62
     7
100
AcDbLine
 10
33.50399968584072
 20
-5.074999999999989
 30
0.0
 11
33.51699968584073
 21
-5.038999999999991
 31
0.0
  0
LINE
  5
26B
330
A
100
AcDbEntity
  8
PV
  6
Continuous
 62
     7
100
AcDbLine
 10
33.49099968584073
 20
-5.11099999999999
 30
0.0
 11
33.50399968584072
 21
-5.074999999999989
 31
0.0
  0
LINE
  5
26C
330
A
100
AcDbEntity
  8
PV
  6
Continuous
 62
     7
100
AcDbLine
 10
33.47799968584073
 20
-5.146999999999988
 30
0.0
 11
33.49099968584073
 21
-5.11099999999999
 31
0.0
  0
LINE
  5
26D
330
A
100
AcDbEntity
  8
PV
  6
Continuous
 62
     7
100
AcDbLine
 10
33.46399968584073
 20
-5.18299999999999
 30
0.0
 11
33.47799968584073
 21
-5.146999999999988
 31
0.0
  0
LINE
  5
26E
330
A
100
AcDbEntity
  8
PV
  6
Continuous
 62
     7
100
AcDbLine
 10
33.44999968584072
 20
-5.218999999999991
 30
0.0
 11
33.46399968584073
 21
-5.18299999999999
 31
0.0
  0
LINE
  5
26F
330
A
100
AcDbEntity
  8
PV
  6
Continuous
 62
     7
100
AcDbLine
 10
33.43599968584072
 20
-5.254999999999989
 30
0.0
 11
33.44999968584072
 21
-5.218999999999991
 31
0.0
  0
LINE
  5
270
330
A
100
AcDbEntity
  8
PV
  6
Continuous
 62
     7
100
AcDbLine
 10
33.42199968584073
 20
-5.29099999999999
 30
0.0
 11
33.43599968584072
 21
-5.254999999999989
 31
0.0
  0
LINE
  5
271
330
A
100
AcDbEntity
  8
PV
  6
Continuous
 62
     7
100
AcDbLine
 10
33.40799968584072
 20
-5.32599999999999
 30
0.0
 11
33.42199968584073
 21
-5.29099999999999
 31
0.0
  0
LINE
  5
272
330
A
100
AcDbEntity
  8
PV
  6
Continuous
 62
     7
100
AcDbLine
 10
33.39299968584072
 20
-5.361999999999992
 30
0.0
 11
33.40799968584072
 21
-5.32599999999999
 31
0.0
  0
LINE
  5
273
330
A
100
AcDbEntity
  8
PV
  6
Continuous
 62
     7
100
AcDbLine
 10
33.37799968584072
 20
-5.396999999999988
 30
0.0
 11
33.39299968584072
 21
-5.361999999999992
 31
0.0
  0
LINE
  5
274
330
A
100
AcDbEntity
  8
PV
  6
Continuous
 62
     7
100
AcDbLine
 10
33.36299968584073
 20
-5.43299999999999
 30
0.0
 11
33.37799968584072
 21
-5.396999999999988
 31
0.0
  0
LINE
  5
275
330
A
100
AcDbEntity
  8
PV
  6
Continuous
 62
     7
100
AcDbLine
 10
33.34699968584073
 20
-5.46799999999999
 30
0.0
 11
33.36299968584073
 21
-5.43299999999999
 31
0.0
  0
LINE
  5
276
330
A
100
AcDbEntity
  8
PV
  6
Continuous
 62
     7
100
AcDbLine
 10
33.33099968584072
 20
-5.50299999999999
 30
0.0
 11
33.34699968584073
 21
-5.46799999999999
 31
0.0
  0
LINE
  5
277
330
A
100
AcDbEntity
  8
PV
  6
Continuous
 62
     7
100
AcDbLine
 10
33.31499968584073
 20
-5.53799999999999
 30
0.0
 11
33.33099968584072
 21
-5.50299999999999
 31
0.0
  0
LINE
  5
278
330
A
100
AcDbEntity
  8
PV
  6
Continuous
 62
     7
100
AcDbLine
 10
33.29899968584072
 20
-5.57299999999999
 30
0.0
 11
33.31499968584073
 21
-5.53799999999999
 31
0.0
  0
LINE
  5
279
330
A
100
AcDbEntity
  8
PV
  6
Continuous
 62
     7
100
AcDbLine
 10
33.28299968584072
 20
-5.60799999999999
 30
0.0
 11
33.29899968584072
 21
-5.57299999999999
 31
0.0
  0
LINE
  5
27A
330
A
100
AcDbEntity
  8
PV
  6
Continuous
 62
     7
100
AcDbLine
 10
33.26599968584072
 20
-5.641999999999989
 30
0.0
 11
33.28299968584072
 21
-5.60799999999999
 31
0.0
  0
LINE
  5
27B
330
A
100
AcDbEntity
  8
PV
  6
Continuous
 62
     7
100
AcDbLine
 10
33.24899968584073
 20
-5.676999999999989
 30
0.0
 11
33.26599968584072
 21
-5.641999999999989
 31
0.0
  0
LINE
  5
27C
330
A
100
AcDbEntity
  8
PV
  6
Continuous
 62
     7
100
AcDbLine
 10
33.23099968584072
 20
-5.710999999999988
 30
0.0
 11
33.24899968584073
 21
-5.676999999999989
 31
0.0
  0
LINE
  5
27D
330
A
100
AcDbEntity
  8
PV
  6
Continuous
 62
     7
100
AcDbLine
 10
33.21399968584073
 20
-5.745999999999988
 30
0.0
 11
33.23099968584072
 21
-5.710999999999988
 31
0.0
  0
LINE
  5
27E
330
A
100
AcDbEntity
  8
PV
  6
Continuous
 62
     7
100
AcDbLine
 10
33.19599968584073
 20
-5.779999999999991
 30
0.0
 11
33.21399968584073
 21
-5.745999999999988
 31
0.0
  0
LINE
  5
27F
330
A
100
AcDbEntity
  8
PV
  6
Continuous
 62
     7
100
AcDbLine
 10
33.17799968584073
 20
-5.81399999999999
 30
0.0
 11
33.19599968584073
 21
-5.779999999999991
 31
0.0
  0
LINE
  5
280
330
A
100
AcDbEntity
  8
PV
  6
Continuous
 62
     7
100
AcDbLine
 10
33.15899968584072
 20
-5.847999999999989
 30
0.0
 11
33.17799968584073
 21
-5.81399999999999
 31
0.0
  0
LINE
  5
281
330
A
100
AcDbEntity
  8
PV
  6
Continuous
 62
     7
100
AcDbLine
 10
33.13999968584072
 20
-5.88099999999999
 30
0.0
 11
33.15899968584072
 21
-5.847999999999989
 31
0.0
  0
LINE
  5
282
330
A
100
AcDbEntity
  8
PV
  6
Continuous
 62
     7
100
AcDbLine
 10
33.12099968584073
 20
-5.914999999999989
 30
0.0
 11
33.13999968584072
 21
-5.88099999999999
 31
0.0
  0
LINE
  5
283
330
A
100
AcDbEntity
  8
PV
  6
Continuous
 62
     7
100
AcDbLine
 10
33.10199968584072
 20
-5.94799999999999
 30
0.0
 11
33.12099968584073
 21
-5.914999999999989
 31
0.0
  0
LINE
  5
284
330
A
100
AcDbEntity
  8
PV
  6
Continuous
 62
     7
100
AcDbLine
 10
33.08199968584073
 20
-5.980999999999991
 30
0.0
 11
33.10199968584072
 21
-5.94799999999999
 31
0.0
  0
LINE
  5
285
330
A
100
AcDbEntity
  8
PV
  6
Continuous
 62
     7
100
AcDbLine
 10
33.06199968584073
 20
-6.013999999999989
 30
0.0
 11
33.08199968584073
 21
-5.980999999999991
 31
0.0
  0
LINE
  5
286
330
A
100
AcDbEntity
  8
PV
  6
Continuous
 62
     7
100
AcDbLine
 10
33.04099968584073
 20
-6.045999999999989
 30
0.0
 11
33.06199968584073
 21
-6.013999999999989
 31
0.0
  0
LINE
  5
287
330
A
100
AcDbEntity
  8
PV
  6
Continuous
 62
     7
100
AcDbLine
 10
33.02099968584072
 20
-6.07899999999999
 30
0.0
 11
33.04099968584073
 21
-6.045999999999989
 31
0.0
  0
LINE
  5
288
330
A
100
AcDbEntity
  8
PV
  6
Continuous
 62
     7
100
AcDbLine
 10
32.99899968584073
 20
-6.11099999999999
 30
0.0
 11
33.02099968584072
 21
-6.07899999999999
 31
0.0
  0
LINE
  5
289
330
A
100
AcDbEntity
  8
PV
  6
Continuous
 62
     7
100
AcDbLine
 10
32.97799968584072
 20
-6.14299999999999
 30
0.0
 11
32.99899968584073
 21
-6.11099999999999
 31
0.0
  0
LINE
  5
28A
330
A
100
AcDbEntity
  8
PV
  6
Continuous
 62
     7
100
AcDbLine
 10
32.95599968584072
 20
-6.173999999999989
 30
0.0
 11
32.97799968584072
 21
-6.14299999999999
 31
0.0
  0
LINE
  5
28B
330
A
100
AcDbEntity
  8
PV
  6
Continuous
 62
     7
100
AcDbLine
 10
32.93299968584072
 20
-6.205999999999989
 30
0.0
 11
32.95599968584072
 21
-6.173999999999989
 31
0.0
  0
LINE
  5
28C
330
A
100
AcDbEntity
  8
PV
  6
Continuous
 62
     7
100
AcDbLine
 10
32.91099968584072
 20
-6.236999999999992
 30
0.0
 11
32.93299968584072
 21
-6.205999999999989
 31
0.0
  0
LINE
  5
28D
330
A
100
AcDbEntity
  8
PV
  6
Continuous
 62
     7
100
AcDbLine
 10
32.88799968584074
 20
-6.266999999999989
 30
0.0
 11
32.91099968584072
 21
-6.236999999999992
 31
0.0
  0
LINE
  5
28E
330
A
100
AcDbEntity
  8
PV
  6
Continuous
 62
     7
100
AcDbLine
 10
32.86399968584074
 20
-6.297999999999992
 30
0.0
 11
32.88799968584074
 21
-6.266999999999989
 31
0.0
  0
LINE
  5
28F
330
A
100
AcDbEntity
  8
PV
  6
Continuous
 62
     7
100
AcDbLine
 10
32.83999968584072
 20
-6.327999999999989
 30
0.0
 11
32.86399968584074
 21
-6.297999999999992
 31
0.0
  0
LINE
  5
290
330
A
100
AcDbEntity
  8
PV
  6
Continuous
 62
     7
100
AcDbLine
 10
32.81499968584073
 20
-6.356999999999989
 30
0.0
 11
32.83999968584072
 21
-6.327999999999989
 31
0.0
  0
LINE
  5
291
330
A
100
AcDbEntity
  8
PV
  6
Continuous
 62
     7
100
AcDbLine
 10
-19.35300031415926
 20
-6.327999999999989
 30
0.0
 11
-19.32900031415926
 21
-6.356999999999989
 31
0.0
  0
LINE
  5
292
330
A
100
AcDbEntity
  8
PV
  6
Continuous
 62
     7
100
AcDbLine
 10
-19.37700031415926
 20
-6.297999999999992
 30
0.0
 11
-19.35300031415926
 21
-6.327999999999989
 31
0.0
  0
LINE
  5
293
330
A
100
AcDbEntity
  8
PV
  6
Continuous
 62
     7
100
AcDbLine
 10
-19.40100031415926
 20
-6.266999999999989
 30
0.0
 11
-19.37700031415926
 21
-6.297999999999992
 31
0.0
  0
LINE
  5
294
330
A
100
AcDbEntity
  8
PV
  6
Continuous
 62
     7
100
AcDbLine
 10
-19.42400031415926
 20
-6.236999999999992
 30
0.0
 11
-19.40100031415926
 21
-6.266999999999989
 31
0.0
  0
LINE
  5
295
330
A
100
AcDbEntity
  8
PV
  6
Continuous
 62
     7
100
AcDbLine
 10
-19.44700031415926
 20
-6.205999999999989
 30
0.0
 11
-19.42400031415926
 21
-6.236999999999992
 31
0.0
  0
LINE
  5
296
330
A
100
AcDbEntity
  8
PV
  6
Continuous
 62
     7
100
AcDbLine
 10
-19.46900031415926
 20
-6.173999999999989
 30
0.0
 11
-19.44700031415926
 21
-6.205999999999989
 31
0.0
  0
LINE
  5
297
330
A
100
AcDbEntity
  8
PV
  6
Continuous
 62
     7
100
AcDbLine
 10
-19.49100031415926
 20
-6.14299999999999
 30
0.0
 11
-19.46900031415926
 21
-6.173999999999989
 31
0.0
  0
LINE
  5
298
330
A
100
AcDbEntity
  8
PV
  6
Continuous
 62
     7
100
AcDbLine
 10
-19.51200031415926
 20
-6.11099999999999
 30
0.0
 11
-19.49100031415926
 21
-6.14299999999999
 31
0.0
  0
LINE
  5
299
330
A
100
AcDbEntity
  8
PV
  6
Continuous
 62
     7
100
AcDbLine
 10
-19.53400031415926
 20
-6.07899999999999
 30
0.0
 11
-19.51200031415926
 21
-6.11099999999999
 31
0.0
  0
LINE
  5
29A
330
A
100
AcDbEntity
  8
PV
  6
Continuous
 62
     7
100
AcDbLine
 10
-19.55500031415926
 20
-6.045999999999989
 30
0.0
 11
-19.53400031415926
 21
-6.07899999999999
 31
0.0
  0
LINE
  5
29B
330
A
100
AcDbEntity
  8
PV
  6
Continuous
 62
     7
100
AcDbLine
 10
-19.57500031415926
 20
-6.013999999999989
 30
0.0
 11
-19.55500031415926
 21
-6.045999999999989
 31
0.0
  0
LINE
  5
29C
330
A
100
AcDbEntity
  8
PV
  6
Continuous
 62
     7
100
AcDbLine
 10
-19.59500031415926
 20
-5.980999999999991
 30
0.0
 11
-19.57500031415926
 21
-6.013999999999989
 31
0.0
  0
LINE
  5
29D
330
A
100
AcDbEntity
  8
PV
  6
Continuous
 62
     7
100
AcDbLine
 10
-19.61500031415926
 20
-5.94799999999999
 30
0.0
 11
-19.59500031415926
 21
-5.980999999999991
 31
0.0
  0
LINE
  5
29E
330
A
100
AcDbEntity
  8
PV
  6
Continuous
 62
     7
100
AcDbLine
 10
-19.63400031415926
 20
-5.914999999999989
 30
0.0
 11
-19.61500031415926
 21
-5.94799999999999
 31
0.0
  0
LINE
  5
29F
330
A
100
AcDbEntity
  8
PV
  6
Continuous
 62
     7
100
AcDbLine
 10
-19.65400031415926
 20
-5.88099999999999
 30
0.0
 11
-19.63400031415926
 21
-5.914999999999989
 31
0.0
  0
LINE
  5
2A0
330
A
100
AcDbEntity
  8
PV
  6
Continuous
 62
     7
100
AcDbLine
 10
-19.67200031415926
 20
-5.847999999999989
 30
0.0
 11
-19.65400031415926
 21
-5.88099999999999
 31
0.0
  0
LINE
  5
2A1
330
A
100
AcDbEntity
  8
PV
  6
Continuous
 62
     7
100
AcDbLine
 10
-19.69100031415926
 20
-5.81399999999999
 30
0.0
 11
-19.67200031415926
 21
-5.847999999999989
 31
0.0
  0
LINE
  5
2A2
330
A
100
AcDbEntity
  8
PV
  6
Continuous
 62
     7
100
AcDbLine
 10
-19.70900031415926
 20
-5.779999999999991
 30
0.0
 11
-19.69100031415926
 21
-5.81399999999999
 31
0.0
  0
LINE
  5
2A3
330
A
100
AcDbEntity
  8
PV
  6
Continuous
 62
     7
100
AcDbLine
 10
-19.72700031415926
 20
-5.745999999999988
 30
0.0
 11
-19.70900031415926
 21
-5.779999999999991
 31
0.0
  0
LINE
  5
2A4
330
A
100
AcDbEntity
  8
PV
  6
Continuous
 62
     7
100
AcDbLine
 10
-19.74500031415926
 20
-5.710999999999988
 30
0.0
 11
-19.72700031415926
 21
-5.745999999999988
 31
0.0
  0
LINE
  5
2A5
330
A
100
AcDbEntity
  8
PV
  6
Continuous
 62
     7
100
AcDbLine
 10
-19.76200031415926
 20
-5.676999999999989
 30
0.0
 11
-19.74500031415926
 21
-5.710999999999988
 31
0.0
  0
LINE
  5
2A6
330
A
100
AcDbEntity
  8
PV
  6
Continuous
 62
     7
100
AcDbLine
 10
-19.77900031415926
 20
-5.641999999999989
 30
0.0
 11
-19.76200031415926
 21
-5.676999999999989
 31
0.0
  0
LINE
  5
2A7
330
A
100
AcDbEntity
  8
PV
  6
Continuous
 62
     7
100
AcDbLine
 10
-19.79600031415926
 20
-5.60799999999999
 30
0.0
 11
-19.77900031415926
 21
-5.641999999999989
 31
0.0
  0
LINE
  5
2A8
330
A
100
AcDbEntity
  8
PV
  6
Continuous
 62
     7
100
AcDbLine
 10
-19.81200031415926
 20
-5.57299999999999
 30
0.0
 11
-19.79600031415926
 21
-5.60799999999999
 31
0.0
  0
LINE
  5
2A9
330
A
100
AcDbEntity
  8
PV
  6
Continuous
 62
     7
100
AcDbLine
 10
-19.82900031415926
 20
-5.53799999999999
 30
0.0
 11
-19.81200031415926
 21
-5.57299999999999
 31
0.0
  0
LINE
  5
2AA
330
A
100
AcDbEntity
  8
PV
  6
Continuous
 62
     7
100
AcDbLine
 10
-19.84500031415926
 20
-5.50299999999999
 30
0.0
 11
-19.82900031415926
 21
-5.53799999999999
 31
0.0
  0
LINE
  5
2AB
330
A
100
AcDbEntity
  8
PV
  6
Continuous
 62
     7
100
AcDbLine
 10
-19.86000031415926
 20
-5.46799999999999
 30
0.0
 11
-19.84500031415926
 21
-5.50299999999999
 31
0.0
  0
LINE
  5
2AC
330
A
100
AcDbEntity
  8
PV
  6
Continuous
 62
     7
100
AcDbLine
 10
-19.87600031415926
 20
-5.43299999999999
 30
0.0
 11
-19.86000031415926
 21
-5.46799999999999
 31
0.0
  0
LINE
  5
2AD
330
A
100
AcDbEntity
  8
PV
  6
Continuous
 62
     7
100
AcDbLine
 10
-19.89100031415926
 20
-5.396999999999988
 30
0.0
 11
-19.87600031415926
 21
-5.43299999999999
 31
0.0
  0
LINE
  5
2AE
330
A
100
AcDbEntity
  8
PV
  6
Continuous
 62
     7
100
AcDbLine
 10
-19.90600031415926
 20
-5.361999999999992
 30
0.0
 11
-19.89100031415926
 21
-5.396999999999988
 31
0.0
  0
LINE
  5
2AF
330
A
100
AcDbEntity
  8
PV
  6
Continuous
 62
     7
100
AcDbLine
 10
-19.92100031415926
 20
-5.32599999999999
 30
0.0
 11
-19.90600031415926
 21
-5.361999999999992
 31
0.0
  0
LINE
  5
2B0
330
A
100
AcDbEntity
  8
PV
  6
Continuous
 62
     7
100
AcDbLine
 10
-19.93500031415926
 20
-5.29099999999999
 30
0.0
 11
-19.92100031415926
 21
-5.32599999999999
 31
0.0
  0
LINE
  5
2B1
330
A
100
AcDbEntity
  8
PV
  6
Continuous
 62
     7
100
AcDbLine
 10
-19.94900031415926
 20
-5.254999999999989
 30
0.0
 11
-19.93500031415926
 21
-5.29099999999999
 31
0.0
  0
LINE
  5
2B2
330
A
100
AcDbEntity
  8
PV
  6
Continuous
 62
     7
100
AcDbLine
 10
-19.96400031415926
 20
-5.218999999999991
 30
0.0
 11
-19.94900031415926
 21
-5.254999999999989
 31
0.0
  0
LINE
  5
2B3
330
A
100
AcDbEntity
  8
PV
  6
Continuous
 62
     7
100
AcDbLine
 10
-19.97700031415926
 20
-5.18299999999999
 30
0.0
 11
-19.96400031415926
 21
-5.218999999999991
 31
0.0
  0
LINE
  5
2B4
330
A
100
AcDbEntity
  8
PV
  6
Continuous
 62
     7
100
AcDbLine
 10
-19.99100031415926
 20
-5.146999999999988
 30
0.0
 11
-19.97700031415926
 21
-5.18299999999999
 31
0.0
  0
LINE
  5
2B5
330
A
100
AcDbEntity
  8
PV
  6
Continuous
 62
     7
100
AcDbLine
 10
-20.00400031415926
 20
-5.11099999999999
 30
0.0
 11
-19.99100031415926
 21
-5.146999999999988
 31
0.0
  0
LINE
  5
2B6
330
A
100
AcDbEntity
  8
PV
  6
Continuous
 62
     7
100
AcDbLine
 10
-20.01700031415926
 20
-5.074999999999989
 30
0.0
 11
-20.00400031415926
 21
-5.11099999999999
 31
0.0
  0
LINE
  5
2B7
330
A
100
AcDbEntity
  8
PV
  6
Continuous
 62
     7
100
AcDbLine
 10
-20.03000031415926
 20
-5.038999999999991
 30
0.0
 11
-20.01700031415926
 21
-5.074999999999989
 31
0.0
  0
LINE
  5
2B8
330
A
100
AcDbEntity
  8
PV
  6
Continuous
 62
     7
100
AcDbLine
 10
-20.04300031415926
 20
-5.001999999999989
 30
0.0
 11
-20.03000031415926
 21
-5.038999999999991
 31
0.0
  0
LINE
  5
2B9
330
A
100
AcDbEntity
  8
PV
  6
Continuous
 62
     7
100
AcDbLine
 10
-20.05600031415926
 20
-4.965999999999991
 30
0.0
 11
-20.04300031415926
 21
-5.001999999999989
 31
0.0
  0
LINE
  5
2BA
330
A
100
AcDbEntity
  8
PV
  6
Continuous
 62
     7
100
AcDbLine
 10
-20.06800031415926
 20
-4.928999999999992
 30
0.0
 11
-20.05600031415926
 21
-4.965999999999991
 31
0.0
  0
LINE
  5
2BB
330
A
100
AcDbEntity
  8
PV
  6
Continuous
 62
     7
100
AcDbLine
 10
-20.08000031415926
 20
-4.89299999999999
 30
0.0
 11
-20.06800031415926
 21
-4.928999999999992
 31
0.0
  0
LINE
  5
2BC
330
A
100
AcDbEntity
  8
PV
  6
Continuous
 62
     7
100
AcDbLine
 10
-20.09200031415926
 20
-4.855999999999995
 30
0.0
 11
-20.08000031415926
 21
-4.89299999999999
 31
0.0
  0
LINE
  5
2BD
330
A
100
AcDbEntity
  8
PV
  6
Continuous
 62
     7
100
AcDbLine
 10
-20.10400031415926
 20
-4.81999999999999
 30
0.0
 11
-20.09200031415926
 21
-4.855999999999995
 31
0.0
  0
LINE
  5
2BE
330
A
100
AcDbEntity
  8
PV
  6
Continuous
 62
     7
100
AcDbLine
 10
-20.11500031415926
 20
-4.782999999999995
 30
0.0
 11
-20.10400031415926
 21
-4.81999999999999
 31
0.0
  0
LINE
  5
2BF
330
A
100
AcDbEntity
  8
PV
  6
Continuous
 62
     7
100
AcDbLine
 10
-20.12600031415926
 20
-4.745999999999995
 30
0.0
 11
-20.11500031415926
 21
-4.782999999999995
 31
0.0
  0
LINE
  5
2C0
330
A
100
AcDbEntity
  8
PV
  6
Continuous
 62
     7
100
AcDbLine
 10
-20.13800031415927
 20
-4.708999999999993
 30
0.0
 11
-20.12600031415926
 21
-4.745999999999995
 31
0.0
  0
LINE
  5
2C1
330
A
100
AcDbEntity
  8
PV
  6
Continuous
 62
     7
100
AcDbLine
 10
-20.14800031415926
 20
-4.67199999999999
 30
0.0
 11
-20.13800031415927
 21
-4.708999999999993
 31
0.0
  0
LINE
  5
2C2
330
A
100
AcDbEntity
  8
PV
  6
Continuous
 62
     7
100
AcDbLine
 10
-20.15900031415926
 20
-4.635999999999993
 30
0.0
 11
-20.14800031415926
 21
-4.67199999999999
 31
0.0
  0
LINE
  5
2C3
330
A
100
AcDbEntity
  8
PV
  6
Continuous
 62
     7
100
AcDbLine
 10
-20.17000031415926
 20
-4.59899999999999
 30
0.0
 11
-20.15900031415926
 21
-4.635999999999993
 31
0.0
  0
LINE
  5
2C4
330
A
100
AcDbEntity
  8
PV
  6
Continuous
 62
     7
100
AcDbLine
 10
-20.18000031415926
 20
-4.56099999999999
 30
0.0
 11
-20.17000031415926
 21
-4.59899999999999
 31
0.0
  0
LINE
  5
2C5
330
A
100
AcDbEntity
  8
PV
  6
Continuous
 62
     7
100
AcDbLine
 10
-20.19000031415926
 20
-4.523999999999991
 30
0.0
 11
-20.18000031415926
 21
-4.56099999999999
 31
0.0
  0
LINE
  5
2C6
330
A
100
AcDbEntity
  8
PV
  6
Continuous
 62
     7
100
AcDbLine
 10
-20.20000031415926
 20
-4.486999999999995
 30
0.0
 11
-20.19000031415926
 21
-4.523999999999991
 31
0.0
  0
LINE
  5
2C7
330
A
100
AcDbEntity
  8
PV
  6
Continuous
 62
     7
100
AcDbLine
 10
-20.21000031415926
 20
-4.449999999999993
 30
0.0
 11
-20.20000031415926
 21
-4.486999999999995
 31
0.0
  0
LINE
  5
2C8
330
A
100
AcDbEntity
  8
PV
  6
Continuous
 62
     7
100
AcDbLine
 10
-20.22000031415926
 20
-4.41299999999999
 30
0.0
 11
-20.21000031415926
 21
-4.449999999999993
 31
0.0
  0
LINE
  5
2C9
330
A
100
AcDbEntity
  8
PV
  6
Continuous
 62
     7
100
AcDbLine
 10
-20.22900031415926
 20
-4.37499999999999
 30
0.0
 11
-20.22000031415926
 21
-4.41299999999999
 31
0.0
  0
LINE
  5
2CA
330
A
100
AcDbEntity
  8
PV
  6
Continuous
 62
     7
100
AcDbLine
 10
-20.23900031415926
 20
-4.337999999999991
 30
0.0
 11
-20.22900031415926
 21
-4.37499999999999
 31
0.0
  0
LINE
  5
2CB
330
A
100
AcDbEntity
  8
PV
  6
Continuous
 62
     7
100
AcDbLine
 10
-20.24800031415926
 20
-4.300999999999995
 30
0.0
 11
-20.23900031415926
 21
-4.337999999999991
 31
0.0
  0
LINE
  5
2CC
330
A
100
AcDbEntity
  8
PV
  6
Continuous
 62
     7
100
AcDbLine
 10
-20.25700031415926
 20
-4.262999999999991
 30
0.0
 11
-20.24800031415926
 21
-4.300999999999995
 31
0.0
  0
LINE
  5
2CD
330
A
100
AcDbEntity
  8
PV
  6
Continuous
 62
     7
100
AcDbLine
 10
-20.26500031415926
 20
-4.225999999999992
 30
0.0
 11
-20.25700031415926
 21
-4.262999999999991
 31
0.0
  0
LINE
  5
2CE
330
A
100
AcDbEntity
  8
PV
  6
Continuous
 62
     7
100
AcDbLine
 10
-20.27400031415926
 20
-4.187999999999992
 30
0.0
 11
-20.26500031415926
 21
-4.225999999999992
 31
0.0
  0
LINE
  5
2CF
330
A
100
AcDbEntity
  8
PV
  6
Continuous
 62
     7
100
AcDbLine
 10
-20.28200031415926
 20
-4.15099999999999
 30
0.0
 11
-20.27400031415926
 21
-4.187999999999992
 31
0.0
  0
LINE
  5
2D0
330
A
100
AcDbEntity
  8
PV
  6
Continuous
 62
     7
100
AcDbLine
 10
-20.29100031415926
 20
-4.112999999999993
 30
0.0
 11
-20.28200031415926
 21
-4.15099999999999
 31
0.0
  0
LINE
  5
2D1
330
A
100
AcDbEntity
  8
PV
  6
Continuous
 62
     7
100
AcDbLine
 10
-20.29900031415926
 20
-4.07599999999999
 30
0.0
 11
-20.29100031415926
 21
-4.112999999999993
 31
0.0
  0
LINE
  5
2D2
330
A
100
AcDbEntity
  8
PV
  6
Continuous
 62
     7
100
AcDbLine
 10
-20.30700031415926
 20
-4.03799999999999
 30
0.0
 11
-20.29900031415926
 21
-4.07599999999999
 31
0.0
  0
LINE
  5
2D3
330
A
100
AcDbEntity
  8
PV
  6
Continuous
 62
     7
100
AcDbLine
 10
-20.31400031415926
 20
-3.99999999999999
 30
0.0
 11
-20.30700031415926
 21
-4.03799999999999
 31
0.0
  0
LINE
  5
2D4
330
A
100
AcDbEntity
  8
PV
  6
Continuous
 62
     7
100
AcDbLine
 10
-20.32200031415926
 20
-3.961999999999989
 30
0.0
 11
-20.31400031415926
 21
-3.99999999999999
 31
0.0
  0
LINE
  5
2D5
330
A
100
AcDbEntity
  8
PV
  6
Continuous
 62
     7
100
AcDbLine
 10
-20.32900031415926
 20
-3.92499999999999
 30
0.0
 11
-20.32200031415926
 21
-3.961999999999989
 31
0.0
  0
LINE
  5
2D6
330
A
100
AcDbEntity
  8
PV
  6
Continuous
 62
     7
100
AcDbLine
 10
-20.33700031415926
 20
-3.88699999999999
 30
0.0
 11
-20.32900031415926
 21
-3.92499999999999
 31
0.0
  0
LINE
  5
2D7
330
A
100
AcDbEntity
  8
PV
  6
Continuous
 62
     7
100
AcDbLine
 10
-20.34400031415926
 20
-3.84899999999999
 30
0.0
 11
-20.33700031415926
 21
-3.88699999999999
 31
0.0
  0
LINE
  5
2D8
330
A
100
AcDbEntity
  8
PV
  6
Continuous
 62
     7
100
AcDbLine
 10
-20.35100031415926
 20
-3.81099999999999
 30
0.0
 11
-20.34400031415926
 21
-3.84899999999999
 31
0.0
  0
LINE
  5
2D9
330
A
100
AcDbEntity
  8
PV
  6
Continuous
 62
     7
100
AcDbLine
 10
-20.35800031415926
 20
-3.772999999999989
 30
0.0
 11
-20.35100031415926
 21
-3.81099999999999
 31
0.0
  0
LINE
  5
2DA
330
A
100
AcDbEntity
  8
PV
  6
Continuous
 62
     7
100
AcDbLine
 10
-20.36400031415926
 20
-3.73599999999999
 30
0.0
 11
-20.35800031415926
 21
-3.772999999999989
 31
0.0
  0
LINE
  5
2DB
330
A
100
AcDbEntity
  8
PV
  6
Continuous
 62
     7
100
AcDbLine
 10
-20.37100031415925
 20
-3.69799999999999
 30
0.0
 11
-20.36400031415926
 21
-3.73599999999999
 31
0.0
  0
LINE
  5
2DC
330
A
100
AcDbEntity
  8
PV
  6
Continuous
 62
     7
100
AcDbLine
 10
-20.37700031415926
 20
-3.65999999999999
 30
0.0
 11
-20.37100031415925
 21
-3.69799999999999
 31
0.0
  0
LINE
  5
2DD
330
A
100
AcDbEntity
  8
PV
  6
Continuous
 62
     7
100
AcDbLine
 10
-20.38300031415926
 20
-3.62199999999999
 30
0.0
 11
-20.37700031415926
 21
-3.65999999999999
 31
0.0
  0
LINE
  5
2DE
330
A
100
AcDbEntity
  8
PV
  6
Continuous
 62
     7
100
AcDbLine
 10
-20.38900031415926
 20
-3.583999999999993
 30
0.0
 11
-20.38300031415926
 21
-3.62199999999999
 31
0.0
  0
LINE
  5
2DF
330
A
100
AcDbEntity
  8
PV
  6
Continuous
 62
     7
100
AcDbLine
 10
-20.39500031415926
 20
-3.545999999999993
 30
0.0
 11
-20.38900031415926
 21
-3.583999999999993
 31
0.0
  0
LINE
  5
2E0
330
A
100
AcDbEntity
  8
PV
  6
Continuous
 62
     7
100
AcDbLine
 10
-20.40100031415926
 20
-3.507999999999992
 30
0.0
 11
-20.39500031415926
 21
-3.545999999999993
 31
0.0
  0
LINE
  5
2E1
330
A
100
AcDbEntity
  8
PV
  6
Continuous
 62
     7
100
AcDbLine
 10
-20.40700031415926
 20
-3.469999999999992
 30
0.0
 11
-20.40100031415926
 21
-3.507999999999992
 31
0.0
  0
LINE
  5
2E2
330
A
100
AcDbEntity
  8
PV
  6
Continuous
 62
     7
100
AcDbLine
 10
-20.41200031415926
 20
-3.430999999999991
 30
0.0
 11
-20.40700031415926
 21
-3.469999999999992
 31
0.0
  0
LINE
  5
2E3
330
A
100
AcDbEntity
  8
PV
  6
Continuous
 62
     7
100
AcDbLine
 10
-20.41700031415926
 20
-3.39299999999999
 30
0.0
 11
-20.41200031415926
 21
-3.430999999999991
 31
0.0
  0
LINE
  5
2E4
330
A
100
AcDbEntity
  8
PV
  6
Continuous
 62
     7
100
AcDbLine
 10
-20.42200031415926
 20
-3.35499999999999
 30
0.0
 11
-20.41700031415926
 21
-3.39299999999999
 31
0.0
  0
LINE
  5
2E5
330
A
100
AcDbEntity
  8
PV
  6
Continuous
 62
     7
100
AcDbLine
 10
-20.42700031415926
 20
-3.31699999999999
 30
0.0
 11
-20.42200031415926
 21
-3.35499999999999
 31
0.0
  0
LINE
  5
2E6
330
A
100
AcDbEntity
  8
PV
  6
Continuous
 62
     7
100
AcDbLine
 10
-20.43200031415926
 20
-3.27899999999999
 30
0.0
 11
-20.42700031415926
 21
-3.31699999999999
 31
0.0
  0
LINE
  5
2E7
330
A
100
AcDbEntity
  8
PV
  6
Continuous
 62
     7
100
AcDbLine
 10
-20.43700031415926
 20
-3.240999999999989
 30
0.0
 11
-20.43200031415926
 21
-3.27899999999999
 31
0.0
  0
LINE
  5
2E8
330
A
100
AcDbEntity
  8
PV
  6
Continuous
 62
     7
100
AcDbLine
 10
-20.44200031415926
 20
-3.201999999999991
 30
0.0
 11
-20.43700031415926
 21
-3.240999999999989
 31
0.0
  0
LINE
  5
2E9
330
A
100
AcDbEntity
  8
PV
  6
Continuous
 62
     7
100
AcDbLine
 10
-20.44600031415926
 20
-3.163999999999995
 30
0.0
 11
-20.44200031415926
 21
-3.201999999999991
 31
0.0
  0
LINE
  5
2EA
330
A
100
AcDbEntity
  8
PV
  6
Continuous
 62
     7
100
AcDbLine
 10
-20.45000031415926
 20
-3.125999999999995
 30
0.0
 11
-20.44600031415926
 21
-3.163999999999995
 31
0.0
  0
LINE
  5
2EB
330
A
100
AcDbEntity
  8
PV
  6
Continuous
 62
     7
100
AcDbLine
 10
-20.45400031415926
 20
-3.087999999999991
 30
0.0
 11
-20.45000031415926
 21
-3.125999999999995
 31
0.0
  0
LINE
  5
2EC
330
A
100
AcDbEntity
  8
PV
  6
Continuous
 62
     7
100
AcDbLine
 10
-20.45800031415926
 20
-3.048999999999993
 30
0.0
 11
-20.45400031415926
 21
-3.087999999999991
 31
0.0
  0
LINE
  5
2ED
330
A
100
AcDbEntity
  8
PV
  6
Continuous
 62
     7
100
AcDbLine
 10
-20.46200031415926
 20
-3.010999999999993
 30
0.0
 11
-20.45800031415926
 21
-3.048999999999993
 31
0.0
  0
LINE
  5
2EE
330
A
100
AcDbEntity
  8
PV
  6
Continuous
 62
     7
100
AcDbLine
 10
-20.46600031415926
 20
-2.972999999999992
 30
0.0
 11
-20.46200031415926
 21
-3.010999999999993
 31
0.0
  0
LINE
  5
2EF
330
A
100
AcDbEntity
  8
PV
  6
Continuous
 62
     7
100
AcDbLine
 10
-20.46900031415926
 20
-2.934999999999992
 30
0.0
 11
-20.46600031415926
 21
-2.972999999999992
 31
0.0
  0
LINE
  5
2F0
330
A
100
AcDbEntity
  8
PV
  6
Continuous
 62
     7
100
AcDbLine
 10
-20.47300031415926
 20
-2.895999999999991
 30
0.0
 11
-20.46900031415926
 21
-2.934999999999992
 31
0.0
  0
LINE
  5
2F1
330
A
100
AcDbEntity
  8
PV
  6
Continuous
 62
     7
100
AcDbLine
 10
-20.47600031415926
 20
-2.85799999999999
 30
0.0
 11
-20.47300031415926
 21
-2.895999999999991
 31
0.0
  0
LINE
  5
2F2
330
A
100
AcDbEntity
  8
PV
  6
Continuous
 62
     7
100
AcDbLine
 10
-20.47900031415926
 20
-2.81999999999999
 30
0.0
 11
-20.47600031415926
 21
-2.85799999999999
 31
0.0
  0
LINE
  5
2F3
330
A
100
AcDbEntity
  8
PV
  6
Continuous
 62
     7
100
AcDbLine
 10
-20.48200031415926
 20
-2.780999999999992
 30
0.0
 11
-20.47900031415926
 21
-2.81999999999999
 31
0.0
  0
LINE
  5
2F4
330
A
100
AcDbEntity
  8
PV
  6
Continuous
 62
     7
100
AcDbLine
 10
-20.48500031415926
 20
-2.742999999999992
 30
0.0
 11
-20.48200031415926
 21
-2.780999999999992
 31
0.0
  0
LINE
  5
2F5
330
A
100
AcDbEntity
  8
PV
  6
Continuous
 62
     7
100
AcDbLine
 10
-20.48800031415926
 20
-2.70399999999999
 30
0.0
 11
-20.48500031415926
 21
-2.742999999999992
 31
0.0
  0
LINE
  5
2F6
330
A
100
AcDbEntity
  8
PV
  6
Continuous
 62
     7
100
AcDbLine
 10
-20.49000031415926
 20
-2.66599999999999
 30
0.0
 11
-20.48800031415926
 21
-2.70399999999999
 31
0.0
  0
LINE
  5
2F7
330
A
100
AcDbEntity
  8
PV
  6
Continuous
 62
     7
100
AcDbLine
 10
-20.49300031415926
 20
-2.62799999999999
 30
0.0
 11
-20.49000031415926
 21
-2.66599999999999
 31
0.0
  0
LINE
  5
2F8
330
A
100
AcDbEntity
  8
PV
  6
Continuous
 62
     7
100
AcDbLine
 10
-20.49500031415926
 20
-2.588999999999992
 30
0.0
 11
-20.49300031415926
 21
-2.62799999999999
 31
0.0
  0
LINE
  5
2F9
330
A
100
AcDbEntity
  8
PV
  6
Continuous
 62
     7
100
AcDbLine
 10
-20.49700031415926
 20
-2.550999999999992
 30
0.0
 11
-20.49500031415926
 21
-2.588999999999992
 31
0.0
  0
LINE
  5
2FA
330
A
100
AcDbEntity
  8
PV
  6
Continuous
 62
     7
100
AcDbLine
 10
-20.49900031415926
 20
-2.51199999999999
 30
0.0
 11
-20.49700031415926
 21
-2.550999999999992
 31
0.0
  0
LINE
  5
2FB
330
A
100
AcDbEntity
  8
PV
  6
Continuous
 62
     7
100
AcDbLine
 10
-20.50100031415926
 20
-2.47399999999999
 30
0.0
 11
-20.49900031415926
 21
-2.51199999999999
 31
0.0
  0
LINE
  5
2FC
330
A
100
AcDbEntity
  8
PV
  6
Continuous
 62
     7
100
AcDbLine
 10
-20.50300031415926
 20
-2.434999999999992
 30
0.0
 11
-20.50100031415926
 21
-2.47399999999999
 31
0.0
  0
LINE
  5
2FD
330
A
100
AcDbEntity
  8
PV
  6
Continuous
 62
     7
100
AcDbLine
 10
-20.50400031415926
 20
-2.396999999999992
 30
0.0
 11
-20.50300031415926
 21
-2.434999999999992
 31
0.0
  0
LINE
  5
2FE
330
A
100
AcDbEntity
  8
PV
  6
Continuous
 62
     7
100
AcDbLine
 10
-20.50600031415926
 20
-2.358999999999993
 30
0.0
 11
-20.50400031415926
 21
-2.396999999999992
 31
0.0
  0
LINE
  5
2FF
330
A
100
AcDbEntity
  8
PV
  6
Continuous
 62
     7
100
AcDbLine
 10
-20.50700031415926
 20
-2.31999999999999
 30
0.0
 11
-20.50600031415926
 21
-2.358999999999993
 31
0.0
  0
LINE
  5
300
330
A
100
AcDbEntity
  8
PV
  6
Continuous
 62
     7
100
AcDbLine
 10
-20.50800031415926
 20
-2.281999999999992
 30
0.0
 11
-20.50700031415926
 21
-2.31999999999999
 31
0.0
  0
LINE
  5
301
330
A
100
AcDbEntity
  8
PV
  6
Continuous
 62
     7
100
AcDbLine
 10
-20.50900031415926
 20
-2.242999999999992
 30
0.0
 11
-20.50800031415926
 21
-2.281999999999992
 31
0.0
  0
LINE
  5
302
330
A
100
AcDbEntity
  8
PV
  6
Continuous
 62
     7
100
AcDbLine
 10
-20.51000031415926
 20
-2.204999999999992
 30
0.0
 11
-20.50900031415926
 21
-2.242999999999992
 31
0.0
  0
LINE
  5
303
330
A
100
AcDbEntity
  8
PV
  6
Continuous
 62
     7
100
AcDbLine
 10
-20.51100031415926
 20
-2.16599999999999
 30
0.0
 11
-20.51000031415926
 21
-2.204999999999992
 31
0.0
  0
LINE
  5
304
330
A
100
AcDbEntity
  8
PV
  6
Continuous
 62
     7
100
AcDbLine
 10
-20.51100031415926
 20
-2.12799999999999
 30
0.0
 11
-20.51100031415926
 21
-2.16599999999999
 31
0.0
  0
LINE
  5
305
330
A
100
AcDbEntity
  8
PV
  6
Continuous
 62
     7
100
AcDbLine
 10
-20.51200031415925
 20
-2.088999999999992
 30
0.0
 11
-20.51100031415926
 21
-2.12799999999999
 31
0.0
  0
LINE
  5
306
330
A
100
AcDbEntity
  8
PV
  6
Continuous
 62
     7
100
AcDbLine
 10
-20.51200031415925
 20
-2.050999999999992
 30
0.0
 11
-20.51200031415925
 21
-2.088999999999992
 31
0.0
  0
LINE
  5
307
330
A
100
AcDbEntity
  8
PV
  6
Continuous
 62
     7
100
AcDbLine
 10
-20.51200031415925
 20
-2.01199999999999
 30
0.0
 11
-20.51200031415925
 21
-2.050999999999992
 31
0.0
  0
LINE
  5
308
330
A
100
AcDbEntity
  8
PV
  6
Continuous
 62
     7
100
AcDbLine
 10
-20.51200031415925
 20
-1.97399999999999
 30
0.0
 11
-20.51200031415925
 21
-2.01199999999999
 31
0.0
  0
POINT
  5
309
330
A
100
AcDbEntity
  8
PV
  6
Continuous
 62
     7
100
AcDbPoint
 10
-112.8960003141592
 20
-103.4739999999999
 30
0.0
  0
POINT
  5
30A
330
A
100
AcDbEntity
  8
PV
  6
Continuous
 62
     7
100
AcDbPoint
 10
-88.79600031415924
 20
-103.4739999999999
 30
0.0
  0
POINT
  5
30B
330
A
100
AcDbEntity
  8
PV
  6
Continuous
 62
     7
100
AcDbPoint
 10
-36.75700031415925
 20
-191.474
 30
0.0
  0
MTEXT
  5
30C
330
A
100
AcDbEntity
  8
PV
  6
Continuous
 62
     7
100
AcDbMText
 10
-123.6793333141592
 20
-147.4739999999999
 30
0.0
 40
8.4
 41
0.0
 71
     2
 72
     1
  1
\W0.952;\A1;88
 11
0.0
 21
1.0
 31
0.0
 73
     1
 44
1.0
  0
LINE
  5
30D
330
A
100
AcDbEntity
  8
PV
  6
Continuous
 62
     7
100
AcDbLine
 10
-92.27427831415926
 20
-103.4739999999999
 30
0.0
 11
-117.4680003141591
 21
-103.4739999999999
 31
0.0
  0
LINE
  5
30E
330
A
100
AcDbEntity
  8
PV
  6
Continuous
 62
     7
100
AcDbLine
 10
-41.23387431415928
 20
-191.474
 30
0.0
 11
-117.4680003141591
 21
-191.474
 31
0.0
  0
LINE
  5
30F
330
A
100
AcDbEntity
  8
PV
  6
Continuous
 62
     7
100
AcDbLine
 10
-112.8960003141592
 20
-191.474
 30
0.0
 11
-112.8960003141592
 21
-103.4739999999999
 31
0.0
  0
LINE
  5
310
330
A
100
AcDbEntity
  8
PV
  6
Continuous
 62
     7
100
AcDbLine
 10
-112.8960003141592
 20
-103.4739999999999
 30
0.0
 11
-112.8960003141592
 21
-106.936
 31
0.0
  0
LINE
  5
311
330
A
100
AcDbEntity
  8
PV
  6
Continuous
 62
     7
100
AcDbLine
 10
-112.8960003141592
 20
-103.4739999999999
 30
0.0
 11
-111.9680003141591
 21
-106.936
 31
0.0
  0
LINE
  5
312
330
A
100
AcDbEntity
  8
PV
  6
Continuous
 62
     7
100
AcDbLine
 10
-113.8240003141592
 20
-106.936
 30
0.0
 11
-112.8960003141592
 21
-103.4739999999999
 31
0.0
  0
LINE
  5
313
330
A
100
AcDbEntity
  8
PV
  6
Continuous
 62
     7
100
AcDbLine
 10
-112.8960003141592
 20
-191.474
 30
0.0
 11
-112.8960003141592
 21
-188.0109999999999
 31
0.0
  0
LINE
  5
314
330
A
100
AcDbEntity
  8
PV
  6
Continuous
 62
     7
100
AcDbLine
 10
-112.8960003141592
 20
-191.474
 30
0.0
 11
-113.8240003141592
 21
-188.0109999999999
 31
0.0
  0
LINE
  5
315
330
A
100
AcDbEntity
  8
PV
  6
Continuous
 62
     7
100
AcDbLine
 10
-111.9680003141591
 20
-188.0109999999999
 30
0.0
 11
-112.8960003141592
 21
-191.474
 31
0.0
  0
POINT
  5
316
330
A
100
AcDbEntity
  8
PV
  6
Continuous
 62
     7
100
AcDbPoint
 10
-96.06200031415927
 20
-59.97399999999998
 30
0.0
  0
POINT
  5
317
330
A
100
AcDbEntity
  8
PV
  6
Continuous
 62
     7
100
AcDbPoint
 10
-81.25700031415926
 20
-59.97399999999998
 30
0.0
  0
POINT
  5
318
330
A
100
AcDbEntity
  8
PV
  6
Continuous
 62
     7
100
AcDbPoint
 10
-81.25700031415926
 20
-146.9739999999999
 30
0.0
  0
MTEXT
  5
319
330
A
100
AcDbEntity
  8
PV
  6
Continuous
 62
     7
100
AcDbMText
 10
-106.8453333141592
 20
-82.62100000000001
 30
0.0
 40
8.4
 41
0.0
 71
     2
 72
     1
  1
\T0.933;\W1.040;\A1;\U+220587
 11
0.0
 21
1.0
 31
0.0
 73
     1
 44
1.0
  0
LINE
  5
31A
330
A
100
AcDbEntity
  8
PV
  6
Continuous
 62
     7
100
AcDbLine
 10
-84.43200031415926
 20
-59.97399999999998
 30
0.0
 11
-100.6340003141592
 21
-59.97399999999998
 31
0.0
  0
LINE
  5
31B
330
A
100
AcDbEntity
  8
PV
  6
Continuous
 62
     7
100
AcDbLine
 10
-84.43200031415926
 20
-146.9739999999999
 30
0.0
 11
-100.6340003141592
 21
-146.9739999999999
 31
0.0
  0
LINE
  5
31C
330
A
100
AcDbEntity
  8
PV
  6
Continuous
 62
     7
100
AcDbLine
 10
-96.06200031415927
 20
-146.9739999999999
 30
0.0
 11
-96.06200031415927
 21
-59.97399999999998
 31
0.0
  0
LINE
  5
31D
330
A
100
AcDbEntity
  8
PV
  6
Continuous
 62
     7
100
AcDbLine
 10
-96.06200031415927
 20
-59.97399999999998
 30
0.0
 11
-96.06200031415927
 21
-63.43600000000002
 31
0.0
  0
LINE
  5
31E
330
A
100
AcDbEntity
  8
PV
  6
Continuous
 62
     7
100
AcDbLine
 10
-96.06200031415927
 20
-59.97399999999998
 30
0.0
 11
-95.13400031415926
 21
-63.43600000000002
 31
0.0
  0
LINE
  5
31F
330
A
100
AcDbEntity
  8
PV
  6
Continuous
 62
     7
100
AcDbLine
 10
-96.99000031415927
 20
-63.43600000000002
 30
0.0
 11
-96.06200031415927
 21
-59.97399999999998
 31
0.0
  0
LINE
  5
320
330
A
100
AcDbEntity
  8
PV
  6
Continuous
 62
     7
100
AcDbLine
 10
-96.06200031415927
 20
-146.9739999999999
 30
0.0
 11
-96.06200031415927
 21
-143.5109999999999
 31
0.0
  0
LINE
  5
321
330
A
100
AcDbEntity
  8
PV
  6
Continuous
 62
     7
100
AcDbLine
 10
-96.06200031415927
 20
-146.9739999999999
 30
0.0
 11
-96.99000031415927
 21
-143.5109999999999
 31
0.0
  0
LINE
  5
322
330
A
100
AcDbEntity
  8
PV
  6
Continuous
 62
     7
100
AcDbLine
 10
-95.13400031415926
 20
-143.5109999999999
 30
0.0
 11
-96.06200031415927
 21
-146.9739999999999
 31
0.0
  0
POINT
  5
323
330
A
100
AcDbEntity
  8
PV
  6
Continuous
 62
     7
100
AcDbPoint
 10
-36.75700031415925
 20
-208.1929999999999
 30
0.0
  0
POINT
  5
324
330
A
100
AcDbEntity
  8
PV
  6
Continuous
 62
     7
100
AcDbPoint
 10
-36.75700031415925
 20
-191.474
 30
0.0
  0
POINT
  5
325
330
A
100
AcDbEntity
  8
PV
  6
Continuous
 62
     7
100
AcDbPoint
 10
50.24299968584074
 20
-191.474
 30
0.0
  0
MTEXT
  5
326
330
A
100
AcDbEntity
  8
PV
  6
Continuous
 62
     7
100
AcDbMText
 10
25.56499968584073
 20
-197.4096669999999
 30
0.0
 40
8.4
 41
0.0
 71
     2
 72
     1
  1
\T0.933;\W1.040;\A1;\U+220587
 73
     1
 44
1.0
  0
LINE
  5
327
330
A
100
AcDbEntity
  8
PV
  6
Continuous
 62
     7
100
AcDbLine
 10
-36.75700031415925
 20
-194.649
 30
0.0
 11
-36.75700031415925
 21
-212.7649999999999
 31
0.0
  0
LINE
  5
328
330
A
100
AcDbEntity
  8
PV
  6
Continuous
 62
     7
100
AcDbLine
 10
50.24299968584074
 20
-194.649
 30
0.0
 11
50.24299968584074
 21
-212.7649999999999
 31
0.0
  0
LINE
  5
329
330
A
100
AcDbEntity
  8
PV
  6
Continuous
 62
     7
100
AcDbLine
 10
50.24299968584074
 20
-208.1929999999999
 30
0.0
 11
-36.75700031415925
 21
-208.1929999999999
 31
0.0
  0
LINE
  5
32A
330
A
100
AcDbEntity
  8
PV
  6
Continuous
 62
     7
100
AcDbLine
 10
-36.75700031415925
 20
-208.1929999999999
 30
0.0
 11
-33.29400031415927
 21
-208.1929999999999
 31
0.0
  0
LINE
  5
32B
330
A
100
AcDbEntity
  8
PV
  6
Continuous
 62
     7
100
AcDbLine
 10
-36.75700031415925
 20
-208.1929999999999
 30
0.0
 11
-33.29400031415927
 21
-207.2649999999999
 31
0.0
  0
LINE
  5
32C
330
A
100
AcDbEntity
  8
PV
  6
Continuous
 62
     7
100
AcDbLine
 10
-33.29400031415927
 20
-209.1199999999999
 30
0.0
 11
-36.75700031415925
 21
-208.1929999999999
 31
0.0
  0
LINE
  5
32D
330
A
100
AcDbEntity
  8
PV
  6
Continuous
 62
     7
100
AcDbLine
 10
50.24299968584074
 20
-208.1929999999999
 30
0.0
 11
46.78099968584072
 21
-208.1929999999999
 31
0.0
  0
LINE
  5
32E
330
A
100
AcDbEntity
  8
PV
  6
Continuous
 62
     7
100
AcDbLine
 10
50.24299968584074
 20
-208.1929999999999
 30
0.0
 11
46.78099968584072
 21
-209.1199999999999
 31
0.0
  0
LINE
  5
32F
330
A
100
AcDbEntity
  8
PV
  6
Continuous
 62
     7
100
AcDbLine
 10
46.78099968584072
 20
-207.2649999999999
 30
0.0
 11
50.24299968584074
 21
-208.1929999999999
 31
0.0
  0
POINT
  5
330
330
A
100
AcDbEntity
  8
PV
  6
Continuous
 62
     7
100
AcDbPoint
 10
-81.25700031415926
 20
-228.1699999999999
 30
0.0
  0
POINT
  5
331
330
A
100
AcDbEntity
  8
PV
  6
Continuous
 62
     7
100
AcDbPoint
 10
-81.25700031415926
 20
-146.9739999999999
 30
0.0
  0
POINT
  5
332
330
A
100
AcDbEntity
  8
PV
  6
Continuous
 62
     7
100
AcDbPoint
 10
6.742999685840731
 20
-198.7759999999999
 30
0.0
  0
MTEXT
  5
333
330
A
100
AcDbEntity
  8
PV
  6
Continuous
 62
     7
100
AcDbMText
 10
-37.25700031415925
 20
-217.3866669999999
 30
0.0
 40
8.4
 41
0.0
 71
     2
 72
     1
  1
\W0.952;\A1;88
 73
     1
 44
1.0
  0
LINE
  5
334
330
A
100
AcDbEntity
  8
PV
  6
Continuous
 62
     7
100
AcDbLine
 10
-81.25700031415926
 20
-154.149
 30
0.0
 11
-81.25700031415926
 21
-231.027
 31
0.0
  0
LINE
  5
335
330
A
100
AcDbEntity
  8
PV
  6
Continuous
 62
     7
100
AcDbLine
 10
6.742999685840731
 20
-205.9509999999999
 30
0.0
 11
6.742999685840731
 21
-231.027
 31
0.0
  0
LINE
  5
336
330
A
100
AcDbEntity
  8
PV
  6
Continuous
 62
     7
100
AcDbLine
 10
6.742999685840731
 20
-228.1699999999999
 30
0.0
 11
-81.25700031415926
 21
-228.1699999999999
 31
0.0
  0
LINE
  5
337
330
A
100
AcDbEntity
  8
PV
  6
Continuous
 62
     7
100
AcDbLine
 10
-81.25700031415926
 20
-228.1699999999999
 30
0.0
 11
-77.79400031415926
 21
-228.1699999999999
 31
0.0
  0
LINE
  5
338
330
A
100
AcDbEntity
  8
PV
  6
Continuous
 62
     7
100
AcDbLine
 10
-81.25700031415926
 20
-228.1699999999999
 30
0.0
 11
-77.79400031415926
 21
-227.242
 31
0.0
  0
LINE
  5
339
330
A
100
AcDbEntity
  8
PV
  6
Continuous
 62
     7
100
AcDbLine
 10
-77.79400031415926
 20
-229.0969999999999
 30
0.0
 11
-81.25700031415926
 21
-228.1699999999999
 31
0.0
  0
LINE
  5
33A
330
A
100
AcDbEntity
  8
PV
  6
Continuous
 62
     7
100
AcDbLine
 10
6.742999685840731
 20
-228.1699999999999
 30
0.0
 11
3.280999685840732
 21
-228.1699999999999
 31
0.0
  0
LINE
  5
33B
330
A
100
AcDbEntity
  8
PV
  6
Continuous
 62
     7
100
AcDbLine
 10
6.742999685840731
 20
-228.1699999999999
 30
0.0
 11
3.280999685840732
 21
-229.0969999999999
 31
0.0
  0
LINE
  5
33C
330
A
100
AcDbEntity
  8
PV
  6
Continuous
 62
     7
100
AcDbLine
 10
3.280999685840732
 20
-227.242
 30
0.0
 11
6.742999685840731
 21
-228.1699999999999
 31
0.0
  0
POINT
  5
33D
330
A
100
AcDbEntity
  8
PV
  6
Continuous
 62
     7
100
AcDbPoint
 10
74.66199968584072
 20
-12.97399999999998
 30
0.0
  0
POINT
  5
33E
330
A
100
AcDbEntity
  8
PV
  6
Continuous
 62
     7
100
AcDbPoint
 10
36.74299968584072
 20
-12.97399999999998
 30
0.0
  0
POINT
  5
33F
330
A
100
AcDbEntity
  8
PV
  6
Continuous
 62
     7
100
AcDbPoint
 10
115.6659996858407
 20
13.026
 30
0.0
  0
MTEXT
  5
340
330
A
100
AcDbEntity
  8
PV
  6
Continuous
 62
     7
100
AcDbMText
 10
63.87866668584074
 20
0.0260000000000069
 30
0.0
 40
8.4
 41
0.0
 71
     2
 72
     1
  1
\W0.952;\A1;26
 11
0.0
 21
1.0
 31
0.0
 73
     1
 44
1.0
  0
LINE
  5
341
330
A
100
AcDbEntity
  8
PV
  6
Continuous
 62
     7
100
AcDbLine
 10
39.91799968584072
 20
-12.97399999999998
 30
0.0
 11
79.23399968584073
 21
-12.97399999999998
 31
0.0
  0
LINE
  5
342
330
A
100
AcDbEntity
  8
PV
  6
Continuous
 62
     7
100
AcDbLine
 10
74.66199968584072
 20
13.026
 30
0.0
 11
74.66199968584072
 21
-12.97399999999998
 31
0.0
  0
LINE
  5
343
330
A
100
AcDbEntity
  8
PV
  6
Continuous
 62
     7
100
AcDbLine
 10
74.66199968584072
 20
-12.97399999999998
 30
0.0
 11
74.66199968584072
 21
-9.510999999999988
 31
0.0
  0
LINE
  5
344
330
A
100
AcDbEntity
  8
PV
  6
Continuous
 62
     7
100
AcDbLine
 10
74.66199968584072
 20
-12.97399999999998
 30
0.0
 11
73.73399968584073
 21
-9.510999999999988
 31
0.0
  0
LINE
  5
345
330
A
100
AcDbEntity
  8
PV
  6
Continuous
 62
     7
100
AcDbLine
 10
75.58899968584075
 20
-9.510999999999988
 30
0.0
 11
74.66199968584072
 21
-12.97399999999998
 31
0.0
  0
LINE
  5
346
330
A
100
AcDbEntity
  8
PV
  6
Continuous
 62
     7
100
AcDbLine
 10
74.66199968584072
 20
13.026
 30
0.0
 11
74.66199968584072
 21
9.564000000000007
 31
0.0
  0
LINE
  5
347
330
A
100
AcDbEntity
  8
PV
  6
Continuous
 62
     7
100
AcDbLine
 10
74.66199968584072
 20
13.026
 30
0.0
 11
75.58899968584075
 21
9.564000000000007
 31
0.0
  0
LINE
  5
348
330
A
100
AcDbEntity
  8
PV
  6
Continuous
 62
     7
100
AcDbLine
 10
73.73399968584073
 20
9.564000000000007
 30
0.0
 11
74.66199968584072
 21
13.026
 31
0.0
  0
POINT
  5
349
330
A
100
AcDbEntity
  8
PV
  6
Continuous
 62
     7
100
AcDbPoint
 10
36.74299968584072
 20
39.08400000000002
 30
0.0
  0
POINT
  5
34A
330
A
100
AcDbEntity
  8
PV
  6
Continuous
 62
     7
100
AcDbPoint
 10
36.74299968584072
 20
-12.97399999999998
 30
0.0
  0
POINT
  5
34B
330
A
100
AcDbEntity
  8
PV
  6
Continuous
 62
     7
100
AcDbPoint
 10
-23.25700031415926
 20
-12.97399999999998
 30
0.0
  0
MTEXT
  5
34C
330
A
100
AcDbEntity
  8
PV
  6
Continuous
 62
     7
100
AcDbMText
 10
6.742999685840731
 20
49.867333
 30
0.0
 40
8.4
 41
0.0
 71
     2
 72
     1
  1
\T1.012;\W1.012;\A1;\U+220560
 73
     1
 44
1.0
  0
LINE
  5
34D
330
A
100
AcDbEntity
  8
PV
  6
Continuous
 62
     7
100
AcDbLine
 10
36.74299968584072
 20
-9.798999999999988
 30
0.0
 11
36.74299968584072
 21
43.65600000000003
 31
0.0
  0
LINE
  5
34E
330
A
100
AcDbEntity
  8
PV
  6
Continuous
 62
     7
100
AcDbLine
 10
-23.25700031415926
 20
-9.798999999999988
 30
0.0
 11
-23.25700031415926
 21
43.65600000000003
 31
0.0
  0
LINE
  5
34F
330
A
100
AcDbEntity
  8
PV
  6
Continuous
 62
     7
100
AcDbLine
 10
-23.25700031415926
 20
39.08400000000002
 30
0.0
 11
36.74299968584072
 21
39.08400000000002
 31
0.0
  0
LINE
  5
350
330
A
100
AcDbEntity
  8
PV
  6
Continuous
 62
     7
100
AcDbLine
 10
36.74299968584072
 20
39.08400000000002
 30
0.0
 11
33.28099968584072
 21
39.08400000000002
 31
0.0
  0
LINE
  5
351
330
A
100
AcDbEntity
  8
PV
  6
Continuous
 62
     7
100
AcDbLine
 10
36.74299968584072
 20
39.08400000000002
 30
0.0
 11
33.28099968584072
 21
38.15599999999999
 31
0.0
  0
LINE
  5
352
330
A
100
AcDbEntity
  8
PV
  6
Continuous
 62
     7
100
AcDbLine
 10
33.28099968584072
 20
40.012
 30
0.0
 11
36.74299968584072
 21
39.08400000000002
 31
0.0
  0
LINE
  5
353
330
A
100
AcDbEntity
  8
PV
  6
Continuous
 62
     7
100
AcDbLine
 10
-23.25700031415926
 20
39.08400000000002
 30
0.0
 11
-19.79400031415926
 21
39.08400000000002
 31
0.0
  0
LINE
  5
354
330
A
100
AcDbEntity
  8
PV
  6
Continuous
 62
     7
100
AcDbLine
 10
-23.25700031415926
 20
39.08400000000002
 30
0.0
 11
-19.79400031415926
 21
40.012
 31
0.0
  0
LINE
  5
355
330
A
100
AcDbEntity
  8
PV
  6
Continuous
 62
     7
100
AcDbLine
 10
-19.79400031415926
 20
38.15599999999999
 30
0.0
 11
-23.25700031415926
 21
39.08400000000002
 31
0.0
  0
POINT
  5
356
330
A
100
AcDbEntity
  8
PV
  6
Continuous
 62
     7
100
AcDbPoint
 10
74.66199968584072
 20
-15.47399999999998
 30
0.0
  0
POINT
  5
357
330
A
100
AcDbEntity
  8
PV
  6
Continuous
 62
     7
100
AcDbPoint
 10
34.74299968584073
 20
-15.47399999999998
 30
0.0
  0
POINT
  5
358
330
A
100
AcDbEntity
  8
PV
  6
Continuous
 62
     7
100
AcDbPoint
 10
36.74299968584072
 20
-12.97399999999998
 30
0.0
  0
MTEXT
  5
359
330
A
100
AcDbEntity
  8
PV
  6
Continuous
 62
     7
100
AcDbMText
 10
77.77278813763475
 20
43.5569861490774
 30
0.0
 40
8.4
 41
0.0
 71
     2
 72
     1
  1
\A1;2.5～27.5
 11
0.0
 21
1.0
 31
0.0
 73
     1
 44
1.0
  0
LINE
  5
35A
330
A
100
AcDbEntity
  8
PV
  6
Continuous
 62
     7
100
AcDbLine
 10
74.66199968584072
 20
-15.47399999999998
 30
0.0
 11
74.66199968584072
 21
-23.41099999999999
 31
0.0
  0
LINE
  5
35B
330
A
100
AcDbEntity
  8
PV
  6
Continuous
 62
     7
100
AcDbLine
 10
89.20899968584079
 20
-5.824999999999989
 30
0.0
 11
89.20899968584079
 21
71.28862444629248
 31
0.0
  0
LINE
  5
35C
330
A
100
AcDbEntity
  8
PV
  6
Continuous
 62
     7
100
AcDbLine
 10
74.66199968584072
 20
-14.22399999999998
 30
0.0
 11
89.20899968584079
 21
-5.824999999999989
 31
0.0
  0
LINE
  5
35D
330
A
100
AcDbEntity
  8
PV
  6
Continuous
 62
     7
100
AcDbLine
 10
37.91799968584072
 20
-15.47399999999998
 30
0.0
 11
79.23399968584073
 21
-15.47399999999998
 31
0.0
  0
LINE
  5
35E
330
A
100
AcDbEntity
  8
PV
  6
Continuous
 62
     7
100
AcDbLine
 10
74.66199968584072
 20
1.776000000000006
 30
0.0
 11
74.66199968584072
 21
-12.97399999999998
 31
0.0
  0
LINE
  5
35F
330
A
100
AcDbEntity
  8
PV
  6
Continuous
 62
     7
100
AcDbLine
 10
74.66199968584072
 20
-12.97399999999998
 30
0.0
 11
74.66199968584072
 21
-15.47399999999998
 31
0.0
  0
LINE
  5
360
330
A
100
AcDbEntity
  8
PV
  6
Continuous
 62
     7
100
AcDbLine
 10
74.66199968584072
 20
-15.47399999999998
 30
0.0
 11
74.66199968584072
 21
-18.93599999999999
 31
0.0
  0
LINE
  5
361
330
A
100
AcDbEntity
  8
PV
  6
Continuous
 62
     7
100
AcDbLine
 10
74.66199968584072
 20
-15.47399999999998
 30
0.0
 11
75.58899968584075
 21
-18.93599999999999
 31
0.0
  0
LINE
  5
362
330
A
100
AcDbEntity
  8
PV
  6
Continuous
 62
     7
100
AcDbLine
 10
73.73399968584073
 20
-18.93599999999999
 30
0.0
 11
74.66199968584072
 21
-15.47399999999998
 31
0.0
  0
LINE
  5
363
330
A
100
AcDbEntity
  8
PV
  6
Continuous
 62
     7
100
AcDbLine
 10
74.66199968584072
 20
-14.22399999999998
 30
0.0
 11
77.65999968584075
 21
-12.49299999999999
 31
0.0
  0
LINE
  5
364
330
A
100
AcDbEntity
  8
PV
  6
Continuous
 62
     7
100
AcDbLine
 10
74.66199968584072
 20
-14.22399999999998
 30
0.0
 11
77.19599968584074
 21
-11.68899999999998
 31
0.0
  0
LINE
  5
365
330
A
100
AcDbEntity
  8
PV
  6
Continuous
 62
     7
100
AcDbLine
 10
78.12399968584074
 20
-13.29599999999999
 30
0.0
 11
74.66199968584072
 21
-14.22399999999998
 31
0.0
  0
POINT
  5
366
330
A
100
AcDbEntity
  8
PV
  6
Continuous
 62
     7
100
AcDbPoint
 10
106.6649996858407
 20
-15.47399999999998
 30
0.0
  0
POINT
  5
367
330
A
100
AcDbEntity
  8
PV
  6
Continuous
 62
     7
100
AcDbPoint
 10
34.74299968584073
 20
-15.47399999999998
 30
0.0
  0
POINT
  5
368
330
A
100
AcDbEntity
  8
PV
  6
Continuous
 62
     7
100
AcDbPoint
 10
32.24299968584073
 20
13.026
 30
0.0
  0
MTEXT
  5
369
330
A
100
AcDbEntity
  8
PV
  6
Continuous
 62
     7
100
AcDbMText
 10
95.80675290121796
 20
47.09805491996688
 30
0.0
 40
8.4
 41
0.0
 71
     2
 72
     1
  1
\A1;28.5～53.5
 11
0.0
 21
1.0
 31
0.0
 73
     1
 44
1.0
  0
LINE
  5
36A
330
A
100
AcDbEntity
  8
PV
  6
Continuous
 62
     7
100
AcDbLine
 10
106.6649996858407
 20
78.67715379288347
 30
0.0
 11
106.6649996858407
 21
13.026
 31
0.0
  0
LINE
  5
36B
330
A
100
AcDbEntity
  8
PV
  6
Continuous
 62
     7
100
AcDbLine
 10
106.6649996858407
 20
13.026
 30
0.0
 11
106.6649996858407
 21
-15.47399999999998
 31
0.0
  0
LINE
  5
36C
330
A
100
AcDbEntity
  8
PV
  6
Continuous
 62
     7
100
AcDbLine
 10
106.6649996858407
 20
-15.47399999999998
 30
0.0
 11
106.6649996858407
 21
-12.01099999999999
 31
0.0
  0
LINE
  5
36D
330
A
100
AcDbEntity
  8
PV
  6
Continuous
 62
     7
100
AcDbLine
 10
106.6649996858407
 20
-15.47399999999998
 30
0.0
 11
105.7379996858407
 21
-12.01099999999999
 31
0.0
  0
LINE
  5
36E
330
A
100
AcDbEntity
  8
PV
  6
Continuous
 62
     7
100
AcDbLine
 10
107.5929996858407
 20
-12.01099999999999
 30
0.0
 11
106.6649996858407
 21
-15.47399999999998
 31
0.0
  0
LINE
  5
36F
330
A
100
AcDbEntity
  8
PV
  6
Continuous
 62
     7
100
AcDbLine
 10
106.6649996858407
 20
13.026
 30
0.0
 11
106.6649996858407
 21
9.564000000000007
 31
0.0
  0
LINE
  5
370
330
A
100
AcDbEntity
  8
PV
  6
Continuous
 62
     7
100
AcDbLine
 10
106.6649996858407
 20
13.026
 30
0.0
 11
107.5929996858407
 21
9.564000000000007
 31
0.0
  0
LINE
  5
371
330
A
100
AcDbEntity
  8
PV
  6
Continuous
 62
     7
100
AcDbLine
 10
105.7379996858407
 20
9.564000000000007
 30
0.0
 11
106.6649996858407
 21
13.026
 31
0.0
  0
POINT
  5
372
330
A
100
AcDbEntity
  8
PV
  6
Continuous
 62
     7
100
AcDbPoint
 10
123.5959996858406
 20
-191.474
 30
0.0
  0
POINT
  5
373
330
A
100
AcDbEntity
  8
PV
  6
Continuous
 62
     7
100
AcDbPoint
 10
50.24299968584074
 20
-191.474
 30
0.0
  0
POINT
  5
374
330
A
100
AcDbEntity
  8
PV
  6
Continuous
 62
     7
100
AcDbPoint
 10
32.24299968584073
 20
13.026
 30
0.0
  0
MTEXT
  5
375
330
A
100
AcDbEntity
  8
PV
  6
Continuous
 62
     7
100
AcDbMText
 10
112.8126666858406
 20
-86.47400000000001
 30
0.0
 40
8.4
 41
0.0
 71
     2
 72
     1
  1
\A1;204.5～229.5
 11
0.0
 21
1.0
 31
0.0
 73
     1
 44
1.0
  0
LINE
  5
376
330
A
100
AcDbEntity
  8
PV
  6
Continuous
 62
     7
100
AcDbLine
 10
53.41799968584073
 20
-191.474
 30
0.0
 11
128.1679996858406
 21
-191.474
 31
0.0
  0
LINE
  5
377
330
A
100
AcDbEntity
  8
PV
  6
Continuous
 62
     7
100
AcDbLine
 10
35.41799968584072
 20
13.026
 30
0.0
 11
128.1679996858406
 21
13.026
 31
0.0
  0
LINE
  5
378
330
A
100
AcDbEntity
  8
PV
  6
Continuous
 62
     7
100
AcDbLine
 10
123.5959996858406
 20
13.026
 30
0.0
 11
123.5959996858406
 21
-191.474
 31
0.0
  0
LINE
  5
379
330
A
100
AcDbEntity
  8
PV
  6
Continuous
 62
     7
100
AcDbLine
 10
123.5959996858406
 20
-191.474
 30
0.0
 11
123.5959996858406
 21
-188.0109999999999
 31
0.0
  0
LINE
  5
37A
330
A
100
AcDbEntity
  8
PV
  6
Continuous
 62
     7
100
AcDbLine
 10
123.5959996858406
 20
-191.474
 30
0.0
 11
122.6679996858407
 21
-188.0109999999999
 31
0.0
  0
LINE
  5
37B
330
A
100
AcDbEntity
  8
PV
  6
Continuous
 62
     7
100
AcDbLine
 10
124.5229996858407
 20
-188.0109999999999
 30
0.0
 11
123.5959996858406
 21
-191.474
 31
0.0
  0
LINE
  5
37C
330
A
100
AcDbEntity
  8
PV
  6
Continuous
 62
     7
100
AcDbLine
 10
123.5959996858406
 20
13.026
 30
0.0
 11
123.5959996858406
 21
9.564000000000007
 31
0.0
  0
LINE
  5
37D
330
A
100
AcDbEntity
  8
PV
  6
Continuous
 62
     7
100
AcDbLine
 10
123.5959996858406
 20
13.026
 30
0.0
 11
124.5229996858407
 21
9.564000000000007
 31
0.0
  0
LINE
  5
37E
330
A
100
AcDbEntity
  8
PV
  6
Continuous
 62
     7
100
AcDbLine
 10
122.6679996858407
 20
9.564000000000007
 30
0.0
 11
123.5959996858406
 21
13.026
 31
0.0
  0
POINT
  5
37F
330
A
100
AcDbEntity
  8
PV
  6
Continuous
 62
     7
100
AcDbPoint
 10
106.6649996858407
 20
-191.474
 30
0.0
  0
POINT
  5
380
330
A
100
AcDbEntity
  8
PV
  6
Continuous
 62
     7
100
AcDbPoint
 10
50.24299968584074
 20
-191.474
 30
0.0
  0
POINT
  5
381
330
A
100
AcDbEntity
  8
PV
  6
Continuous
 62
     7
100
AcDbPoint
 10
34.74299968584073
 20
-15.47399999999998
 30
0.0
  0
MTEXT
  5
382
330
A
100
AcDbEntity
  8
PV
  6
Continuous
 62
     7
100
AcDbMText
 10
95.88166668584074
 20
-103.4739999999999
 30
0.0
 40
8.4
 41
0.0
 71
     2
 72
     1
  1
\A1;176
 11
0.0
 21
1.0
 31
0.0
 73
     1
 44
1.0
  0
LINE
  5
383
330
A
100
AcDbEntity
  8
PV
  6
Continuous
 62
     7
100
AcDbLine
 10
53.41799968584073
 20
-191.474
 30
0.0
 11
111.2369996858407
 21
-191.474
 31
0.0
  0
LINE
  5
384
330
A
100
AcDbEntity
  8
PV
  6
Continuous
 62
     7
100
AcDbLine
 10
37.91799968584072
 20
-15.47399999999998
 30
0.0
 11
111.2369996858407
 21
-15.47399999999998
 31
0.0
  0
LINE
  5
385
330
A
100
AcDbEntity
  8
PV
  6
Continuous
 62
     7
100
AcDbLine
 10
106.6649996858407
 20
-15.47399999999998
 30
0.0
 11
106.6649996858407
 21
-191.474
 31
0.0
  0
LINE
  5
386
330
A
100
AcDbEntity
  8
PV
  6
Continuous
 62
     7
100
AcDbLine
 10
106.6649996858407
 20
-191.474
 30
0.0
 11
106.6649996858407
 21
-188.0109999999999
 31
0.0
  0
LINE
  5
387
330
A
100
AcDbEntity
  8
PV
  6
Continuous
 62
     7
100
AcDbLine
 10
106.6649996858407
 20
-191.474
 30
0.0
 11
105.7379996858407
 21
-188.0109999999999
 31
0.0
  0
LINE
  5
388
330
A
100
AcDbEntity
  8
PV
  6
Continuous
 62
     7
100
AcDbLine
 10
107.5929996858407
 20
-188.0109999999999
 30
0.0
 11
106.6649996858407
 21
-191.474
 31
0.0
  0
LINE
  5
389
330
A
100
AcDbEntity
  8
PV
  6
Continuous
 62
     7
100
AcDbLine
 10
106.6649996858407
 20
-15.47399999999998
 30
0.0
 11
106.6649996858407
 21
-18.93599999999999
 31
0.0
  0
LINE
  5
38A
330
A
100
AcDbEntity
  8
PV
  6
Continuous
 62
     7
100
AcDbLine
 10
106.6649996858407
 20
-15.47399999999998
 30
0.0
 11
107.5929996858407
 21
-18.93599999999999
 31
0.0
  0
LINE
  5
38B
330
A
100
AcDbEntity
  8
PV
  6
Continuous
 62
     7
100
AcDbLine
 10
105.7379996858407
 20
-18.93599999999999
 30
0.0
 11
106.6649996858407
 21
-15.47399999999998
 31
0.0
  0
POINT
  5
38C
330
A
100
AcDbEntity
  8
PV
  6
Continuous
 62
     7
100
AcDbPoint
 10
61.743
 20
206.104
 30
0.0
  0
POINT
  5
38D
330
A
100
AcDbEntity
  8
PV
  6
Continuous
 62
     7
100
AcDbPoint
 10
61.743
 20
185.439
 30
0.0
  0
POINT
  5
38E
330
A
100
AcDbEntity
  8
PV
  6
Continuous
 62
     7
100
AcDbPoint
 10
-81.257
 20
180.939
 30
0.0
  0
MTEXT
  5
38F
330
A
100
AcDbEntity
  8
PV
  6
Continuous
 62
     7
100
AcDbMText
 10
-9.756999999999999
 20
216.887333
 30
0.0
 40
8.4
 41
0.0
 71
     2
 72
     1
  1
\A1;143
 73
     1
 44
1.0
  0
LINE
  5
390
330
A
100
AcDbEntity
  8
PV
  6
Continuous
 62
     7
100
AcDbLine
 10
61.743
 20
188.614
 30
0.0
 11
61.743
 21
208.962
 31
0.0
  0
LINE
  5
391
330
A
100
AcDbEntity
  8
PV
  6
Continuous
 62
     7
100
AcDbLine
 10
-81.257
 20
184.114
 30
0.0
 11
-81.257
 21
208.962
 31
0.0
  0
LINE
  5
392
330
A
100
AcDbEntity
  8
PV
  6
Continuous
 62
     7
100
AcDbLine
 10
-81.257
 20
206.104
 30
0.0
 11
61.743
 21
206.104
 31
0.0
  0
LINE
  5
393
330
A
100
AcDbEntity
  8
PV
  6
Continuous
 62
     7
100
AcDbLine
 10
61.743
 20
206.104
 30
0.0
 11
58.281
 21
206.104
 31
0.0
  0
LINE
  5
394
330
A
100
AcDbEntity
  8
PV
  6
Continuous
 62
     7
100
AcDbLine
 10
61.743
 20
206.104
 30
0.0
 11
58.281
 21
205.177
 31
0.0
  0
LINE
  5
395
330
A
100
AcDbEntity
  8
PV
  6
Continuous
 62
     7
100
AcDbLine
 10
58.281
 20
207.032
 30
0.0
 11
61.743
 21
206.104
 31
0.0
  0
LINE
  5
396
330
A
100
AcDbEntity
  8
PV
  6
Continuous
 62
     7
100
AcDbLine
 10
-81.257
 20
206.104
 30
0.0
 11
-77.79399999999998
 21
206.104
 31
0.0
  0
LINE
  5
397
330
A
100
AcDbEntity
  8
PV
  6
Continuous
 62
     7
100
AcDbLine
 10
-81.257
 20
206.104
 30
0.0
 11
-77.79399999999998
 21
207.032
 31
0.0
  0
LINE
  5
398
330
A
100
AcDbEntity
  8
PV
  6
Continuous
 62
     7
100
AcDbLine
 10
-77.79399999999998
 20
205.177
 30
0.0
 11
-81.257
 21
206.104
 31
0.0
  0
POINT
  5
399
330
A
100
AcDbEntity
  8
PV
  6
Continuous
 62
     7
100
AcDbPoint
 10
61.74299968584072
 20
-137.097
 30
0.0
  0
POINT
  5
39A
330
A
100
AcDbEntity
  8
PV
  6
Continuous
 62
     7
100
AcDbPoint
 10
61.74299968584072
 20
-148.9739999999999
 30
0.0
  0
POINT
  5
39B
330
A
100
AcDbEntity
  8
PV
  6
Continuous
 62
     7
100
AcDbPoint
 10
-48.25700031415927
 20
-141.956
 30
0.0
  0
MTEXT
  5
39C
330
A
100
AcDbEntity
  8
PV
  6
Continuous
 62
     7
100
AcDbMText
 10
29.08799968584073
 20
-126.3136669999999
 30
0.0
 40
8.4
 41
0.0
 71
     2
 72
     1
  1
\A1;\U+2205110
 73
     1
 44
1.0
  0
LINE
  5
39D
330
A
100
AcDbEntity
  8
PV
  6
Continuous
 62
     7
100
AcDbLine
 10
-48.25700031415927
 20
-138.7809999999998
 30
0.0
 11
-48.25700031415927
 21
-134.24
 31
0.0
  0
LINE
  5
39E
330
A
100
AcDbEntity
  8
PV
  6
Continuous
 62
     7
100
AcDbLine
 10
-48.25700031415927
 20
-137.097
 30
0.0
 11
61.74299968584072
 21
-137.097
 31
0.0
  0
LINE
  5
39F
330
A
100
AcDbEntity
  8
PV
  6
Continuous
 62
     7
100
AcDbLine
 10
61.74299968584072
 20
-137.097
 30
0.0
 11
58.28099968584074
 21
-137.097
 31
0.0
  0
LINE
  5
3A0
330
A
100
AcDbEntity
  8
PV
  6
Continuous
 62
     7
100
AcDbLine
 10
61.74299968584072
 20
-137.097
 30
0.0
 11
58.28099968584074
 21
-138.0249999999999
 31
0.0
  0
LINE
  5
3A1
330
A
100
AcDbEntity
  8
PV
  6
Continuous
 62
     7
100
AcDbLine
 10
58.28099968584074
 20
-136.1689999999998
 30
0.0
 11
61.74299968584072
 21
-137.097
 31
0.0
  0
LINE
  5
3A2
330
A
100
AcDbEntity
  8
PV
  6
Continuous
 62
     7
100
AcDbLine
 10
-48.25700031415927
 20
-137.097
 30
0.0
 11
-44.79400031415926
 21
-137.097
 31
0.0
  0
LINE
  5
3A3
330
A
100
AcDbEntity
  8
PV
  6
Continuous
 62
     7
100
AcDbLine
 10
-48.25700031415927
 20
-137.097
 30
0.0
 11
-44.79400031415926
 21
-136.1689999999998
 31
0.0
  0
LINE
  5
3A4
330
A
100
AcDbEntity
  8
PV
  6
Continuous
 62
     7
100
AcDbLine
 10
-44.79400031415926
 20
-138.0249999999999
 30
0.0
 11
-48.25700031415927
 21
-137.097
 31
0.0
  0
ENDSEC
  0
SECTION
  2
OBJECTS
  0
DICTIONARY
  5
19
330
0
100
AcDbDictionary
281
     1
  3
ACAD_GROUP
350
1A
  3
ACAD_LAYOUT
350
1E
  3
ACAD_MLINESTYLE
350
1B
  3
ACAD_PLOTSETTINGS
350
22
  3
ACAD_PLOTSTYLENAME
350
1F
  3
DWGPROPS
350
3AD
  0
DICTIONARY
  5
1A
102
{ACAD_REACTORS
330
19
102
}
330
19
100
AcDbDictionary
281
     1
  0
DICTIONARY
  5
1E
102
{ACAD_REACTORS
330
19
102
}
330
19
100
AcDbDictionary
281
     1
  3
Layout1
350
21
  3
Model
350
20
  0
DICTIONARY
  5
1B
102
{ACAD_REACTORS
330
19
102
}
330
19
100
AcDbDictionary
281
     1
  3
Standard
350
1C
  0
DICTIONARY
  5
22
102
{ACAD_REACTORS
330
19
102
}
330
19
100
AcDbDictionary
281
     1
  0
ACDBDICTIONARYWDFLT
  5
1F
102
{ACAD_REACTORS
330
19
102
}
330
19
100
AcDbDictionary
281
     1
  3
Normal
350
1D
100
AcDbDictionaryWithDefault
340
1D
  0
XRECORD
  5
3AD
102
{ACAD_REACTORS
330
19
102
}
330
19
100
AcDbXrecord
280
     1
  1
DWGPROPS COOKIE
  2

  3

  4

  6

  7

  8

  9

300
=
301
=
302
=
303
=
304
=
305
=
306
=
307
=
308
=
309
=
 40
0.0200038310185185
 41
2455289.367844907
 42
2455289.387832928
  1

 90
        0
  0
LAYOUT
  5
21
102
{ACAD_REACTORS
330
1E
102
}
330
1E
100
AcDbPlotSettings
  1

  2

  4

  6

 40
0.0
 41
0.0
 42
0.0
 43
0.0
 44
0.0
 45
0.0
 46
0.0
 47
0.0
 48
0.0
 49
0.0
140
0.0
141
0.0
142
1.0
143
1.0
 70
     0
 72
     0
 73
     0
 74
     0
  7

 75
     0
147
1.0
148
0.0
149
0.0
100
AcDbLayout
  1
Layout1
 70
     0
 71
     1
 10
0.0
 20
0.0
 11
12.0
 21
9.0
 12
0.0
 22
0.0
 32
0.0
 14
1.000000000000000E+20
 24
1.000000000000000E+20
 34
1.000000000000000E+20
 15
-1.000000000000000E+20
 25
-1.000000000000000E+20
 35
-1.000000000000000E+20
146
0.0
 13
0.0
 23
0.0
 33
0.0
 16
1.0
 26
0.0
 36
0.0
 17
0.0
 27
1.0
 37
0.0
 76
     0
330
B
  0
LAYOUT
  5
20
102
{ACAD_REACTORS
330
1E
102
}
330
1E
100
AcDbPlotSettings
  1

  2
Adobe PDF
  4
A4
  6

 40
3.174999952316283
 41
3.174999952316283
 42
3.175003051757812
 43
3.17498779296875
 44
209.9098358154297
 45
297.0318298339843
 46
19.48
 47
0.0
 48
0.0
 49
0.0
140
0.0
141
0.0
142
1.0
143
1.547101565645002
 70
 11284
 72
     1
 73
     0
 74
     2
  7

 75
     0
147
0.6463699748006461
148
126.479333
149
230.027
100
AcDbLayout
  1
Model
 70
     0
 71
     0
 10
0.0
 20
0.0
 11
0.0
 21
0.0
 12
0.0
 22
0.0
 32
0.0
 14
0.0
 24
0.0
 34
0.0
 15
0.0
 25
0.0
 35
0.0
146
0.0
 13
0.0
 23
0.0
 33
0.0
 16
0.0
 26
0.0
 36
0.0
 17
0.0
 27
0.0
 37
0.0
 76
     0
330
A
  0
MLINESTYLE
  5
1C
102
{ACAD_REACTORS
330
1B
102
}
330
1B
100
AcDbMlineStyle
  2
STANDARD
 70
     0
  3

 62
     0
 51
90.0
 52
90.0
 71
     2
 49
0.5
 62
   256
  6
BYLAYER
 49
-0.5
 62
   256
  6
BYLAYER
  0
ACDBPLACEHOLDER
  5
1D
102
{ACAD_REACTORS
330
1F
102
}
330
1F
  0
ENDSEC
  0
EOF
