  0
SECTION
  2
HEADER
  9
$ACADVER
  1
AC1015
  9
$ACADMAINTVER
 70
    10
  9
$DWGCODEPAGE
  3
ANSI_932
  9
$INSBASE
 10
0.0
 20
0.0
 30
0.0
  9
$EXTMIN
 10
-257.4864551856542
 20
-226.8374681922977
 30
-0.0000000349181948
  9
$EXTMAX
 10
164.6449230110745
 20
220.4886602935534
 30
0.0000000814935747
  9
$LIMMIN
 10
-260.261333
 20
-226.81
  9
$LIMMAX
 10
164.618988
 20
223.256333
  9
$ORTHOMODE
 70
     0
  9
$REGENMODE
 70
     1
  9
$FILLMODE
 70
     1
  9
$QTEXTMODE
 70
     0
  9
$MIRRTEXT
 70
     1
  9
$LTSCALE
 40
0.3
  9
$ATTMODE
 70
     1
  9
$TEXTSIZE
 40
3.2
  9
$TRACEWID
 40
0.05
  9
$TEXTSTYLE
  7
MX_NOTE_STANDARD
  9
$CLAYER
  8
0
  9
$CELTYPE
  6
CONTINUOUS
  9
$CECOLOR
 62
   256
  9
$CELTSCALE
 40
1.0
  9
$DISPSILH
 70
     0
  9
$DIMSCALE
 40
1.0
  9
$DIMASZ
 40
2.5
  9
$DIMEXO
 40
2.54
  9
$DIMDLI
 40
3.75
  9
$DIMRND
 40
0.0
  9
$DIMDLE
 40
0.0
  9
$DIMEXE
 40
2.286
  9
$DIMTP
 40
0.0
  9
$DIMTM
 40
0.0
  9
$DIMTXT
 40
3.2
  9
$DIMCEN
 40
2.5
  9
$DIMTSZ
 40
0.0
  9
$DIMTOL
 70
     0
  9
$DIMLIM
 70
     0
  9
$DIMTIH
 70
     0
  9
$DIMTOH
 70
     0
  9
$DIMSE1
 70
     0
  9
$DIMSE2
 70
     0
  9
$DIMTAD
 70
     1
  9
$DIMZIN
 70
     8
  9
$DIMBLK
  1

  9
$DIMASO
 70
     1
  9
$DIMSHO
 70
     1
  9
$DIMPOST
  1

  9
$DIMAPOST
  1

  9
$DIMALT
 70
     0
  9
$DIMALTD
 70
     4
  9
$DIMALTF
 40
0.03937
  9
$DIMLFAC
 40
1.0
  9
$DIMTOFL
 70
     1
  9
$DIMTVP
 40
0.0
  9
$DIMTIX
 70
     0
  9
$DIMSOXD
 70
     0
  9
$DIMSAH
 70
     1
  9
$DIMBLK1
  1
OPEN30
  9
$DIMBLK2
  1
OPEN30
  9
$DIMSTYLE
  2
MXDIMSTYLE
  9
$DIMCLRD
 70
     0
  9
$DIMCLRE
 70
     0
  9
$DIMCLRT
 70
     0
  9
$DIMTFAC
 40
1.0
  9
$DIMGAP
 40
1.0
  9
$DIMJUST
 70
     0
  9
$DIMSD1
 70
     0
  9
$DIMSD2
 70
     0
  9
$DIMTOLJ
 70
     0
  9
$DIMTZIN
 70
     0
  9
$DIMALTZ
 70
     0
  9
$DIMALTTZ
 70
     0
  9
$DIMUPT
 70
     1
  9
$DIMDEC
 70
     2
  9
$DIMTDEC
 70
     2
  9
$DIMALTU
 70
     2
  9
$DIMALTTD
 70
     4
  9
$DIMTXSTY
  7
MX_NOTE_STANDARD
  9
$DIMAUNIT
 70
     0
  9
$DIMADEC
 70
     0
  9
$DIMALTRND
 40
0.0
  9
$DIMAZIN
 70
     0
  9
$DIMDSEP
 70
    46
  9
$DIMATFIT
 70
     3
  9
$DIMFRAC
 70
     0
  9
$DIMLDRBLK
  1
OPEN30
  9
$DIMLUNIT
 70
     2
  9
$DIMLWD
 70
    -2
  9
$DIMLWE
 70
    -2
  9
$DIMTMOVE
 70
     0
  9
$LUNITS
 70
     2
  9
$LUPREC
 70
     4
  9
$SKETCHINC
 40
0.1
  9
$FILLETRAD
 40
0.0
  9
$AUNITS
 70
     0
  9
$AUPREC
 70
     0
  9
$MENU
  1
acad
  9
$ELEVATION
 40
0.0
  9
$PELEVATION
 40
0.0
  9
$THICKNESS
 40
0.0
  9
$LIMCHECK
 70
     0
  9
$CHAMFERA
 40
0.0
  9
$CHAMFERB
 40
0.0
  9
$CHAMFERC
 40
0.0
  9
$CHAMFERD
 40
0.0
  9
$SKPOLY
 70
     0
  9
$TDCREATE
 40
2455288.645800567
  9
$TDUCREATE
 40
2455288.270800567
  9
$TDUPDATE
 40
2455289.611886828
  9
$TDUUPDATE
 40
2455289.236886828
  9
$TDINDWG
 40
0.0029870139
  9
$TDUSRTIMER
 40
0.0029870139
  9
$USRTIMER
 70
     1
  9
$ANGBASE
 50
0.0
  9
$ANGDIR
 70
     0
  9
$PDMODE
 70
     0
  9
$PDSIZE
 40
0.0
  9
$PLINEWID
 40
0.0
  9
$SPLFRAME
 70
     0
  9
$SPLINETYPE
 70
     6
  9
$SPLINESEGS
 70
     8
  9
$HANDSEED
  5
2A3
  9
$SURFTAB1
 70
     6
  9
$SURFTAB2
 70
     6
  9
$SURFTYPE
 70
     6
  9
$SURFU
 70
     6
  9
$SURFV
 70
     6
  9
$UCSBASE
  2

  9
$UCSNAME
  2

  9
$UCSORG
 10
0.0
 20
0.0
 30
0.0
  9
$UCSXDIR
 10
1.0
 20
0.0
 30
0.0
  9
$UCSYDIR
 10
0.0
 20
1.0
 30
0.0
  9
$UCSORTHOREF
  2

  9
$UCSORTHOVIEW
 70
     0
  9
$UCSORGTOP
 10
0.0
 20
0.0
 30
0.0
  9
$UCSORGBOTTOM
 10
0.0
 20
0.0
 30
0.0
  9
$UCSORGLEFT
 10
0.0
 20
0.0
 30
0.0
  9
$UCSORGRIGHT
 10
0.0
 20
0.0
 30
0.0
  9
$UCSORGFRONT
 10
0.0
 20
0.0
 30
0.0
  9
$UCSORGBACK
 10
0.0
 20
0.0
 30
0.0
  9
$PUCSBASE
  2

  9
$PUCSNAME
  2

  9
$PUCSORG
 10
0.0
 20
0.0
 30
0.0
  9
$PUCSXDIR
 10
1.0
 20
0.0
 30
0.0
  9
$PUCSYDIR
 10
0.0
 20
1.0
 30
0.0
  9
$PUCSORTHOREF
  2

  9
$PUCSORTHOVIEW
 70
     0
  9
$PUCSORGTOP
 10
0.0
 20
0.0
 30
0.0
  9
$PUCSORGBOTTOM
 10
0.0
 20
0.0
 30
0.0
  9
$PUCSORGLEFT
 10
0.0
 20
0.0
 30
0.0
  9
$PUCSORGRIGHT
 10
0.0
 20
0.0
 30
0.0
  9
$PUCSORGFRONT
 10
0.0
 20
0.0
 30
0.0
  9
$PUCSORGBACK
 10
0.0
 20
0.0
 30
0.0
  9
$USERI1
 70
     0
  9
$USERI2
 70
     0
  9
$USERI3
 70
     0
  9
$USERI4
 70
     0
  9
$USERI5
 70
     0
  9
$USERR1
 40
0.0
  9
$USERR2
 40
0.0
  9
$USERR3
 40
0.0
  9
$USERR4
 40
0.0
  9
$USERR5
 40
0.0
  9
$WORLDVIEW
 70
     1
  9
$SHADEDGE
 70
     3
  9
$SHADEDIF
 70
    70
  9
$TILEMODE
 70
     1
  9
$MAXACTVP
 70
    16
  9
$PINSBASE
 10
0.0
 20
0.0
 30
0.0
  9
$PLIMCHECK
 70
     0
  9
$PEXTMIN
 10
1.000000000000000E+20
 20
1.000000000000000E+20
 30
1.000000000000000E+20
  9
$PEXTMAX
 10
-1.000000000000000E+20
 20
-1.000000000000000E+20
 30
-1.000000000000000E+20
  9
$PLIMMIN
 10
0.0
 20
0.0
  9
$PLIMMAX
 10
12.0
 20
9.0
  9
$UNITMODE
 70
     0
  9
$VISRETAIN
 70
     0
  9
$PLINEGEN
 70
     1
  9
$PSLTSCALE
 70
     0
  9
$TREEDEPTH
 70
  3020
  9
$CMLSTYLE
  2
Standard
  9
$CMLJUST
 70
     0
  9
$CMLSCALE
 40
1.0
  9
$PROXYGRAPHICS
 70
     0
  9
$MEASUREMENT
 70
     1
  9
$CELWEIGHT
370
     0
  9
$ENDCAPS
280
     0
  9
$JOINSTYLE
280
     0
  9
$LWDISPLAY
290
     0
  9
$INSUNITS
 70
     0
  9
$HYPERLINKBASE
  1

  9
$STYLESHEET
  1

  9
$XEDIT
290
     1
  9
$CEPSNTYPE
380
     0
  9
$PSTYLEMODE
290
     1
  9
$FINGERPRINTGUID
  2

  9
$VERSIONGUID
  2
{8F48111F-4051-4153-920C-4C84C033CCB7}
  9
$EXTNAMES
290
     1
  9
$PSVPSCALE
 40
0.0
  9
$OLESTARTUP
290
     0
  0
ENDSEC
  0
SECTION
  2
CLASSES
  0
CLASS
  1
LWPOLYLINE
  2
AcDbPolyline
  3
AutoCAD 2000
 90
    32768
280
     0
281
     1
  0
CLASS
  1
IMAGE
  2
AcDbRasterImage
  3
ISM
 90
    32895
280
     0
281
     1
  0
CLASS
  1
OLE2FRAME
  2
AcDbOle2Frame
  3
AutoCAD 2000
 90
    32768
280
     0
281
     1
  0
CLASS
  1
HATCH
  2
AcDbHatch
  3
AutoCAD 2000
 90
    32768
280
     0
281
     1
  0
CLASS
  1
DICTIONARYVAR
  2
AcDbDictionaryVar
  3
AutoCAD 2000
 90
    32768
280
     0
281
     0
  0
CLASS
  1
RASTERVARIABLES
  2
AcDbRasterVariables
  3
ISM
 90
    32768
280
     0
281
     0
  0
CLASS
  1
IMAGEDEF
  2
AcDbRasterImageDef
  3
ISM
 90
    32768
280
     0
281
     0
  0
CLASS
  1
IMAGEDEF_REACTOR
  2
AcDbRasterImageDefReactor
  3
ISM
 90
    32769
280
     0
281
     0
  0
CLASS
  1
IDBUFFER
  2
AcDbIdBuffer
  3
AutoCAD 2000
 90
    32768
280
     0
281
     0
  0
CLASS
  1
SPATIAL_FILTER
  2
AcDbSpatialFilter
  3
AutoCAD 2000
 90
    32768
280
     0
281
     0
  0
CLASS
  1
XRECORD
  2
AcDbXrecord
  3
AutoCAD 2000
 90
    32768
280
     0
281
     0
  0
CLASS
  1
SORTENTSTABLE
  2
AcDbSortentsTable
  3
AutoCAD 2000
 90
    32768
280
     0
281
     0
  0
CLASS
  1
LAYER_INDEX
  2
AcDbLayerIndex
  3
AutoCAD 2000
 90
    32768
280
     0
281
     0
  0
CLASS
  1
SPATIAL_INDEX
  2
AcDbSpatialIndex
  3
AutoCAD 2000
 90
    32768
280
     0
281
     0
  0
CLASS
  1
OBJECT_PTR
  2
CAseDLPNTableRecord
  3
"ASE-LPNTableRecord"
 90
    32769
280
     0
281
     0
  0
CLASS
  1
LAYOUT
  2
AcDbLayout
  3
AutoCAD 2000
 90
        0
280
     0
281
     0
  0
CLASS
  1
PLOTSETTINGS
  2
AcDbPlotSettings
  3
AutoCAD 2000
 90
    32768
280
     0
281
     0
  0
CLASS
  1
ACDBDICTIONARYWDFLT
  2
AcDbDictionaryWithDefault
  3
AutoCAD 2000
 90
        0
280
     0
281
     0
  0
CLASS
  1
ACDBPLACEHOLDER
  2
AcDbPlaceHolder
  3
AutoCAD 2000
 90
        0
280
     0
281
     0
  0
ENDSEC
  0
SECTION
  2
TABLES
  0
TABLE
  2
VPORT
  5
7
330
0
100
AcDbSymbolTable
 70
     2
  0
VPORT
  5
2A2
330
7
100
AcDbSymbolTableRecord
100
AcDbViewportTableRecord
  2
*Active
 70
     0
 10
0.0
 20
0.0
 11
1.0
 21
1.0
 12
-55.01441489848156
 22
-9.339434830892855
 13
0.0
 23
0.0
 14
1.0
 24
1.0
 15
0.0
 25
0.0
 16
0.0
 26
0.0
 36
1.0
 17
0.0
 27
0.0
 37
0.0
 40
512.6820964981559
 41
1.535714285714285
 42
50.0
 43
0.0
 44
0.0
 50
0.0
 51
0.0
 71
     0
 72
   100
 73
     1
 74
     1
 75
     0
 76
     0
 77
     0
 78
     0
281
     0
 65
     0
110
0.0
120
0.0
130
0.0
111
1.0
121
0.0
131
0.0
112
0.0
122
1.0
132
0.0
 79
     0
146
0.0
  0
ENDTAB
  0
TABLE
  2
LTYPE
  5
4
330
0
100
AcDbSymbolTable
 70
     2
  0
LTYPE
  5
11
330
4
100
AcDbSymbolTableRecord
100
AcDbLinetypeTableRecord
  2
BYBLOCK
 70
     0
  3

 72
    65
 73
     0
 40
0.0
  0
LTYPE
  5
12
330
4
100
AcDbSymbolTableRecord
100
AcDbLinetypeTableRecord
  2
BYLAYER
 70
     0
  3

 72
    65
 73
     0
 40
0.0
  0
LTYPE
  5
13
330
4
100
AcDbSymbolTableRecord
100
AcDbLinetypeTableRecord
  2
CONTINUOUS
 70
     0
  3
Solid line
 72
    65
 73
     0
 40
0.0
  0
LTYPE
  5
223
330
4
100
AcDbSymbolTableRecord
100
AcDbLinetypeTableRecord
  2
CENTER
 70
     0
  3
Center ____ _ ____ _ ____ _ ____ _ ____ _ ____
 72
    65
 73
     4
 40
50.8
 49
31.75
 74
     0
 49
-6.349999999999998
 74
     0
 49
6.349999999999998
 74
     0
 49
-6.349999999999998
 74
     0
  0
ENDTAB
  0
TABLE
  2
LAYER
  5
2
330
0
100
AcDbSymbolTable
 70
     6
  0
LAYER
  5
14
330
2
100
AcDbSymbolTableRecord
100
AcDbLayerTableRecord
  2
0
 70
     0
 62
     7
  6
CONTINUOUS
370
    -3
390
1D
  0
LAYER
  5
23
330
2
100
AcDbSymbolTableRecord
100
AcDbLayerTableRecord
  2
AV
 70
     0
 62
     7
  6
CONTINUOUS
370
    -3
390
1D
  0
LAYER
  5
24
330
2
100
AcDbSymbolTableRecord
100
AcDbLayerTableRecord
  2
CV
 70
     0
 62
     7
  6
CONTINUOUS
370
    -3
390
1D
  0
LAYER
  5
25
330
2
100
AcDbSymbolTableRecord
100
AcDbLayerTableRecord
  2
DEFPOINTS
 70
     0
 62
     7
  6
CONTINUOUS
290
     0
370
    -3
390
1D
  0
LAYER
  5
26
330
2
100
AcDbSymbolTableRecord
100
AcDbLayerTableRecord
  2
PV
 70
     0
 62
     7
  6
CONTINUOUS
370
    -3
390
1D
  0
LAYER
  5
27
330
2
100
AcDbSymbolTableRecord
100
AcDbLayerTableRecord
  2
WV
 70
     0
 62
     7
  6
CONTINUOUS
370
    -3
390
1D
  0
ENDTAB
  0
TABLE
  2
STYLE
  5
3
330
0
100
AcDbSymbolTable
 70
     2
  0
STYLE
  5
17
330
3
100
AcDbSymbolTableRecord
100
AcDbTextStyleTableRecord
  2
MX_NOTE_STANDARD
 70
     0
 40
0.0
 41
1.0
 50
0.0
 71
     0
 42
3.2
  3
txt.shx
  4
extfont.shx
  0
STYLE
  5
298
330
3
100
AcDbSymbolTableRecord
100
AcDbTextStyleTableRecord
  2
Standard
 70
     0
 40
0.0
 41
1.0
 50
0.0
 71
     0
 42
0.2
  3

  4

  0
ENDTAB
  0
TABLE
  2
VIEW
  5
5
330
0
100
AcDbSymbolTable
 70
     0
  0
ENDTAB
  0
TABLE
  2
UCS
  5
6
330
0
100
AcDbSymbolTable
 70
     0
  0
ENDTAB
  0
TABLE
  2
APPID
  5
8
330
0
100
AcDbSymbolTable
 70
     1
  0
APPID
  5
16
330
8
100
AcDbSymbolTableRecord
100
AcDbRegAppTableRecord
  2
ACAD
 70
     0
  0
ENDTAB
  0
TABLE
  2
DIMSTYLE
  5
9
330
0
100
AcDbSymbolTable
 70
     1
100
AcDbDimStyleTable
 71
     0
  0
DIMSTYLE
105
18
330
9
100
AcDbSymbolTableRecord
100
AcDbDimStyleTableRecord
  2
MXDIMSTYLE
 70
     0
 41
2.5
 42
2.54
 43
3.75
 44
2.286
 73
     0
 74
     0
 77
     1
 78
     8
140
3.2
141
2.5
143
0.03937
147
1.0
171
     4
172
     1
173
     1
271
     2
272
     2
274
     4
283
     0
288
     1
340
17
341
28
343
28
344
28
  0
ENDTAB
  0
TABLE
  2
BLOCK_RECORD
  5
1
330
0
100
AcDbSymbolTable
 70
     1
  0
BLOCK_RECORD
  5
A
330
1
100
AcDbSymbolTableRecord
100
AcDbBlockTableRecord
  2
*MODEL_SPACE
340
20
  0
BLOCK_RECORD
  5
B
330
1
100
AcDbSymbolTableRecord
100
AcDbBlockTableRecord
  2
*PAPER_SPACE
340
21
  0
BLOCK_RECORD
  5
28
330
1
100
AcDbSymbolTableRecord
100
AcDbBlockTableRecord
  2
_OPEN30
340
0
  0
ENDTAB
  0
ENDSEC
  0
SECTION
  2
BLOCKS
  0
BLOCK
  5
D
330
A
100
AcDbEntity
  8
0
100
AcDbBlockBegin
  2
*MODEL_SPACE
 70
     0
 10
0.0
 20
0.0
 30
0.0
  3
*MODEL_SPACE
  1

  0
ENDBLK
  5
E
330
A
100
AcDbEntity
  8
0
100
AcDbBlockEnd
  0
BLOCK
  5
F
330
B
100
AcDbEntity
 67
     1
  8
0
100
AcDbBlockBegin
  2
*PAPER_SPACE
 70
     0
 10
0.0
 20
0.0
 30
0.0
  3
*PAPER_SPACE
  1

  0
ENDBLK
  5
10
330
B
100
AcDbEntity
 67
     1
  8
0
100
AcDbBlockEnd
  0
BLOCK
  5
29
330
28
100
AcDbEntity
  8
0
  6
ByBlock
 62
     0
370
    -2
100
AcDbBlockBegin
  2
_OPEN30
 70
     2
 10
0.0
 20
0.0
 30
0.0
  3
_OPEN30
  1

  0
LINE
  5
2A
330
28
100
AcDbEntity
  8
0
  6
ByBlock
 62
     0
370
    -2
100
AcDbLine
 10
-1.0
 20
0.267949
 30
0.0
 11
0.0
 21
0.0
 31
0.0
  0
LINE
  5
2B
330
28
100
AcDbEntity
  8
0
  6
ByBlock
 62
     0
370
    -2
100
AcDbLine
 10
0.0
 20
0.0
 30
0.0
 11
-1.0
 21
-0.267949
 31
0.0
  0
LINE
  5
2C
330
28
100
AcDbEntity
  8
0
  6
ByBlock
 62
     0
370
    -2
100
AcDbLine
 10
0.0
 20
0.0
 30
0.0
 11
-1.0
 21
0.0
 31
0.0
  0
ENDBLK
  5
2D
330
28
100
AcDbEntity
  8
0
  6
ByBlock
 62
     0
370
    -2
100
AcDbBlockEnd
  0
ENDSEC
  0
SECTION
  2
ENTITIES
  0
LEADER
  5
2E
330
A
100
AcDbEntity
  8
0
  6
Continuous
 62
     7
100
AcDbLeader
  3
MXDIMSTYLE
 74
     0
 76
     2
 10
79.62399999999998
 20
29.021
 30
0.0
 10
111.613293
 20
84.44743299999997
 30
0.0
1001
ACAD
1000
DSTYLE
1002
{
1070
    41
1040
2.77
1002
}
  0
MTEXT
  5
2F
330
A
100
AcDbEntity
  8
0
  6
Continuous
 62
     7
100
AcDbMText
 10
114.2189909999999
 20
91.74743300000001
 30
0.0
 40
8.4
 41
0.0
 71
     4
 72
     1
  1
\W1.139;\A1;Rc 1/8
 73
     1
 44
0.9
  0
LEADER
  5
30
330
A
100
AcDbEntity
  8
0
  6
Continuous
 62
     7
100
AcDbLeader
  3
MXDIMSTYLE
 74
     0
 76
     3
 10
79.62399999999998
 20
-16.47899999999999
 30
0.0
 10
111.613293
 20
84.44743299999997
 30
0.0
 10
164.618988
 20
84.44743299999997
 30
0.0
1001
ACAD
1000
DSTYLE
1002
{
1070
    41
1040
2.77
1002
}
  0
LINE
  5
31
330
A
100
AcDbEntity
  8
PV
  6
Continuous
 62
     7
100
AcDbLine
 10
-21.96699999999999
 20
194.5439999999999
 30
0.0
 11
-21.039
 21
198.0059999999999
 31
0.0
  0
LINE
  5
32
330
A
100
AcDbEntity
  8
PV
  6
Continuous
 62
     7
100
AcDbLine
 10
-21.039
 20
198.0059999999999
 30
0.0
 11
-20.111
 21
194.5439999999999
 31
0.0
  0
LINE
  5
33
330
A
100
AcDbEntity
  8
PV
  6
Continuous
 62
     7
100
AcDbLine
 10
-21.039
 20
198.0059999999999
 30
0.0
 11
-21.039
 21
194.5439999999999
 31
0.0
  0
LINE
  5
34
330
A
100
AcDbEntity
  8
PV
  6
Continuous
 62
     7
100
AcDbLine
 10
-20.111
 20
91.469
 30
0.0
 11
-21.039
 21
88.00600000000001
 31
0.0
  0
LINE
  5
35
330
A
100
AcDbEntity
  8
PV
  6
Continuous
 62
     7
100
AcDbLine
 10
-21.039
 20
88.00600000000001
 30
0.0
 11
-21.96699999999999
 21
91.469
 31
0.0
  0
LINE
  5
36
330
A
100
AcDbEntity
  8
PV
  6
Continuous
 62
     7
100
AcDbLine
 10
-21.039
 20
88.00600000000001
 30
0.0
 11
-21.039
 21
91.469
 31
0.0
  0
LINE
  5
37
330
A
100
AcDbEntity
  8
PV
  6
Continuous
 62
     7
100
AcDbLine
 10
-21.039
 20
198.0059999999999
 30
0.0
 11
-21.039
 21
88.00600000000001
 31
0.0
  0
LINE
  5
38
330
A
100
AcDbEntity
  8
PV
  6
Continuous
 62
     7
100
AcDbLine
 10
-69.20100000000001
 20
198.0059999999999
 30
0.0
 11
-18.18099999999998
 21
198.0059999999999
 31
0.0
  0
LINE
  5
39
330
A
100
AcDbEntity
  8
PV
  6
Continuous
 62
     7
100
AcDbLine
 10
-69.20100000000001
 20
88.00600000000001
 30
0.0
 11
-18.18099999999998
 21
88.00600000000001
 31
0.0
  0
MTEXT
  5
3A
330
A
100
AcDbEntity
  8
PV
  6
Continuous
 62
     7
100
AcDbMText
 10
-31.822333
 20
143.006
 30
0.0
 40
8.4
 41
0.0
 71
     2
 72
     1
  1
\A1;□110
 11
0.0
 21
1.0
 31
0.0
 73
     1
 44
1.0
  0
POINT
  5
3B
330
A
100
AcDbEntity
  8
PV
  6
Continuous
 62
     7
100
AcDbPoint
 10
-72.376
 20
198.0059999999999
 30
0.0
  0
POINT
  5
3C
330
A
100
AcDbEntity
  8
PV
  6
Continuous
 62
     7
100
AcDbPoint
 10
-72.376
 20
88.00600000000001
 30
0.0
  0
POINT
  5
3D
330
A
100
AcDbEntity
  8
PV
  6
Continuous
 62
     7
100
AcDbPoint
 10
-21.039
 20
88.00600000000001
 30
0.0
  0
SOLID
  5
3E
330
A
100
AcDbEntity
  8
PV
  6
Continuous
 62
     7
100
AcDbTrace
 10
-140.281
 20
170.815
 30
0.0
 11
-139.602
 21
170.815
 31
0.0
 12
-140.281
 22
174.208
 32
0.0
 13
-139.602
 23
174.208
 33
0.0
  0
SOLID
  5
3F
330
A
100
AcDbEntity
  8
PV
  6
Continuous
 62
     7
100
AcDbTrace
 10
-145.541
 20
170.815
 30
0.0
 11
-144.862
 21
170.815
 31
0.0
 12
-145.541
 22
174.208
 32
0.0
 13
-144.862
 23
174.208
 33
0.0
  0
SOLID
  5
40
330
A
100
AcDbEntity
  8
PV
  6
Continuous
 62
     7
100
AcDbTrace
 10
-124.468
 20
179.0979999999999
 30
0.0
 11
-122.1189999999999
 21
179.0979999999999
 31
0.0
 12
-124.468
 22
184.48
 32
0.0
 13
-122.1189999999999
 23
184.48
 33
0.0
  0
MTEXT
  5
41
330
A
100
AcDbEntity
  8
PV
  6
Continuous
 62
     7
100
AcDbMText
 10
-120.927
 20
109.9839999999999
 30
0.0
 40
2.274
 41
0.0
 71
     2
 72
     1
  1
\W0.980;\A1;MADE IN JAPAN
 73
     1
 44
1.0
  0
MTEXT
  5
42
330
A
100
AcDbEntity
  8
PV
  6
Continuous
 62
     7
100
AcDbMText
 10
-119.825
 20
121.0264999999999
 30
0.0
 40
3.941
 41
0.0
 71
     2
 72
     1
  1
\W0.930;\A1;METAL BELLOWS
 73
     1
 44
1.0
  0
MTEXT
  5
43
330
A
100
AcDbEntity
  8
PV
  6
Continuous
 62
     7
100
AcDbMText
 10
-120.371
 20
131.0105
 30
0.0
 40
3.941
 41
0.0
 71
     2
 72
     1
  1
\W0.925;\A1;HIGH VACUUM VALVES
 73
     1
 44
1.0
  0
CIRCLE
  5
44
330
A
100
AcDbEntity
  8
PV
  6
Continuous
 62
     7
100
AcDbCircle
 10
-120.376
 20
143.006
 30
0.0
 40
47.371
  0
CIRCLE
  5
45
330
A
100
AcDbEntity
  8
PV
  6
Continuous
 62
     7
100
AcDbCircle
 10
-120.376
 20
143.006
 30
0.0
 40
47.75
  0
ARC
  5
46
330
A
100
AcDbEntity
  8
PV
  6
Continuous
 62
   254
100
AcDbCircle
 10
-96.67100000000001
 20
172.5119999999999
 30
0.0
 40
1.696999999999999
100
AcDbArc
 50
359.999996
 51
90.00003000000003
  0
ARC
  5
47
330
A
100
AcDbEntity
  8
PV
  6
Continuous
 62
   254
100
AcDbCircle
 10
-96.67100000000001
 20
172.5119999999999
 30
0.0
 40
1.018
100
AcDbArc
 50
359.999996
 51
90.00003000000003
  0
ARC
  5
48
330
A
100
AcDbEntity
  8
PV
  6
Continuous
 62
   254
100
AcDbCircle
 10
-108.8889999999999
 20
172.5119999999999
 30
0.0
 40
1.696999999999999
100
AcDbArc
 50
359.999996
 51
89.999975
  0
ARC
  5
49
330
A
100
AcDbEntity
  8
PV
  6
Continuous
 62
   254
100
AcDbCircle
 10
-108.8889999999999
 20
172.5119999999999
 30
0.0
 40
1.018
100
AcDbArc
 50
359.999996
 51
89.999975
  0
ARC
  5
4A
330
A
100
AcDbEntity
  8
PV
  6
Continuous
 62
   254
100
AcDbCircle
 10
-109.2279999999999
 20
172.5119999999999
 30
0.0
 40
1.018
100
AcDbArc
 50
179.999978
 51
270.000001
  0
ARC
  5
4B
330
A
100
AcDbEntity
  8
PV
  6
Continuous
 62
   254
100
AcDbCircle
 10
-109.2279999999999
 20
172.5119999999999
 30
0.0
 40
1.696999999999999
100
AcDbArc
 50
179.999978
 51
270.000001
  0
ARC
  5
4C
330
A
100
AcDbEntity
  8
PV
  6
Continuous
 62
   254
100
AcDbCircle
 10
-128.912
 20
172.5119999999999
 30
0.0
 40
1.696999999999999
100
AcDbArc
 50
179.999978
 51
270.000001
  0
ARC
  5
4D
330
A
100
AcDbEntity
  8
PV
  6
Continuous
 62
   254
100
AcDbCircle
 10
-128.912
 20
172.5119999999999
 30
0.0
 40
1.018
100
AcDbArc
 50
179.999978
 51
270.000001
  0
ARC
  5
4E
330
A
100
AcDbEntity
  8
PV
  6
Continuous
 62
   254
100
AcDbCircle
 10
-128.5719999999999
 20
172.5119999999999
 30
0.0
 40
1.018
100
AcDbArc
 50
359.999996
 51
89.999975
  0
ARC
  5
4F
330
A
100
AcDbEntity
  8
PV
  6
Continuous
 62
   254
100
AcDbCircle
 10
-128.5719999999999
 20
172.5119999999999
 30
0.0
 40
1.696999999999999
100
AcDbArc
 50
359.999996
 51
89.999975
  0
ARC
  5
50
330
A
100
AcDbEntity
  8
PV
  6
Continuous
 62
   254
100
AcDbCircle
 10
-141.8079999999999
 20
173.1899999999999
 30
0.0
 40
1.018
100
AcDbArc
 50
359.999996
 51
89.999975
  0
ARC
  5
51
330
A
100
AcDbEntity
  8
PV
  6
Continuous
 62
   254
100
AcDbCircle
 10
-141.8079999999999
 20
173.1899999999999
 30
0.0
 40
0.339
100
AcDbArc
 50
359.999996
 51
89.999975
  0
ARC
  5
52
330
A
100
AcDbEntity
  8
PV
  6
Continuous
 62
   254
100
AcDbCircle
 10
-112.7909999999999
 20
172.5119999999999
 30
0.0
 40
1.018
100
AcDbArc
 50
89.999975
 51
270.000001
  0
ARC
  5
53
330
A
100
AcDbEntity
  8
PV
  6
Continuous
 62
   254
100
AcDbCircle
 10
-112.7909999999999
 20
172.5119999999999
 30
0.0
 40
1.696999999999999
100
AcDbArc
 50
89.999975
 51
270.000001
  0
ARC
  5
54
330
A
100
AcDbEntity
  8
PV
  6
Continuous
 62
   254
100
AcDbCircle
 10
-96.67100000000001
 20
172.5119999999999
 30
0.0
 40
1.018
100
AcDbArc
 50
270.0000109999999
 51
359.999996
  0
ARC
  5
55
330
A
100
AcDbEntity
  8
PV
  6
Continuous
 62
   254
100
AcDbCircle
 10
-96.67100000000001
 20
172.5119999999999
 30
0.0
 40
1.696999999999999
100
AcDbArc
 50
270.0000109999999
 51
359.999996
  0
ARC
  5
56
330
A
100
AcDbEntity
  8
PV
  6
Continuous
 62
   254
100
AcDbCircle
 10
-103.6279999999998
 20
172.1719999999999
 30
0.0
 40
0.6790000000000001
100
AcDbArc
 50
179.999978
 51
270.000001
  0
ARC
  5
57
330
A
100
AcDbEntity
  8
PV
  6
Continuous
 62
   254
100
AcDbCircle
 10
-103.6279999999998
 20
172.1719999999999
 30
0.0
 40
1.356999999999999
100
AcDbArc
 50
179.999978
 51
270.000001
  0
CIRCLE
  5
58
330
A
100
AcDbEntity
  8
PV
  6
Continuous
 62
   254
100
AcDbCircle
 10
-106.852
 20
171.239
 30
0.0
 40
0.4240000000000001
  0
ARC
  5
59
330
A
100
AcDbEntity
  8
PV
  6
Continuous
 62
   254
100
AcDbCircle
 10
-105.766
 20
171.239
 30
0.0
 40
0.4240000000000001
100
AcDbArc
 50
319.9999189999998
 51
241.536827
  0
ARC
  5
5A
330
A
100
AcDbEntity
  8
PV
  6
Continuous
 62
   254
100
AcDbCircle
 10
-128.5719999999999
 20
172.5119999999999
 30
0.0
 40
1.018
100
AcDbArc
 50
270.0000109999999
 51
359.999996
  0
ARC
  5
5B
330
A
100
AcDbEntity
  8
PV
  6
Continuous
 62
   254
100
AcDbCircle
 10
-128.912
 20
172.5119999999999
 30
0.0
 40
1.018
100
AcDbArc
 50
89.999975
 51
179.99995
  0
ARC
  5
5C
330
A
100
AcDbEntity
  8
PV
  6
Continuous
 62
   254
100
AcDbCircle
 10
-128.5719999999999
 20
172.5119999999999
 30
0.0
 40
1.696999999999999
100
AcDbArc
 50
270.0000109999999
 51
359.999996
  0
ARC
  5
5D
330
A
100
AcDbEntity
  8
PV
  6
Continuous
 62
   254
100
AcDbCircle
 10
-128.912
 20
172.5119999999999
 30
0.0
 40
1.696999999999999
100
AcDbArc
 50
89.999975
 51
179.99995
  0
ARC
  5
5E
330
A
100
AcDbEntity
  8
PV
  6
Continuous
 62
   254
100
AcDbCircle
 10
-117.5429999999999
 20
172.6809999999999
 30
0.0
 40
0.848
100
AcDbArc
 50
359.999996
 51
89.999975
  0
ARC
  5
5F
330
A
100
AcDbEntity
  8
PV
  6
Continuous
 62
   254
100
AcDbCircle
 10
-117.8819999999999
 20
172.6809999999999
 30
0.0
 40
0.848
100
AcDbArc
 50
89.999975
 51
179.99995
  0
ARC
  5
60
330
A
100
AcDbEntity
  8
PV
  6
Continuous
 62
   254
100
AcDbCircle
 10
-117.5429999999999
 20
172.6809999999999
 30
0.0
 40
1.526999999999999
100
AcDbArc
 50
359.999996
 51
89.999975
  0
ARC
  5
61
330
A
100
AcDbEntity
  8
PV
  6
Continuous
 62
   254
100
AcDbCircle
 10
-117.8819999999999
 20
172.6809999999999
 30
0.0
 40
1.526999999999999
100
AcDbArc
 50
89.999975
 51
179.99995
  0
ARC
  5
62
330
A
100
AcDbEntity
  8
PV
  6
Continuous
 62
   254
100
AcDbCircle
 10
-137.566
 20
172.5119999999999
 30
0.0
 40
1.018
100
AcDbArc
 50
199.471211
 51
270.0000109999999
  0
ARC
  5
63
330
A
100
AcDbEntity
  8
PV
  6
Continuous
 62
   254
100
AcDbCircle
 10
-137.566
 20
172.5119999999999
 30
0.0
 40
1.018
100
AcDbArc
 50
89.999975
 51
160.528775
  0
ARC
  5
64
330
A
100
AcDbEntity
  8
PV
  6
Continuous
 62
   254
100
AcDbCircle
 10
-137.566
 20
172.5119999999999
 30
0.0
 40
1.696999999999999
100
AcDbArc
 50
89.999975
 51
270.000001
  0
ARC
  5
65
330
A
100
AcDbEntity
  8
PV
  6
Continuous
 62
   254
100
AcDbCircle
 10
-108.8889999999999
 20
172.5119999999999
 30
0.0
 40
1.018
100
AcDbArc
 50
270.0000109999999
 51
359.999996
  0
ARC
  5
66
330
A
100
AcDbEntity
  8
PV
  6
Continuous
 62
   254
100
AcDbCircle
 10
-109.2279999999999
 20
172.5119999999999
 30
0.0
 40
1.018
100
AcDbArc
 50
89.999975
 51
179.99995
  0
ARC
  5
67
330
A
100
AcDbEntity
  8
PV
  6
Continuous
 62
   254
100
AcDbCircle
 10
-108.8889999999999
 20
172.5119999999999
 30
0.0
 40
1.696999999999999
100
AcDbArc
 50
270.0000109999999
 51
359.999996
  0
ARC
  5
68
330
A
100
AcDbEntity
  8
PV
  6
Continuous
 62
   254
100
AcDbCircle
 10
-109.2279999999999
 20
172.5119999999999
 30
0.0
 40
1.696999999999999
100
AcDbArc
 50
89.999975
 51
179.99995
  0
ARC
  5
69
330
A
100
AcDbEntity
  8
PV
  6
Continuous
 62
   254
100
AcDbCircle
 10
-121.445
 20
172.5119999999999
 30
0.0
 40
1.018
100
AcDbArc
 50
199.471211
 51
270.0000109999999
  0
ARC
  5
6A
330
A
100
AcDbEntity
  8
PV
  6
Continuous
 62
   254
100
AcDbCircle
 10
-121.445
 20
172.5119999999999
 30
0.0
 40
1.018
100
AcDbArc
 50
89.999975
 51
160.528775
  0
ARC
  5
6B
330
A
100
AcDbEntity
  8
PV
  6
Continuous
 62
   254
100
AcDbCircle
 10
-121.445
 20
172.5119999999999
 30
0.0
 40
1.696999999999999
100
AcDbArc
 50
89.999975
 51
270.000001
  0
ARC
  5
6C
330
A
100
AcDbEntity
  8
PV
  6
Continuous
 62
   254
100
AcDbCircle
 10
-141.8079999999999
 20
173.1899999999999
 30
0.0
 40
0.339
100
AcDbArc
 50
270.0000109999999
 51
359.999996
  0
ARC
  5
6D
330
A
100
AcDbEntity
  8
PV
  6
Continuous
 62
   254
100
AcDbCircle
 10
-141.8079999999999
 20
173.1899999999999
 30
0.0
 40
1.018
100
AcDbArc
 50
273.7218359999999
 51
359.999996
  0
ARC
  5
6E
330
A
100
AcDbEntity
  8
PV
  6
Continuous
 62
     7
100
AcDbCircle
 10
-112.189
 20
181.789
 30
0.0
 40
1.516
100
AcDbArc
 50
269.9999969999999
 51
90.00000300000001
  0
ARC
  5
6F
330
A
100
AcDbEntity
  8
PV
  6
Continuous
 62
     7
100
AcDbCircle
 10
-112.189
 20
181.789
 30
0.0
 40
1.516
100
AcDbArc
 50
90.00000300000001
 51
270.000001
  0
ARC
  5
70
330
A
100
AcDbEntity
  8
PV
  6
Continuous
 62
     7
100
AcDbCircle
 10
-114.501
 20
181.789
 30
0.0
 40
2.691
100
AcDbArc
 50
34.225552
 51
325.774451
  0
ARC
  5
71
330
A
100
AcDbEntity
  8
PV
  6
Continuous
 62
     7
100
AcDbCircle
 10
-119.428
 20
181.789
 30
0.0
 40
1.478
100
AcDbArc
 50
269.9999969999999
 51
90.00000300000001
  0
ARC
  5
72
330
A
100
AcDbEntity
  8
PV
  6
Continuous
 62
     7
100
AcDbCircle
 10
-119.428
 20
181.789
 30
0.0
 40
1.478
100
AcDbArc
 50
90.00000300000001
 51
270.000001
  0
ARC
  5
73
330
A
100
AcDbEntity
  8
PV
  6
Continuous
 62
     7
100
AcDbCircle
 10
-119.428
 20
181.789
 30
0.0
 40
2.691
100
AcDbArc
 50
90.00000300000001
 51
270.000001
  0
ARC
  5
74
330
A
100
AcDbEntity
  8
PV
  6
Continuous
 62
     7
100
AcDbCircle
 10
-126.946
 20
183.04
 30
0.0
 40
1.439999999999999
100
AcDbArc
 50
179.9999909999999
 51
0.00001
  0
ARC
  5
75
330
A
100
AcDbEntity
  8
PV
  6
Continuous
 62
     7
100
AcDbCircle
 10
-126.946
 20
183.04
 30
0.0
 40
1.439999999999999
100
AcDbArc
 50
0.0
 51
180.000005
  0
LINE
  5
76
330
A
100
AcDbEntity
  8
PV
  6
Continuous
 62
   254
100
AcDbLine
 10
-128.912
 20
173.53
 30
0.0
 11
-128.5719999999999
 21
173.53
 31
0.0
  0
LINE
  5
77
330
A
100
AcDbEntity
  8
PV
  6
Continuous
 62
   254
100
AcDbLine
 10
-97.85899999999999
 20
172.5119999999999
 30
0.0
 11
-97.85899999999999
 21
171.493
 31
0.0
  0
LINE
  5
78
330
A
100
AcDbEntity
  8
PV
  6
Continuous
 62
   254
100
AcDbLine
 10
-98.53799999999999
 20
172.5119999999999
 30
0.0
 11
-98.53799999999999
 21
170.815
 31
0.0
  0
LINE
  5
79
330
A
100
AcDbEntity
  8
PV
  6
Continuous
 62
   254
100
AcDbLine
 10
-143.5049999999999
 20
173.1899999999999
 30
0.0
 11
-143.5049999999999
 21
172.8509999999999
 31
0.0
  0
LINE
  5
7A
330
A
100
AcDbEntity
  8
PV
  6
Continuous
 62
   254
100
AcDbLine
 10
-144.184
 20
173.1899999999999
 30
0.0
 11
-144.184
 21
170.815
 31
0.0
  0
LINE
  5
7B
330
A
100
AcDbEntity
  8
PV
  6
Continuous
 62
   254
100
AcDbLine
 10
-97.85899999999999
 20
173.53
 30
0.0
 11
-97.85899999999999
 21
172.5119999999999
 31
0.0
  0
LINE
  5
7C
330
A
100
AcDbEntity
  8
PV
  6
Continuous
 62
   254
100
AcDbLine
 10
-97.85899999999999
 20
171.493
 30
0.0
 11
-96.67100000000001
 21
171.493
 31
0.0
  0
LINE
  5
7D
330
A
100
AcDbEntity
  8
PV
  6
Continuous
 62
   254
100
AcDbLine
 10
-98.53799999999999
 20
174.208
 30
0.0
 11
-98.53799999999999
 21
172.5119999999999
 31
0.0
  0
LINE
  5
7E
330
A
100
AcDbEntity
  8
PV
  6
Continuous
 62
   254
100
AcDbLine
 10
-100.913
 20
170.815
 30
0.0
 11
-100.235
 21
170.815
 31
0.0
  0
LINE
  5
7F
330
A
100
AcDbEntity
  8
PV
  6
Continuous
 62
   254
100
AcDbLine
 10
-100.235
 20
173.53
 30
0.0
 11
-98.87700000000002
 21
173.53
 31
0.0
  0
LINE
  5
80
330
A
100
AcDbEntity
  8
PV
  6
Continuous
 62
   254
100
AcDbLine
 10
-98.53799999999999
 20
174.208
 30
0.0
 11
-96.67100000000001
 21
174.208
 31
0.0
  0
LINE
  5
81
330
A
100
AcDbEntity
  8
PV
  6
Continuous
 62
   254
100
AcDbLine
 10
-97.85899999999999
 20
173.53
 30
0.0
 11
-96.67100000000001
 21
173.53
 31
0.0
  0
LINE
  5
82
330
A
100
AcDbEntity
  8
PV
  6
Continuous
 62
   254
100
AcDbLine
 10
-100.913
 20
173.53
 30
0.0
 11
-100.913
 21
170.815
 31
0.0
  0
LINE
  5
83
330
A
100
AcDbEntity
  8
PV
  6
Continuous
 62
   254
100
AcDbLine
 10
-100.235
 20
173.53
 30
0.0
 11
-100.235
 21
170.815
 31
0.0
  0
LINE
  5
84
330
A
100
AcDbEntity
  8
PV
  6
Continuous
 62
   254
100
AcDbLine
 10
-102.271
 20
173.53
 30
0.0
 11
-100.913
 21
173.53
 31
0.0
  0
LINE
  5
85
330
A
100
AcDbEntity
  8
PV
  6
Continuous
 62
   254
100
AcDbLine
 10
-98.87700000000002
 20
174.208
 30
0.0
 11
-98.87700000000002
 21
173.53
 31
0.0
  0
LINE
  5
86
330
A
100
AcDbEntity
  8
PV
  6
Continuous
 62
   254
100
AcDbLine
 10
-102.271
 20
174.208
 30
0.0
 11
-102.271
 21
173.53
 31
0.0
  0
LINE
  5
87
330
A
100
AcDbEntity
  8
PV
  6
Continuous
 62
   254
100
AcDbLine
 10
-102.271
 20
174.208
 30
0.0
 11
-98.87700000000002
 21
174.208
 31
0.0
  0
LINE
  5
88
330
A
100
AcDbEntity
  8
PV
  6
Continuous
 62
   254
100
AcDbLine
 10
-104.986
 20
174.208
 30
0.0
 11
-104.3069999999999
 21
174.208
 31
0.0
  0
LINE
  5
89
330
A
100
AcDbEntity
  8
PV
  6
Continuous
 62
   254
100
AcDbLine
 10
-98.53799999999999
 20
170.815
 30
0.0
 11
-96.67100000000001
 21
170.815
 31
0.0
  0
LINE
  5
8A
330
A
100
AcDbEntity
  8
PV
  6
Continuous
 62
   254
100
AcDbLine
 10
-103.6279999999998
 20
171.493
 30
0.0
 11
-101.9309999999999
 21
171.493
 31
0.0
  0
LINE
  5
8B
330
A
100
AcDbEntity
  8
PV
  6
Continuous
 62
   254
100
AcDbLine
 10
-104.3069999999999
 20
174.208
 30
0.0
 11
-104.3069999999999
 21
172.1719999999999
 31
0.0
  0
LINE
  5
8C
330
A
100
AcDbEntity
  8
PV
  6
Continuous
 62
   254
100
AcDbLine
 10
-101.9309999999999
 20
171.493
 30
0.0
 11
-101.9309999999999
 21
170.815
 31
0.0
  0
LINE
  5
8D
330
A
100
AcDbEntity
  8
PV
  6
Continuous
 62
   254
100
AcDbLine
 10
-104.986
 20
174.208
 30
0.0
 11
-104.986
 21
172.1719999999999
 31
0.0
  0
LINE
  5
8E
330
A
100
AcDbEntity
  8
PV
  6
Continuous
 62
   254
100
AcDbLine
 10
-106.2559999999999
 20
170.524
 30
0.0
 11
-105.996
 21
170.3059999999998
 31
0.0
  0
LINE
  5
8F
330
A
100
AcDbEntity
  8
PV
  6
Continuous
 62
   254
100
AcDbLine
 10
-106.2559999999999
 20
170.524
 30
0.0
 11
-105.969
 21
170.8659999999999
 31
0.0
  0
LINE
  5
90
330
A
100
AcDbEntity
  8
PV
  6
Continuous
 62
   254
100
AcDbLine
 10
-105.996
 20
170.3059999999998
 30
0.0
 11
-105.441
 21
170.9659999999999
 31
0.0
  0
LINE
  5
91
330
A
100
AcDbEntity
  8
PV
  6
Continuous
 62
   254
100
AcDbLine
 10
-128.912
 20
171.493
 30
0.0
 11
-128.5719999999999
 21
171.493
 31
0.0
  0
LINE
  5
92
330
A
100
AcDbEntity
  8
PV
  6
Continuous
 62
   254
100
AcDbLine
 10
-128.912
 20
174.208
 30
0.0
 11
-128.5719999999999
 21
174.208
 31
0.0
  0
LINE
  5
93
330
A
100
AcDbEntity
  8
PV
  6
Continuous
 62
   254
100
AcDbLine
 10
-128.912
 20
170.815
 30
0.0
 11
-128.5719999999999
 21
170.815
 31
0.0
  0
LINE
  5
94
330
A
100
AcDbEntity
  8
PV
  6
Continuous
 62
   254
100
AcDbLine
 10
-116.694
 20
170.815
 30
0.0
 11
-116.015
 21
170.815
 31
0.0
  0
LINE
  5
95
330
A
100
AcDbEntity
  8
PV
  6
Continuous
 62
   254
100
AcDbLine
 10
-116.694
 20
172.6809999999999
 30
0.0
 11
-116.694
 21
170.815
 31
0.0
  0
LINE
  5
96
330
A
100
AcDbEntity
  8
PV
  6
Continuous
 62
   254
100
AcDbLine
 10
-118.73
 20
172.6809999999999
 30
0.0
 11
-118.73
 21
170.815
 31
0.0
  0
LINE
  5
97
330
A
100
AcDbEntity
  8
PV
  6
Continuous
 62
   254
100
AcDbLine
 10
-117.8819999999999
 20
173.53
 30
0.0
 11
-117.5429999999999
 21
173.53
 31
0.0
  0
LINE
  5
98
330
A
100
AcDbEntity
  8
PV
  6
Continuous
 62
   254
100
AcDbLine
 10
-116.015
 20
172.6809999999999
 30
0.0
 11
-116.015
 21
170.815
 31
0.0
  0
LINE
  5
99
330
A
100
AcDbEntity
  8
PV
  6
Continuous
 62
   254
100
AcDbLine
 10
-119.4089999999998
 20
172.6809999999999
 30
0.0
 11
-119.4089999999998
 21
170.815
 31
0.0
  0
LINE
  5
9A
330
A
100
AcDbEntity
  8
PV
  6
Continuous
 62
   254
100
AcDbLine
 10
-117.8819999999999
 20
174.208
 30
0.0
 11
-117.5429999999999
 21
174.208
 31
0.0
  0
LINE
  5
9B
330
A
100
AcDbEntity
  8
PV
  6
Continuous
 62
   254
100
AcDbLine
 10
-119.405
 20
170.815
 30
0.0
 11
-118.73
 21
170.815
 31
0.0
  0
LINE
  5
9C
330
A
100
AcDbEntity
  8
PV
  6
Continuous
 62
   254
100
AcDbLine
 10
-103.6279999999998
 20
170.815
 30
0.0
 11
-101.9309999999999
 21
170.815
 31
0.0
  0
LINE
  5
9D
330
A
100
AcDbEntity
  8
PV
  6
Continuous
 62
   254
100
AcDbLine
 10
-111.095
 20
173.53
 30
0.0
 11
-111.095
 21
174.208
 31
0.0
  0
LINE
  5
9E
330
A
100
AcDbEntity
  8
PV
  6
Continuous
 62
   254
100
AcDbLine
 10
-112.7909999999999
 20
173.53
 30
0.0
 11
-111.094
 21
173.53
 31
0.0
  0
LINE
  5
9F
330
A
100
AcDbEntity
  8
PV
  6
Continuous
 62
   254
100
AcDbLine
 10
-112.7909999999999
 20
171.493
 30
0.0
 11
-111.094
 21
171.493
 31
0.0
  0
LINE
  5
A0
330
A
100
AcDbEntity
  8
PV
  6
Continuous
 62
   254
100
AcDbLine
 10
-112.7909999999999
 20
174.208
 30
0.0
 11
-111.094
 21
174.208
 31
0.0
  0
LINE
  5
A1
330
A
100
AcDbEntity
  8
PV
  6
Continuous
 62
   254
100
AcDbLine
 10
-112.7909999999999
 20
170.815
 30
0.0
 11
-111.094
 21
170.815
 31
0.0
  0
LINE
  5
A2
330
A
100
AcDbEntity
  8
PV
  6
Continuous
 62
   254
100
AcDbLine
 10
-136.0389999999999
 20
171.493
 30
0.0
 11
-136.0389999999999
 21
170.815
 31
0.0
  0
LINE
  5
A3
330
A
100
AcDbEntity
  8
PV
  6
Continuous
 62
   254
100
AcDbLine
 10
-136.0389999999999
 20
172.8509999999999
 30
0.0
 11
-136.0389999999999
 21
172.1719999999999
 31
0.0
  0
LINE
  5
A4
330
A
100
AcDbEntity
  8
PV
  6
Continuous
 62
   254
100
AcDbLine
 10
-137.566
 20
171.493
 30
0.0
 11
-136.0389999999999
 21
171.493
 31
0.0
  0
LINE
  5
A5
330
A
100
AcDbEntity
  8
PV
  6
Continuous
 62
   254
100
AcDbLine
 10
-138.526
 20
172.8509999999999
 30
0.0
 11
-136.0389999999999
 21
172.8509999999999
 31
0.0
  0
LINE
  5
A6
330
A
100
AcDbEntity
  8
PV
  6
Continuous
 62
   254
100
AcDbLine
 10
-138.526
 20
172.1719999999999
 30
0.0
 11
-136.0389999999999
 21
172.1719999999999
 31
0.0
  0
LINE
  5
A7
330
A
100
AcDbEntity
  8
PV
  6
Continuous
 62
   254
100
AcDbLine
 10
-137.566
 20
170.815
 30
0.0
 11
-136.0389999999999
 21
170.815
 31
0.0
  0
LINE
  5
A8
330
A
100
AcDbEntity
  8
PV
  6
Continuous
 62
   254
100
AcDbLine
 10
-137.566
 20
174.208
 30
0.0
 11
-136.0389999999999
 21
174.208
 31
0.0
  0
LINE
  5
A9
330
A
100
AcDbEntity
  8
PV
  6
Continuous
 62
   254
100
AcDbLine
 10
-136.0389999999999
 20
174.208
 30
0.0
 11
-136.0389999999999
 21
173.53
 31
0.0
  0
LINE
  5
AA
330
A
100
AcDbEntity
  8
PV
  6
Continuous
 62
   254
100
AcDbLine
 10
-131.2229999999999
 20
170.815
 30
0.0
 11
-130.4389999999999
 21
170.815
 31
0.0
  0
LINE
  5
AB
330
A
100
AcDbEntity
  8
PV
  6
Continuous
 62
   254
100
AcDbLine
 10
-131.622
 20
174.208
 30
0.0
 11
-130.4389999999999
 21
174.208
 31
0.0
  0
LINE
  5
AC
330
A
100
AcDbEntity
  8
PV
  6
Continuous
 62
   254
100
AcDbLine
 10
-133.3239999999999
 20
172.189
 30
0.0
 11
-133.3239999999999
 21
170.815
 31
0.0
  0
LINE
  5
AD
330
A
100
AcDbEntity
  8
PV
  6
Continuous
 62
   254
100
AcDbLine
 10
-132.3919999999999
 20
172.8409999999999
 30
0.0
 11
-133.3239999999999
 21
172.189
 31
0.0
  0
LINE
  5
AE
330
A
100
AcDbEntity
  8
PV
  6
Continuous
 62
   254
100
AcDbLine
 10
-131.2229999999999
 20
170.815
 30
0.0
 11
-132.3919999999999
 21
172.8409999999999
 31
0.0
  0
LINE
  5
AF
330
A
100
AcDbEntity
  8
PV
  6
Continuous
 62
   254
100
AcDbLine
 10
-131.622
 20
174.208
 30
0.0
 11
-133.3239999999999
 21
173.017
 31
0.0
  0
LINE
  5
B0
330
A
100
AcDbEntity
  8
PV
  6
Continuous
 62
   254
100
AcDbLine
 10
-130.4389999999999
 20
174.208
 30
0.0
 11
-131.834
 21
173.231
 31
0.0
  0
LINE
  5
B1
330
A
100
AcDbEntity
  8
PV
  6
Continuous
 62
   254
100
AcDbLine
 10
-130.4389999999999
 20
170.815
 30
0.0
 11
-131.834
 21
173.231
 31
0.0
  0
LINE
  5
B2
330
A
100
AcDbEntity
  8
PV
  6
Continuous
 62
   254
100
AcDbLine
 10
-133.3239999999999
 20
174.208
 30
0.0
 11
-133.3239999999999
 21
173.017
 31
0.0
  0
LINE
  5
B3
330
A
100
AcDbEntity
  8
PV
  6
Continuous
 62
   254
100
AcDbLine
 10
-134.002
 20
174.208
 30
0.0
 11
-134.002
 21
170.815
 31
0.0
  0
LINE
  5
B4
330
A
100
AcDbEntity
  8
PV
  6
Continuous
 62
   254
100
AcDbLine
 10
-134.002
 20
170.815
 30
0.0
 11
-133.3239999999999
 21
170.815
 31
0.0
  0
LINE
  5
B5
330
A
100
AcDbEntity
  8
PV
  6
Continuous
 62
   254
100
AcDbLine
 10
-134.002
 20
174.208
 30
0.0
 11
-133.3239999999999
 21
174.208
 31
0.0
  0
LINE
  5
B6
330
A
100
AcDbEntity
  8
PV
  6
Continuous
 62
   254
100
AcDbLine
 10
-109.2279999999999
 20
173.53
 30
0.0
 11
-108.8889999999999
 21
173.53
 31
0.0
  0
LINE
  5
B7
330
A
100
AcDbEntity
  8
PV
  6
Continuous
 62
   254
100
AcDbLine
 10
-109.2279999999999
 20
171.493
 30
0.0
 11
-108.8889999999999
 21
171.493
 31
0.0
  0
LINE
  5
B8
330
A
100
AcDbEntity
  8
PV
  6
Continuous
 62
   254
100
AcDbLine
 10
-111.095
 20
170.819
 30
0.0
 11
-111.095
 21
171.493
 31
0.0
  0
LINE
  5
B9
330
A
100
AcDbEntity
  8
PV
  6
Continuous
 62
   254
100
AcDbLine
 10
-109.2279999999999
 20
174.208
 30
0.0
 11
-108.8889999999999
 21
174.208
 31
0.0
  0
LINE
  5
BA
330
A
100
AcDbEntity
  8
PV
  6
Continuous
 62
   254
100
AcDbLine
 10
-109.2279999999999
 20
170.815
 30
0.0
 11
-108.8889999999999
 21
170.815
 31
0.0
  0
LINE
  5
BB
330
A
100
AcDbEntity
  8
PV
  6
Continuous
 62
   254
100
AcDbLine
 10
-123.7559999999999
 20
170.815
 30
0.0
 11
-122.9729999999999
 21
170.815
 31
0.0
  0
LINE
  5
BC
330
A
100
AcDbEntity
  8
PV
  6
Continuous
 62
   254
100
AcDbLine
 10
-124.1559999999999
 20
174.208
 30
0.0
 11
-122.9729999999999
 21
174.208
 31
0.0
  0
LINE
  5
BD
330
A
100
AcDbEntity
  8
PV
  6
Continuous
 62
   254
100
AcDbLine
 10
-125.857
 20
172.189
 30
0.0
 11
-125.857
 21
170.815
 31
0.0
  0
LINE
  5
BE
330
A
100
AcDbEntity
  8
PV
  6
Continuous
 62
   254
100
AcDbLine
 10
-124.926
 20
172.8409999999999
 30
0.0
 11
-125.857
 21
172.189
 31
0.0
  0
LINE
  5
BF
330
A
100
AcDbEntity
  8
PV
  6
Continuous
 62
   254
100
AcDbLine
 10
-123.7559999999999
 20
170.815
 30
0.0
 11
-124.926
 21
172.8409999999999
 31
0.0
  0
LINE
  5
C0
330
A
100
AcDbEntity
  8
PV
  6
Continuous
 62
   254
100
AcDbLine
 10
-124.1559999999999
 20
174.208
 30
0.0
 11
-125.857
 21
173.017
 31
0.0
  0
LINE
  5
C1
330
A
100
AcDbEntity
  8
PV
  6
Continuous
 62
   254
100
AcDbLine
 10
-122.9729999999999
 20
174.208
 30
0.0
 11
-124.3679999999999
 21
173.231
 31
0.0
  0
LINE
  5
C2
330
A
100
AcDbEntity
  8
PV
  6
Continuous
 62
   254
100
AcDbLine
 10
-122.9729999999999
 20
170.815
 30
0.0
 11
-124.3679999999999
 21
173.232
 31
0.0
  0
LINE
  5
C3
330
A
100
AcDbEntity
  8
PV
  6
Continuous
 62
   254
100
AcDbLine
 10
-141.6179999999999
 20
170.815
 30
0.0
 11
-142.5689999999999
 21
172.1719999999999
 31
0.0
  0
LINE
  5
C4
330
A
100
AcDbEntity
  8
PV
  6
Continuous
 62
   254
100
AcDbLine
 10
-140.7899999999998
 20
170.815
 30
0.0
 11
-141.742
 21
172.174
 31
0.0
  0
LINE
  5
C5
330
A
100
AcDbEntity
  8
PV
  6
Continuous
 62
   254
100
AcDbLine
 10
-125.857
 20
174.208
 30
0.0
 11
-125.857
 21
173.017
 31
0.0
  0
LINE
  5
C6
330
A
100
AcDbEntity
  8
PV
  6
Continuous
 62
   254
100
AcDbLine
 10
-126.536
 20
174.208
 30
0.0
 11
-126.536
 21
170.815
 31
0.0
  0
LINE
  5
C7
330
A
100
AcDbEntity
  8
PV
  6
Continuous
 62
   254
100
AcDbLine
 10
-119.9179999999999
 20
171.493
 30
0.0
 11
-119.9179999999999
 21
170.815
 31
0.0
  0
LINE
  5
C8
330
A
100
AcDbEntity
  8
PV
  6
Continuous
 62
   254
100
AcDbLine
 10
-119.9179999999999
 20
172.8509999999999
 30
0.0
 11
-119.9179999999999
 21
172.1719999999999
 31
0.0
  0
LINE
  5
C9
330
A
100
AcDbEntity
  8
PV
  6
Continuous
 62
   254
100
AcDbLine
 10
-121.445
 20
173.53
 30
0.0
 11
-119.9179999999999
 21
173.53
 31
0.0
  0
LINE
  5
CA
330
A
100
AcDbEntity
  8
PV
  6
Continuous
 62
   254
100
AcDbLine
 10
-121.445
 20
171.493
 30
0.0
 11
-119.9179999999999
 21
171.493
 31
0.0
  0
LINE
  5
CB
330
A
100
AcDbEntity
  8
PV
  6
Continuous
 62
   254
100
AcDbLine
 10
-122.405
 20
172.8509999999999
 30
0.0
 11
-119.9179999999999
 21
172.8509999999999
 31
0.0
  0
LINE
  5
CC
330
A
100
AcDbEntity
  8
PV
  6
Continuous
 62
   254
100
AcDbLine
 10
-122.405
 20
172.1719999999999
 30
0.0
 11
-119.9179999999999
 21
172.1719999999999
 31
0.0
  0
LINE
  5
CD
330
A
100
AcDbEntity
  8
PV
  6
Continuous
 62
   254
100
AcDbLine
 10
-126.536
 20
170.815
 30
0.0
 11
-125.857
 21
170.815
 31
0.0
  0
LINE
  5
CE
330
A
100
AcDbEntity
  8
PV
  6
Continuous
 62
   254
100
AcDbLine
 10
-126.536
 20
174.208
 30
0.0
 11
-125.857
 21
174.208
 31
0.0
  0
LINE
  5
CF
330
A
100
AcDbEntity
  8
PV
  6
Continuous
 62
   254
100
AcDbLine
 10
-121.445
 20
170.815
 30
0.0
 11
-119.9179999999999
 21
170.815
 31
0.0
  0
LINE
  5
D0
330
A
100
AcDbEntity
  8
PV
  6
Continuous
 62
   254
100
AcDbLine
 10
-121.445
 20
174.208
 30
0.0
 11
-119.9179999999999
 21
174.208
 31
0.0
  0
LINE
  5
D1
330
A
100
AcDbEntity
  8
PV
  6
Continuous
 62
   254
100
AcDbLine
 10
-139.602
 20
174.208
 30
0.0
 11
-139.602
 21
170.815
 31
0.0
  0
LINE
  5
D2
330
A
100
AcDbEntity
  8
PV
  6
Continuous
 62
   254
100
AcDbLine
 10
-140.281
 20
174.208
 30
0.0
 11
-140.281
 21
170.815
 31
0.0
  0
LINE
  5
D3
330
A
100
AcDbEntity
  8
PV
  6
Continuous
 62
   254
100
AcDbLine
 10
-140.281
 20
170.815
 30
0.0
 11
-139.602
 21
170.815
 31
0.0
  0
LINE
  5
D4
330
A
100
AcDbEntity
  8
PV
  6
Continuous
 62
   254
100
AcDbLine
 10
-140.281
 20
174.208
 30
0.0
 11
-139.602
 21
174.208
 31
0.0
  0
LINE
  5
D5
330
A
100
AcDbEntity
  8
PV
  6
Continuous
 62
   254
100
AcDbLine
 10
-141.6179999999999
 20
170.815
 30
0.0
 11
-140.7899999999998
 21
170.815
 31
0.0
  0
LINE
  5
D6
330
A
100
AcDbEntity
  8
PV
  6
Continuous
 62
   254
100
AcDbLine
 10
-143.5049999999999
 20
172.1719999999999
 30
0.0
 11
-143.5049999999999
 21
170.815
 31
0.0
  0
LINE
  5
D7
330
A
100
AcDbEntity
  8
PV
  6
Continuous
 62
   254
100
AcDbLine
 10
-144.184
 20
174.208
 30
0.0
 11
-141.8079999999999
 21
174.208
 31
0.0
  0
LINE
  5
D8
330
A
100
AcDbEntity
  8
PV
  6
Continuous
 62
   254
100
AcDbLine
 10
-144.184
 20
170.815
 30
0.0
 11
-143.5049999999999
 21
170.815
 31
0.0
  0
LINE
  5
D9
330
A
100
AcDbEntity
  8
PV
  6
Continuous
 62
   254
100
AcDbLine
 10
-141.8079999999999
 20
172.8509999999999
 30
0.0
 11
-143.5049999999999
 21
172.8509999999999
 31
0.0
  0
LINE
  5
DA
330
A
100
AcDbEntity
  8
PV
  6
Continuous
 62
   254
100
AcDbLine
 10
-141.8079999999999
 20
173.53
 30
0.0
 11
-143.5049999999999
 21
173.53
 31
0.0
  0
LINE
  5
DB
330
A
100
AcDbEntity
  8
PV
  6
Continuous
 62
   254
100
AcDbLine
 10
-143.5049999999999
 20
172.1719999999999
 30
0.0
 11
-142.5689999999999
 21
172.1719999999999
 31
0.0
  0
LINE
  5
DC
330
A
100
AcDbEntity
  8
PV
  6
Continuous
 62
   254
100
AcDbLine
 10
-119.9179999999999
 20
174.208
 30
0.0
 11
-119.9179999999999
 21
173.53
 31
0.0
  0
LINE
  5
DD
330
A
100
AcDbEntity
  8
PV
  6
Continuous
 62
   254
100
AcDbLine
 10
-143.5049999999999
 20
173.53
 30
0.0
 11
-143.5049999999999
 21
173.1899999999999
 31
0.0
  0
LINE
  5
DE
330
A
100
AcDbEntity
  8
PV
  6
Continuous
 62
   254
100
AcDbLine
 10
-144.184
 20
174.208
 30
0.0
 11
-144.184
 21
173.1899999999999
 31
0.0
  0
LINE
  5
DF
330
A
100
AcDbEntity
  8
PV
  6
Continuous
 62
   254
100
AcDbLine
 10
-144.862
 20
174.208
 30
0.0
 11
-144.862
 21
170.815
 31
0.0
  0
LINE
  5
E0
330
A
100
AcDbEntity
  8
PV
  6
Continuous
 62
   254
100
AcDbLine
 10
-145.541
 20
174.208
 30
0.0
 11
-145.541
 21
170.815
 31
0.0
  0
LINE
  5
E1
330
A
100
AcDbEntity
  8
PV
  6
Continuous
 62
   254
100
AcDbLine
 10
-145.541
 20
170.815
 30
0.0
 11
-144.862
 21
170.815
 31
0.0
  0
LINE
  5
E2
330
A
100
AcDbEntity
  8
PV
  6
Continuous
 62
   254
100
AcDbLine
 10
-145.541
 20
174.208
 30
0.0
 11
-144.862
 21
174.208
 31
0.0
  0
LINE
  5
E3
330
A
100
AcDbEntity
  8
PV
  6
Continuous
 62
   254
100
AcDbLine
 10
-137.566
 20
173.53
 30
0.0
 11
-136.0389999999999
 21
173.53
 31
0.0
  0
LINE
  5
E4
330
A
100
AcDbEntity
  8
PV
  6
Continuous
 62
     7
100
AcDbLine
 10
-119.428
 20
183.267
 30
0.0
 11
-119.428
 21
180.3109999999999
 31
0.0
  0
LINE
  5
E5
330
A
100
AcDbEntity
  8
PV
  6
Continuous
 62
     7
100
AcDbLine
 10
-119.428
 20
180.3109999999999
 30
0.0
 11
-119.428
 21
179.0979999999999
 31
0.0
  0
LINE
  5
E6
330
A
100
AcDbEntity
  8
PV
  6
Continuous
 62
     7
100
AcDbLine
 10
-112.189
 20
183.305
 30
0.0
 11
-112.189
 21
180.273
 31
0.0
  0
LINE
  5
E7
330
A
100
AcDbEntity
  8
PV
  6
Continuous
 62
     7
100
AcDbLine
 10
-119.428
 20
184.48
 30
0.0
 11
-119.428
 21
183.267
 31
0.0
  0
LINE
  5
E8
330
A
100
AcDbEntity
  8
PV
  6
Continuous
 62
     7
100
AcDbLine
 10
-124.468
 20
179.0979999999999
 30
0.0
 11
-122.1189999999999
 21
179.0979999999999
 31
0.0
  0
LINE
  5
E9
330
A
100
AcDbEntity
  8
PV
  6
Continuous
 62
     7
100
AcDbLine
 10
-124.468
 20
184.48
 30
0.0
 11
-122.1189999999999
 21
184.48
 31
0.0
  0
LINE
  5
EA
330
A
100
AcDbEntity
  8
PV
  6
Continuous
 62
     7
100
AcDbLine
 10
-124.468
 20
184.48
 30
0.0
 11
-124.468
 21
179.0979999999999
 31
0.0
  0
LINE
  5
EB
330
A
100
AcDbEntity
  8
PV
  6
Continuous
 62
     7
100
AcDbLine
 10
-128.3859999999999
 20
179.0979999999999
 30
0.0
 11
-125.506
 21
179.0979999999999
 31
0.0
  0
LINE
  5
EC
330
A
100
AcDbEntity
  8
PV
  6
Continuous
 62
     7
100
AcDbLine
 10
-125.506
 20
183.04
 30
0.0
 11
-125.506
 21
179.0979999999999
 31
0.0
  0
LINE
  5
ED
330
A
100
AcDbEntity
  8
PV
  6
Continuous
 62
     7
100
AcDbLine
 10
-128.3859999999999
 20
183.04
 30
0.0
 11
-128.3859999999999
 21
179.0979999999999
 31
0.0
  0
LINE
  5
EE
330
A
100
AcDbEntity
  8
PV
  6
Continuous
 62
     7
100
AcDbLine
 10
-128.3859999999999
 20
183.04
 30
0.0
 11
-125.506
 21
183.04
 31
0.0
  0
LINE
  5
EF
330
A
100
AcDbEntity
  8
PV
  6
Continuous
 62
     7
100
AcDbLine
 10
-122.1189999999999
 20
184.48
 30
0.0
 11
-122.1189999999999
 21
179.0979999999999
 31
0.0
  0
LINE
  5
F0
330
A
100
AcDbEntity
  8
PV
  6
Continuous
 62
   254
100
AcDbLine
 10
-133.8799999999999
 20
173.0259999999999
 30
0.0
 11
-133.427
 21
173.0259999999999
 31
0.0
  0
LINE
  5
F1
330
A
100
AcDbEntity
  8
PV
  6
Continuous
 62
     7
100
AcDbLine
 10
-81.12899999999998
 20
169.534
 30
0.0
 11
-159.622
 21
169.534
 31
0.0
  0
LWPOLYLINE
  5
F2
330
A
100
AcDbEntity
  8
PV
  6
Continuous
 62
     7
100
AcDbPolyline
 90
       94
 70
     0
 43
0.0
 10
-79.68899999999997
 20
153.9809999999999
 10
-79.691
 20
153.988
 10
-79.718
 20
154.0709999999999
 10
-79.748
 20
154.152
 10
-79.782
 20
154.232
 10
-79.81799999999998
 20
154.31
 10
-79.85800000000002
 20
154.387
 10
-79.902
 20
154.462
 10
-79.94800000000002
 20
154.5339999999999
 10
-79.997
 20
154.6049999999999
 10
-80.04899999999997
 20
154.673
 10
-80.104
 20
154.7379999999999
 10
-80.16199999999997
 20
154.801
 10
-80.22199999999997
 20
154.8619999999999
 10
-80.28499999999999
 20
154.9189999999998
 10
-80.35
 20
154.9739999999999
 10
-80.417
 20
155.026
 10
-80.486
 20
155.0739999999999
 10
-80.55800000000003
 20
155.119
 10
-80.631
 20
155.161
 10
-80.705
 20
155.1999999999999
 10
-80.782
 20
155.235
 10
-80.859
 20
155.2669999999999
 10
-80.93799999999998
 20
155.2949999999999
 10
-81.018
 20
155.3189999999998
 10
-81.09899999999997
 20
155.34
 10
-81.181
 20
155.357
 10
-81.263
 20
155.37
 10
-81.346
 20
155.38
 10
-81.429
 20
155.386
 10
-81.513
 20
155.387
 10
-81.59600000000002
 20
155.386
 10
-81.67900000000001
 20
155.38
 10
-81.76199999999999
 20
155.37
 10
-81.844
 20
155.357
 10
-81.926
 20
155.34
 10
-82.00700000000002
 20
155.3189999999998
 10
-82.087
 20
155.2949999999999
 10
-82.16599999999997
 20
155.2669999999999
 10
-82.24400000000001
 20
155.235
 10
-82.31999999999997
 20
155.1999999999999
 10
-82.39499999999997
 20
155.161
 10
-82.46799999999998
 20
155.119
 10
-82.53899999999999
 20
155.0739999999999
 10
-82.60799999999997
 20
155.026
 10
-82.675
 20
154.9739999999999
 10
-82.73999999999999
 20
154.9189999999998
 10
-82.803
 20
154.8619999999999
 10
-82.863
 20
154.801
 10
-82.92100000000003
 20
154.7379999999999
 10
-82.976
 20
154.673
 10
-83.02799999999997
 20
154.6049999999999
 10
-83.07700000000002
 20
154.5339999999999
 10
-83.12299999999998
 20
154.462
 10
-83.167
 20
154.387
 10
-83.207
 20
154.31
 10
-83.244
 20
154.232
 10
-83.277
 20
154.152
 10
-83.307
 20
154.0709999999999
 10
-83.33400000000002
 20
153.988
 10
-83.35799999999997
 20
153.9039999999999
 10
-83.37700000000003
 20
153.8199999999999
 10
-83.39399999999997
 20
153.734
 10
-83.406
 20
153.648
 10
-83.41500000000001
 20
153.561
 10
-83.421
 20
153.474
 10
-83.42299999999999
 20
153.387
 10
-83.421
 20
153.299
 10
-83.41500000000001
 20
153.212
 10
-83.406
 20
153.125
 10
-83.39399999999997
 20
153.0389999999998
 10
-83.37700000000003
 20
152.953
 10
-83.35799999999997
 20
152.869
 10
-83.33400000000002
 20
152.7849999999999
 10
-83.307
 20
152.702
 10
-83.277
 20
152.621
 10
-83.244
 20
152.5409999999999
 10
-83.207
 20
152.4629999999999
 10
-83.167
 20
152.3859999999999
 10
-83.12299999999998
 20
152.311
 10
-83.07700000000002
 20
152.239
 10
-83.02799999999997
 20
152.168
 10
-82.976
 20
152.0999999999999
 10
-82.92100000000003
 20
152.035
 10
-82.863
 20
151.972
 10
-82.803
 20
151.9109999999999
 10
-82.73999999999999
 20
151.8539999999999
 10
-82.675
 20
151.799
 10
-82.60799999999997
 20
151.747
 10
-82.53899999999999
 20
151.6989999999998
 10
-82.46799999999998
 20
151.6539999999999
 10
-82.39499999999997
 20
151.6119999999999
 10
-82.31999999999997
 20
151.5729999999998
 10
-82.26899999999998
 20
151.5489999999998
  0
LWPOLYLINE
  5
F3
330
A
100
AcDbEntity
  8
PV
  6
Continuous
 62
     7
100
AcDbPolyline
 90
       94
 70
     0
 43
0.0
 10
-84.06399999999997
 20
149.705
 10
-84.06200000000003
 20
149.6979999999998
 10
-84.03499999999999
 20
149.615
 10
-84.00499999999999
 20
149.5339999999998
 10
-83.971
 20
149.454
 10
-83.93399999999997
 20
149.375
 10
-83.894
 20
149.2989999999998
 10
-83.85099999999999
 20
149.2239999999999
 10
-83.80500000000003
 20
149.152
 10
-83.756
 20
149.081
 10
-83.70299999999998
 20
149.013
 10
-83.648
 20
148.947
 10
-83.59100000000003
 20
148.8839999999999
 10
-83.53100000000003
 20
148.8239999999999
 10
-83.46799999999998
 20
148.7659999999999
 10
-83.40299999999997
 20
148.712
 10
-83.336
 20
148.6599999999999
 10
-83.266
 20
148.6119999999999
 10
-83.19499999999997
 20
148.566
 10
-83.12200000000002
 20
148.524
 10
-83.04700000000002
 20
148.4859999999999
 10
-82.971
 20
148.451
 10
-82.89299999999999
 20
148.4189999999999
 10
-82.81499999999999
 20
148.3909999999999
 10
-82.735
 20
148.367
 10
-82.65399999999997
 20
148.346
 10
-82.572
 20
148.329
 10
-82.49
 20
148.315
 10
-82.40700000000002
 20
148.306
 10
-82.324
 20
148.3
 10
-82.24
 20
148.2979999999999
 10
-82.15700000000003
 20
148.3
 10
-82.07399999999998
 20
148.306
 10
-81.99099999999999
 20
148.315
 10
-81.90899999999997
 20
148.329
 10
-81.827
 20
148.346
 10
-81.74600000000003
 20
148.367
 10
-81.666
 20
148.3909999999999
 10
-81.58700000000001
 20
148.4189999999999
 10
-81.509
 20
148.451
 10
-81.43300000000001
 20
148.4859999999999
 10
-81.35800000000001
 20
148.524
 10
-81.285
 20
148.566
 10
-81.21399999999999
 20
148.6119999999999
 10
-81.14499999999997
 20
148.6599999999999
 10
-81.07800000000002
 20
148.712
 10
-81.013
 20
148.7659999999999
 10
-80.95
 20
148.8239999999999
 10
-80.89
 20
148.8839999999999
 10
-80.83199999999997
 20
148.947
 10
-80.777
 20
149.013
 10
-80.72499999999998
 20
149.081
 10
-80.676
 20
149.152
 10
-80.62899999999997
 20
149.2239999999999
 10
-80.586
 20
149.2989999999998
 10
-80.546
 20
149.375
 10
-80.509
 20
149.454
 10
-80.476
 20
149.5339999999998
 10
-80.44499999999997
 20
149.615
 10
-80.419
 20
149.6979999999998
 10
-80.395
 20
149.781
 10
-80.37600000000002
 20
149.866
 10
-80.35899999999998
 20
149.9519999999999
 10
-80.34699999999999
 20
150.0379999999998
 10
-80.33800000000002
 20
150.1249999999999
 10
-80.33199999999999
 20
150.212
 10
-80.32999999999999
 20
150.299
 10
-80.33199999999999
 20
150.387
 10
-80.33800000000002
 20
150.4739999999999
 10
-80.34699999999999
 20
150.56
 10
-80.35899999999998
 20
150.647
 10
-80.37600000000002
 20
150.7319999999999
 10
-80.395
 20
150.8169999999998
 10
-80.419
 20
150.901
 10
-80.44499999999997
 20
150.984
 10
-80.476
 20
151.065
 10
-80.509
 20
151.145
 10
-80.546
 20
151.2229999999999
 10
-80.586
 20
151.3
 10
-80.62899999999997
 20
151.374
 10
-80.676
 20
151.447
 10
-80.72499999999998
 20
151.5169999999999
 10
-80.777
 20
151.585
 10
-80.83199999999997
 20
151.651
 10
-80.89
 20
151.7139999999999
 10
-80.95
 20
151.775
 10
-81.013
 20
151.8319999999999
 10
-81.07800000000002
 20
151.8869999999999
 10
-81.14499999999997
 20
151.9379999999999
 10
-81.21399999999999
 20
151.987
 10
-81.285
 20
152.032
 10
-81.35800000000001
 20
152.0739999999999
 10
-81.43300000000001
 20
152.113
 10
-81.484
 20
152.137
  0
LWPOLYLINE
  5
F4
330
A
100
AcDbEntity
  8
PV
  6
Continuous
 62
     7
100
AcDbPolyline
 90
       26
 70
     0
 43
0.0
 10
-139.144
 20
153.051
 10
-139.146
 20
153.056
 10
-139.1899999999999
 20
153.1949999999999
 10
-139.24
 20
153.331
 10
-139.2949999999999
 20
153.464
 10
-139.3559999999999
 20
153.594
 10
-139.4209999999999
 20
153.7209999999999
 10
-139.491
 20
153.844
 10
-139.566
 20
153.963
 10
-139.646
 20
154.0779999999999
 10
-139.7299999999999
 20
154.1889999999999
 10
-139.8189999999999
 20
154.2949999999999
 10
-139.911
 20
154.396
 10
-140.0079999999998
 20
154.4929999999999
 10
-140.108
 20
154.584
 10
-140.2129999999999
 20
154.6699999999999
 10
-140.32
 20
154.751
 10
-140.431
 20
154.8259999999999
 10
-140.5439999999998
 20
154.895
 10
-140.661
 20
154.959
 10
-140.7799999999999
 20
155.0159999999999
 10
-140.901
 20
155.067
 10
-141.025
 20
155.112
 10
-141.15
 20
155.151
 10
-141.277
 20
155.1829999999999
 10
-141.406
 20
155.2089999999999
  0
LWPOLYLINE
  5
F5
330
A
100
AcDbEntity
  8
PV
  6
Continuous
 62
     7
100
AcDbPolyline
 90
      113
 70
     0
 43
0.0
 10
-141.406
 20
155.2089999999999
 10
-141.5349999999999
 20
155.2289999999999
 10
-141.6649999999999
 20
155.242
 10
-141.7959999999998
 20
155.2479999999999
 10
-141.928
 20
155.2479999999999
 10
-142.06
 20
155.242
 10
-142.191
 20
155.2279999999998
 10
-142.322
 20
155.2089999999999
 10
-142.453
 20
155.182
 10
-142.5819999999999
 20
155.15
 10
-142.711
 20
155.1109999999999
 10
-142.8379999999999
 20
155.066
 10
-142.964
 20
155.014
 10
-143.0879999999999
 20
154.956
 10
-143.209
 20
154.893
 10
-143.329
 20
154.8229999999998
 10
-143.446
 20
154.748
 10
-143.5599999999999
 20
154.6669999999999
 10
-143.6709999999998
 20
154.581
 10
-143.7789999999999
 20
154.49
 10
-143.8839999999999
 20
154.393
 10
-143.985
 20
154.291
 10
-144.083
 20
154.185
 10
-144.176
 20
154.0739999999999
 10
-144.2649999999999
 20
153.959
 10
-144.35
 20
153.84
 10
-144.431
 20
153.717
 10
-144.507
 20
153.5899999999999
 10
-144.578
 20
153.46
 10
-144.644
 20
153.326
 10
-144.705
 20
153.19
 10
-144.762
 20
153.051
 10
-144.812
 20
152.9099999999999
 10
-144.8579999999999
 20
152.767
 10
-144.8979999999999
 20
152.622
 10
-144.9329999999999
 20
152.475
 10
-144.962
 20
152.327
 10
-144.985
 20
152.1779999999999
 10
-145.0029999999999
 20
152.0279999999999
 10
-145.0149999999998
 20
151.8779999999999
 10
-145.021
 20
151.7279999999999
 10
-145.021
 20
151.578
 10
-145.0159999999999
 20
151.428
 10
-145.005
 20
151.279
 10
-144.989
 20
151.1309999999999
 10
-144.966
 20
150.985
 10
-144.9379999999998
 20
150.8399999999999
 10
-144.9049999999999
 20
150.696
 10
-144.866
 20
150.555
 10
-144.8209999999999
 20
150.417
 10
-144.771
 20
150.28
 10
-144.716
 20
150.147
 10
-144.656
 20
150.0169999999999
 10
-144.5899999999999
 20
149.8909999999999
 10
-144.5199999999998
 20
149.768
 10
-144.4449999999999
 20
149.648
 10
-144.365
 20
149.5329999999999
 10
-144.281
 20
149.4229999999999
 10
-144.1929999999999
 20
149.317
 10
-144.1
 20
149.215
 10
-144.0029999999999
 20
149.119
 10
-143.9029999999999
 20
149.027
 10
-143.799
 20
148.941
 10
-143.691
 20
148.8609999999999
 10
-143.581
 20
148.7859999999999
 10
-143.467
 20
148.716
 10
-143.3499999999999
 20
148.6529999999999
 10
-143.231
 20
148.596
 10
-143.11
 20
148.5439999999998
 10
-142.987
 20
148.4989999999999
 10
-142.8609999999999
 20
148.46
 10
-142.734
 20
148.428
 10
-142.6059999999999
 20
148.402
 10
-142.476
 20
148.3829999999999
 10
-142.346
 20
148.3699999999998
 10
-142.215
 20
148.3629999999999
 10
-142.083
 20
148.3629999999999
 10
-141.952
 20
148.3699999999998
 10
-141.8199999999998
 20
148.3829999999999
 10
-141.6889999999999
 20
148.4029999999999
 10
-141.5589999999999
 20
148.429
 10
-141.429
 20
148.462
 10
-141.3
 20
148.501
 10
-141.173
 20
148.5459999999999
 10
-141.0479999999999
 20
148.597
 10
-140.924
 20
148.655
 10
-140.802
 20
148.719
 10
-140.682
 20
148.7879999999998
 10
-140.565
 20
148.863
 10
-140.4509999999999
 20
148.9439999999999
 10
-140.3399999999999
 20
149.0299999999999
 10
-140.232
 20
149.122
 10
-140.127
 20
149.2189999999999
 10
-140.026
 20
149.3199999999999
 10
-139.929
 20
149.427
 10
-139.835
 20
149.537
 10
-139.746
 20
149.6529999999999
 10
-139.661
 20
149.772
 10
-139.58
 20
149.895
 10
-139.5049999999999
 20
150.022
 10
-139.4329999999999
 20
150.152
 10
-139.367
 20
150.285
 10
-139.306
 20
150.421
 10
-139.25
 20
150.56
 10
-139.1989999999998
 20
150.701
 10
-139.1529999999999
 20
150.845
 10
-139.1129999999999
 20
150.99
 10
-139.079
 20
151.137
 10
-139.05
 20
151.285
 10
-139.026
 20
151.4339999999999
 10
-139.0089999999998
 20
151.583
 10
-138.997
 20
151.733
 10
-138.9929999999999
 20
151.805
  0
LINE
  5
F6
330
A
100
AcDbEntity
  8
PV
  6
Continuous
 62
     7
100
AcDbLine
 10
-82.2
 20
152.24
 30
0.0
 11
-81.485
 21
152.138
 31
0.0
  0
LINE
  5
F7
330
A
100
AcDbEntity
  8
PV
  6
Continuous
 62
     7
100
AcDbLine
 10
-82.26799999999999
 20
151.548
 30
0.0
 11
-81.54099999999997
 21
151.4389999999998
 31
0.0
  0
LINE
  5
F8
330
A
100
AcDbEntity
  8
PV
  6
Continuous
 62
     7
100
AcDbLine
 10
-79.68899999999997
 20
153.9819999999999
 30
0.0
 11
-80.263
 21
153.6509999999998
 31
0.0
  0
LINE
  5
F9
330
A
100
AcDbEntity
  8
PV
  6
Continuous
 62
     7
100
AcDbLine
 10
-84.06399999999997
 20
149.704
 30
0.0
 11
-83.49
 21
150.035
 31
0.0
  0
LINE
  5
FA
330
A
100
AcDbEntity
  8
PV
  6
Continuous
 62
     7
100
AcDbLine
 10
-114.227
 20
155.262
 30
0.0
 11
-113.48
 21
155.262
 31
0.0
  0
LINE
  5
FB
330
A
100
AcDbEntity
  8
PV
  6
Continuous
 62
     7
100
AcDbLine
 10
-118.0939999999999
 20
155.262
 30
0.0
 11
-116.8749999999999
 21
148.35
 31
0.0
  0
LINE
  5
FC
330
A
100
AcDbEntity
  8
PV
  6
Continuous
 62
     7
100
AcDbLine
 10
-117.374
 20
155.262
 30
0.0
 11
-116.347
 21
149.437
 31
0.0
  0
LINE
  5
FD
330
A
100
AcDbEntity
  8
PV
  6
Continuous
 62
     7
100
AcDbLine
 10
-116.347
 20
149.437
 30
0.0
 11
-114.227
 21
155.262
 31
0.0
  0
LINE
  5
FE
330
A
100
AcDbEntity
  8
PV
  6
Continuous
 62
     7
100
AcDbLine
 10
-115.996
 20
148.35
 30
0.0
 11
-113.48
 21
155.262
 31
0.0
  0
LINE
  5
FF
330
A
100
AcDbEntity
  8
PV
  6
Continuous
 62
     7
100
AcDbLine
 10
-118.0939999999999
 20
155.262
 30
0.0
 11
-117.374
 21
155.262
 31
0.0
  0
LINE
  5
100
330
A
100
AcDbEntity
  8
PV
  6
Continuous
 62
     7
100
AcDbLine
 10
-116.8749999999999
 20
148.35
 30
0.0
 11
-115.996
 21
148.35
 31
0.0
  0
LINE
  5
101
330
A
100
AcDbEntity
  8
PV
  6
Continuous
 62
     7
100
AcDbLine
 10
-93.76299999999998
 20
155.262
 30
0.0
 11
-93.016
 21
155.262
 31
0.0
  0
LINE
  5
102
330
A
100
AcDbEntity
  8
PV
  6
Continuous
 62
     7
100
AcDbLine
 10
-97.62999999999999
 20
155.262
 30
0.0
 11
-96.41100000000001
 21
148.35
 31
0.0
  0
LINE
  5
103
330
A
100
AcDbEntity
  8
PV
  6
Continuous
 62
     7
100
AcDbLine
 10
-96.91
 20
155.262
 30
0.0
 11
-95.883
 21
149.437
 31
0.0
  0
LINE
  5
104
330
A
100
AcDbEntity
  8
PV
  6
Continuous
 62
     7
100
AcDbLine
 10
-95.883
 20
149.437
 30
0.0
 11
-93.76299999999998
 21
155.262
 31
0.0
  0
LINE
  5
105
330
A
100
AcDbEntity
  8
PV
  6
Continuous
 62
     7
100
AcDbLine
 10
-95.53200000000002
 20
148.35
 30
0.0
 11
-93.016
 21
155.262
 31
0.0
  0
LINE
  5
106
330
A
100
AcDbEntity
  8
PV
  6
Continuous
 62
     7
100
AcDbLine
 10
-97.62999999999999
 20
155.262
 30
0.0
 11
-96.91
 21
155.262
 31
0.0
  0
LINE
  5
107
330
A
100
AcDbEntity
  8
PV
  6
Continuous
 62
     7
100
AcDbLine
 10
-96.41100000000001
 20
148.35
 30
0.0
 11
-95.53200000000002
 21
148.35
 31
0.0
  0
LINE
  5
108
330
A
100
AcDbEntity
  8
PV
  6
Continuous
 62
     7
100
AcDbLine
 10
-89.311
 20
152.146
 30
0.0
 11
-88.89599999999999
 21
154.502
 31
0.0
  0
LINE
  5
109
330
A
100
AcDbEntity
  8
PV
  6
Continuous
 62
     7
100
AcDbLine
 10
-86.37299999999997
 20
154.502
 30
0.0
 11
-86.23899999999997
 21
155.262
 31
0.0
  0
LINE
  5
10A
330
A
100
AcDbEntity
  8
PV
  6
Continuous
 62
     7
100
AcDbLine
 10
-86.91399999999999
 20
151.432
 30
0.0
 11
-86.788
 21
152.146
 31
0.0
  0
LINE
  5
10B
330
A
100
AcDbEntity
  8
PV
  6
Continuous
 62
     7
100
AcDbLine
 10
-89.85700000000001
 20
149.0529999999999
 30
0.0
 11
-89.43700000000003
 21
151.432
 31
0.0
  0
LINE
  5
10C
330
A
100
AcDbEntity
  8
PV
  6
Continuous
 62
     7
100
AcDbLine
 10
-89.85700000000001
 20
149.0529999999999
 30
0.0
 11
-87.33400000000001
 21
149.0529999999999
 31
0.0
  0
LINE
  5
10D
330
A
100
AcDbEntity
  8
PV
  6
Continuous
 62
     7
100
AcDbLine
 10
-88.89599999999999
 20
154.502
 30
0.0
 11
-86.37299999999997
 21
154.502
 31
0.0
  0
LINE
  5
10E
330
A
100
AcDbEntity
  8
PV
  6
Continuous
 62
     7
100
AcDbLine
 10
-89.311
 20
152.146
 30
0.0
 11
-86.788
 21
152.146
 31
0.0
  0
LINE
  5
10F
330
A
100
AcDbEntity
  8
PV
  6
Continuous
 62
     7
100
AcDbLine
 10
-89.43700000000003
 20
151.432
 30
0.0
 11
-86.91399999999999
 21
151.432
 31
0.0
  0
LINE
  5
110
330
A
100
AcDbEntity
  8
PV
  6
Continuous
 62
     7
100
AcDbLine
 10
-87.458
 20
148.35
 30
0.0
 11
-87.33400000000001
 21
149.0529999999999
 31
0.0
  0
LINE
  5
111
330
A
100
AcDbEntity
  8
PV
  6
Continuous
 62
     7
100
AcDbLine
 10
-90.691
 20
148.35
 30
0.0
 11
-89.472
 21
155.262
 31
0.0
  0
LINE
  5
112
330
A
100
AcDbEntity
  8
PV
  6
Continuous
 62
     7
100
AcDbLine
 10
-103.1989999999999
 20
149.085
 30
0.0
 11
-100.1739999999999
 21
149.085
 31
0.0
  0
LINE
  5
113
330
A
100
AcDbEntity
  8
PV
  6
Continuous
 62
     7
100
AcDbLine
 10
-103.1989999999999
 20
149.085
 30
0.0
 11
-102.11
 21
155.262
 31
0.0
  0
LINE
  5
114
330
A
100
AcDbEntity
  8
PV
  6
Continuous
 62
     7
100
AcDbLine
 10
-104.0489999999999
 20
148.35
 30
0.0
 11
-102.8299999999999
 21
155.262
 31
0.0
  0
LINE
  5
115
330
A
100
AcDbEntity
  8
PV
  6
Continuous
 62
     7
100
AcDbLine
 10
-100.3039999999999
 20
148.35
 30
0.0
 11
-100.1739999999999
 21
149.085
 31
0.0
  0
LINE
  5
116
330
A
100
AcDbEntity
  8
PV
  6
Continuous
 62
     7
100
AcDbLine
 10
-90.691
 20
148.35
 30
0.0
 11
-87.458
 21
148.35
 31
0.0
  0
LINE
  5
117
330
A
100
AcDbEntity
  8
PV
  6
Continuous
 62
     7
100
AcDbLine
 10
-89.472
 20
155.262
 30
0.0
 11
-86.23899999999997
 21
155.262
 31
0.0
  0
LINE
  5
118
330
A
100
AcDbEntity
  8
PV
  6
Continuous
 62
     7
100
AcDbLine
 10
-102.8299999999999
 20
155.262
 30
0.0
 11
-102.11
 21
155.262
 31
0.0
  0
LINE
  5
119
330
A
100
AcDbEntity
  8
PV
  6
Continuous
 62
     7
100
AcDbLine
 10
-104.0489999999999
 20
148.35
 30
0.0
 11
-100.3039999999999
 21
148.35
 31
0.0
  0
LINE
  5
11A
330
A
100
AcDbEntity
  8
PV
  6
Continuous
 62
     7
100
AcDbLine
 10
-107.816
 20
149.817
 30
0.0
 11
-107.422
 21
148.35
 31
0.0
  0
LINE
  5
11B
330
A
100
AcDbEntity
  8
PV
  6
Continuous
 62
     7
100
AcDbLine
 10
-110.297
 20
150.536
 30
0.0
 11
-108.979
 21
154.1579999999999
 31
0.0
  0
LINE
  5
11C
330
A
100
AcDbEntity
  8
PV
  6
Continuous
 62
     7
100
AcDbLine
 10
-110.297
 20
150.536
 30
0.0
 11
-108.0079999999999
 21
150.536
 31
0.0
  0
LINE
  5
11D
330
A
100
AcDbEntity
  8
PV
  6
Continuous
 62
     7
100
AcDbLine
 10
-110.559
 20
149.817
 30
0.0
 11
-107.816
 21
149.817
 31
0.0
  0
LINE
  5
11E
330
A
100
AcDbEntity
  8
PV
  6
Continuous
 62
     7
100
AcDbLine
 10
-107.422
 20
148.35
 30
0.0
 11
-106.707
 21
148.35
 31
0.0
  0
LINE
  5
11F
330
A
100
AcDbEntity
  8
PV
  6
Continuous
 62
     7
100
AcDbLine
 10
-108.979
 20
154.1579999999999
 30
0.0
 11
-108.0079999999999
 21
150.536
 31
0.0
  0
LINE
  5
120
330
A
100
AcDbEntity
  8
PV
  6
Continuous
 62
     7
100
AcDbLine
 10
-108.559
 20
155.262
 30
0.0
 11
-106.707
 21
148.35
 31
0.0
  0
LINE
  5
121
330
A
100
AcDbEntity
  8
PV
  6
Continuous
 62
     7
100
AcDbLine
 10
-111.0929999999999
 20
148.35
 30
0.0
 11
-110.559
 21
149.817
 31
0.0
  0
LINE
  5
122
330
A
100
AcDbEntity
  8
PV
  6
Continuous
 62
     7
100
AcDbLine
 10
-111.8279999999999
 20
148.35
 30
0.0
 11
-109.3129999999999
 21
155.262
 31
0.0
  0
LINE
  5
123
330
A
100
AcDbEntity
  8
PV
  6
Continuous
 62
     7
100
AcDbLine
 10
-109.3129999999999
 20
155.262
 30
0.0
 11
-108.559
 21
155.262
 31
0.0
  0
LINE
  5
124
330
A
100
AcDbEntity
  8
PV
  6
Continuous
 62
     7
100
AcDbLine
 10
-111.8279999999999
 20
148.35
 30
0.0
 11
-111.0929999999999
 21
148.35
 31
0.0
  0
LINE
  5
125
330
A
100
AcDbEntity
  8
PV
  6
Continuous
 62
     7
100
AcDbLine
 10
-128.057
 20
152.146
 30
0.0
 11
-127.642
 21
154.502
 31
0.0
  0
LINE
  5
126
330
A
100
AcDbEntity
  8
PV
  6
Continuous
 62
     7
100
AcDbLine
 10
-125.119
 20
154.502
 30
0.0
 11
-124.985
 21
155.262
 31
0.0
  0
LINE
  5
127
330
A
100
AcDbEntity
  8
PV
  6
Continuous
 62
     7
100
AcDbLine
 10
-125.6599999999999
 20
151.432
 30
0.0
 11
-125.5339999999999
 21
152.146
 31
0.0
  0
LINE
  5
128
330
A
100
AcDbEntity
  8
PV
  6
Continuous
 62
     7
100
AcDbLine
 10
-128.602
 20
149.0529999999999
 30
0.0
 11
-128.183
 21
151.432
 31
0.0
  0
LINE
  5
129
330
A
100
AcDbEntity
  8
PV
  6
Continuous
 62
     7
100
AcDbLine
 10
-128.602
 20
149.0529999999999
 30
0.0
 11
-126.0789999999999
 21
149.0529999999999
 31
0.0
  0
LINE
  5
12A
330
A
100
AcDbEntity
  8
PV
  6
Continuous
 62
     7
100
AcDbLine
 10
-127.642
 20
154.502
 30
0.0
 11
-125.119
 21
154.502
 31
0.0
  0
LINE
  5
12B
330
A
100
AcDbEntity
  8
PV
  6
Continuous
 62
     7
100
AcDbLine
 10
-128.057
 20
152.146
 30
0.0
 11
-125.5339999999999
 21
152.146
 31
0.0
  0
LINE
  5
12C
330
A
100
AcDbEntity
  8
PV
  6
Continuous
 62
     7
100
AcDbLine
 10
-128.183
 20
151.432
 30
0.0
 11
-125.6599999999999
 21
151.432
 31
0.0
  0
LINE
  5
12D
330
A
100
AcDbEntity
  8
PV
  6
Continuous
 62
     7
100
AcDbLine
 10
-126.2029999999999
 20
148.35
 30
0.0
 11
-126.0789999999999
 21
149.0529999999999
 31
0.0
  0
LINE
  5
12E
330
A
100
AcDbEntity
  8
PV
  6
Continuous
 62
     7
100
AcDbLine
 10
-129.437
 20
148.35
 30
0.0
 11
-128.2179999999998
 21
155.262
 31
0.0
  0
LINE
  5
12F
330
A
100
AcDbEntity
  8
PV
  6
Continuous
 62
     7
100
AcDbLine
 10
-129.437
 20
148.35
 30
0.0
 11
-126.2029999999999
 21
148.35
 31
0.0
  0
LINE
  5
130
330
A
100
AcDbEntity
  8
PV
  6
Continuous
 62
     7
100
AcDbLine
 10
-128.2179999999998
 20
155.262
 30
0.0
 11
-124.984
 21
155.262
 31
0.0
  0
LINE
  5
131
330
A
100
AcDbEntity
  8
PV
  6
Continuous
 62
     7
100
AcDbLine
 10
-135.5779999999999
 20
149.085
 30
0.0
 11
-132.553
 21
149.085
 31
0.0
  0
LINE
  5
132
330
A
100
AcDbEntity
  8
PV
  6
Continuous
 62
     7
100
AcDbLine
 10
-135.5779999999999
 20
149.085
 30
0.0
 11
-134.489
 21
155.262
 31
0.0
  0
LINE
  5
133
330
A
100
AcDbEntity
  8
PV
  6
Continuous
 62
     7
100
AcDbLine
 10
-136.4279999999999
 20
148.35
 30
0.0
 11
-135.209
 21
155.262
 31
0.0
  0
LINE
  5
134
330
A
100
AcDbEntity
  8
PV
  6
Continuous
 62
     7
100
AcDbLine
 10
-132.6829999999999
 20
148.35
 30
0.0
 11
-132.553
 21
149.085
 31
0.0
  0
LINE
  5
135
330
A
100
AcDbEntity
  8
PV
  6
Continuous
 62
     7
100
AcDbLine
 10
-135.209
 20
155.262
 30
0.0
 11
-134.489
 21
155.262
 31
0.0
  0
LINE
  5
136
330
A
100
AcDbEntity
  8
PV
  6
Continuous
 62
     7
100
AcDbLine
 10
-136.4279999999999
 20
148.35
 30
0.0
 11
-132.6829999999999
 21
148.35
 31
0.0
  0
LINE
  5
137
330
A
100
AcDbEntity
  8
PV
  6
Continuous
 62
     7
100
AcDbLine
 10
-157.4759999999999
 20
149.817
 30
0.0
 11
-157.0819999999999
 21
148.35
 31
0.0
  0
LINE
  5
138
330
A
100
AcDbEntity
  8
PV
  6
Continuous
 62
     7
100
AcDbLine
 10
-159.9569999999999
 20
150.536
 30
0.0
 11
-158.639
 21
154.1579999999999
 31
0.0
  0
LINE
  5
139
330
A
100
AcDbEntity
  8
PV
  6
Continuous
 62
     7
100
AcDbLine
 10
-159.9569999999999
 20
150.536
 30
0.0
 11
-157.668
 21
150.536
 31
0.0
  0
LINE
  5
13A
330
A
100
AcDbEntity
  8
PV
  6
Continuous
 62
     7
100
AcDbLine
 10
-160.219
 20
149.817
 30
0.0
 11
-157.4759999999999
 21
149.817
 31
0.0
  0
LINE
  5
13B
330
A
100
AcDbEntity
  8
PV
  6
Continuous
 62
     7
100
AcDbLine
 10
-157.0819999999999
 20
148.35
 30
0.0
 11
-156.367
 21
148.35
 31
0.0
  0
LINE
  5
13C
330
A
100
AcDbEntity
  8
PV
  6
Continuous
 62
     7
100
AcDbLine
 10
-158.639
 20
154.1579999999999
 30
0.0
 11
-157.668
 21
150.536
 31
0.0
  0
LINE
  5
13D
330
A
100
AcDbEntity
  8
PV
  6
Continuous
 62
     7
100
AcDbLine
 10
-158.2189999999999
 20
155.262
 30
0.0
 11
-156.367
 21
148.35
 31
0.0
  0
LINE
  5
13E
330
A
100
AcDbEntity
  8
PV
  6
Continuous
 62
     7
100
AcDbLine
 10
-160.7529999999998
 20
148.35
 30
0.0
 11
-160.219
 21
149.817
 31
0.0
  0
LINE
  5
13F
330
A
100
AcDbEntity
  8
PV
  6
Continuous
 62
     7
100
AcDbLine
 10
-161.488
 20
148.35
 30
0.0
 11
-158.9729999999998
 21
155.262
 31
0.0
  0
LINE
  5
140
330
A
100
AcDbEntity
  8
PV
  6
Continuous
 62
     7
100
AcDbLine
 10
-158.9729999999998
 20
155.262
 30
0.0
 11
-158.2189999999999
 21
155.262
 31
0.0
  0
LINE
  5
141
330
A
100
AcDbEntity
  8
PV
  6
Continuous
 62
     7
100
AcDbLine
 10
-161.488
 20
148.35
 30
0.0
 11
-160.7529999999998
 21
148.35
 31
0.0
  0
LINE
  5
142
330
A
100
AcDbEntity
  8
PV
  6
Continuous
 62
     7
100
AcDbLine
 10
-141.209
 20
151.115
 30
0.0
 11
-139.833
 21
151.115
 31
0.0
  0
LINE
  5
143
330
A
100
AcDbEntity
  8
PV
  6
Continuous
 62
     7
100
AcDbLine
 10
-141.209
 20
151.115
 30
0.0
 11
-141.087
 21
151.806
 31
0.0
  0
LINE
  5
144
330
A
100
AcDbEntity
  8
PV
  6
Continuous
 62
     7
100
AcDbLine
 10
-139.829
 20
152.801
 30
0.0
 11
-139.144
 21
153.05
 31
0.0
  0
LINE
  5
145
330
A
100
AcDbEntity
  8
PV
  6
Continuous
 62
     7
100
AcDbLine
 10
-141.087
 20
151.806
 30
0.0
 11
-138.9929999999999
 21
151.806
 31
0.0
  0
LINE
  5
146
330
A
100
AcDbEntity
  8
PV
  6
Continuous
 62
     7
100
AcDbLine
 10
-148.032
 20
155.262
 30
0.0
 11
-147.328
 21
155.262
 31
0.0
  0
LINE
  5
147
330
A
100
AcDbEntity
  8
PV
  6
Continuous
 62
     7
100
AcDbLine
 10
-149.268
 20
148.35
 30
0.0
 11
-148.5459999999999
 21
148.35
 31
0.0
  0
LINE
  5
148
330
A
100
AcDbEntity
  8
PV
  6
Continuous
 62
     7
100
AcDbLine
 10
-151.412
 20
155.262
 30
0.0
 11
-149.024
 21
149.6349999999999
 31
0.0
  0
LINE
  5
149
330
A
100
AcDbEntity
  8
PV
  6
Continuous
 62
     7
100
AcDbLine
 10
-151.5639999999999
 20
153.7589999999999
 30
0.0
 11
-149.268
 21
148.35
 31
0.0
  0
LINE
  5
14A
330
A
100
AcDbEntity
  8
PV
  6
Continuous
 62
     7
100
AcDbLine
 10
-153.247
 20
148.35
 30
0.0
 11
-152.0279999999999
 21
155.262
 31
0.0
  0
LINE
  5
14B
330
A
100
AcDbEntity
  8
PV
  6
Continuous
 62
     7
100
AcDbLine
 10
-152.5179999999999
 20
148.35
 30
0.0
 11
-151.5639999999999
 21
153.7589999999999
 31
0.0
  0
LINE
  5
14C
330
A
100
AcDbEntity
  8
PV
  6
Continuous
 62
     7
100
AcDbLine
 10
-149.024
 20
149.6349999999999
 30
0.0
 11
-148.032
 21
155.262
 31
0.0
  0
LINE
  5
14D
330
A
100
AcDbEntity
  8
PV
  6
Continuous
 62
     7
100
AcDbLine
 10
-148.5459999999999
 20
148.35
 30
0.0
 11
-147.328
 21
155.262
 31
0.0
  0
LINE
  5
14E
330
A
100
AcDbEntity
  8
PV
  6
Continuous
 62
     7
100
AcDbLine
 10
-152.0279999999999
 20
155.262
 30
0.0
 11
-151.412
 21
155.262
 31
0.0
  0
LINE
  5
14F
330
A
100
AcDbEntity
  8
PV
  6
Continuous
 62
     7
100
AcDbLine
 10
-153.247
 20
148.35
 30
0.0
 11
-152.5179999999999
 21
148.35
 31
0.0
  0
CIRCLE
  5
150
330
A
100
AcDbEntity
  8
PV
  6
Continuous
 62
     7
100
AcDbCircle
 10
-163.376
 20
100.0059999999999
 30
0.0
 40
6.961
  0
CIRCLE
  5
151
330
A
100
AcDbEntity
  8
PV
  6
Continuous
 62
     7
100
AcDbCircle
 10
-163.376
 20
100.0059999999999
 30
0.0
 40
8.0
  0
LINE
  5
152
330
A
100
AcDbEntity
  8
PV
  6
Continuous
 62
     7
100
AcDbLine
 10
-167.3759999999998
 20
97.61600000000001
 30
0.0
 11
-163.376
 21
95.30599999999999
 31
0.0
  0
LINE
  5
153
330
A
100
AcDbEntity
  8
PV
  6
Continuous
 62
     7
100
AcDbLine
 10
-163.376
 20
104.706
 30
0.0
 11
-167.3759999999998
 21
102.397
 31
0.0
  0
LINE
  5
154
330
A
100
AcDbEntity
  8
PV
  6
Continuous
 62
     7
100
AcDbLine
 10
-167.3759999999998
 20
102.397
 30
0.0
 11
-167.3759999999998
 21
97.61600000000001
 31
0.0
  0
LINE
  5
155
330
A
100
AcDbEntity
  8
PV
  6
Continuous
 62
     7
100
AcDbLine
 10
-159.376
 20
102.397
 30
0.0
 11
-159.376
 21
97.61600000000001
 31
0.0
  0
LINE
  5
156
330
A
100
AcDbEntity
  8
PV
  6
Continuous
 62
     7
100
AcDbLine
 10
-163.376
 20
95.30599999999999
 30
0.0
 11
-159.376
 21
97.61600000000001
 31
0.0
  0
LINE
  5
157
330
A
100
AcDbEntity
  8
PV
  6
Continuous
 62
     7
100
AcDbLine
 10
-159.376
 20
102.397
 30
0.0
 11
-163.376
 21
104.706
 31
0.0
  0
CIRCLE
  5
158
330
A
100
AcDbEntity
  8
PV
  6
Continuous
 62
     7
100
AcDbCircle
 10
-77.376
 20
100.0059999999999
 30
0.0
 40
6.961
  0
CIRCLE
  5
159
330
A
100
AcDbEntity
  8
PV
  6
Continuous
 62
     7
100
AcDbCircle
 10
-77.376
 20
100.0059999999999
 30
0.0
 40
8.0
  0
LINE
  5
15A
330
A
100
AcDbEntity
  8
PV
  6
Continuous
 62
     7
100
AcDbLine
 10
-81.376
 20
97.61600000000001
 30
0.0
 11
-77.376
 21
95.30599999999999
 31
0.0
  0
LINE
  5
15B
330
A
100
AcDbEntity
  8
PV
  6
Continuous
 62
     7
100
AcDbLine
 10
-77.376
 20
104.706
 30
0.0
 11
-81.376
 21
102.397
 31
0.0
  0
LINE
  5
15C
330
A
100
AcDbEntity
  8
PV
  6
Continuous
 62
     7
100
AcDbLine
 10
-81.376
 20
102.397
 30
0.0
 11
-81.376
 21
97.61600000000001
 31
0.0
  0
LINE
  5
15D
330
A
100
AcDbEntity
  8
PV
  6
Continuous
 62
     7
100
AcDbLine
 10
-73.37600000000001
 20
102.397
 30
0.0
 11
-73.37600000000001
 21
97.61600000000001
 31
0.0
  0
LINE
  5
15E
330
A
100
AcDbEntity
  8
PV
  6
Continuous
 62
     7
100
AcDbLine
 10
-77.376
 20
95.30599999999999
 30
0.0
 11
-73.37600000000001
 21
97.61600000000001
 31
0.0
  0
LINE
  5
15F
330
A
100
AcDbEntity
  8
PV
  6
Continuous
 62
     7
100
AcDbLine
 10
-73.37600000000001
 20
102.397
 30
0.0
 11
-77.376
 21
104.706
 31
0.0
  0
CIRCLE
  5
160
330
A
100
AcDbEntity
  8
PV
  6
Continuous
 62
     7
100
AcDbCircle
 10
-77.376
 20
186.0059999999999
 30
0.0
 40
6.961
  0
CIRCLE
  5
161
330
A
100
AcDbEntity
  8
PV
  6
Continuous
 62
     7
100
AcDbCircle
 10
-77.376
 20
186.0059999999999
 30
0.0
 40
8.0
  0
LINE
  5
162
330
A
100
AcDbEntity
  8
PV
  6
Continuous
 62
     7
100
AcDbLine
 10
-81.376
 20
183.6159999999999
 30
0.0
 11
-77.376
 21
181.3059999999999
 31
0.0
  0
LINE
  5
163
330
A
100
AcDbEntity
  8
PV
  6
Continuous
 62
     7
100
AcDbLine
 10
-77.376
 20
190.7059999999999
 30
0.0
 11
-81.376
 21
188.397
 31
0.0
  0
LINE
  5
164
330
A
100
AcDbEntity
  8
PV
  6
Continuous
 62
     7
100
AcDbLine
 10
-81.376
 20
188.397
 30
0.0
 11
-81.376
 21
183.6159999999999
 31
0.0
  0
LINE
  5
165
330
A
100
AcDbEntity
  8
PV
  6
Continuous
 62
     7
100
AcDbLine
 10
-73.37600000000001
 20
188.397
 30
0.0
 11
-73.37600000000001
 21
183.6159999999999
 31
0.0
  0
LINE
  5
166
330
A
100
AcDbEntity
  8
PV
  6
Continuous
 62
     7
100
AcDbLine
 10
-77.376
 20
181.3059999999999
 30
0.0
 11
-73.37600000000001
 21
183.6159999999999
 31
0.0
  0
LINE
  5
167
330
A
100
AcDbEntity
  8
PV
  6
Continuous
 62
     7
100
AcDbLine
 10
-73.37600000000001
 20
188.397
 30
0.0
 11
-77.376
 21
190.7059999999999
 31
0.0
  0
CIRCLE
  5
168
330
A
100
AcDbEntity
  8
PV
  6
Continuous
 62
     7
100
AcDbCircle
 10
-163.376
 20
186.0059999999999
 30
0.0
 40
6.961
  0
CIRCLE
  5
169
330
A
100
AcDbEntity
  8
PV
  6
Continuous
 62
     7
100
AcDbCircle
 10
-163.376
 20
186.0059999999999
 30
0.0
 40
8.0
  0
LINE
  5
16A
330
A
100
AcDbEntity
  8
PV
  6
Continuous
 62
     7
100
AcDbLine
 10
-167.3759999999998
 20
183.6159999999999
 30
0.0
 11
-163.376
 21
181.3059999999999
 31
0.0
  0
LINE
  5
16B
330
A
100
AcDbEntity
  8
PV
  6
Continuous
 62
     7
100
AcDbLine
 10
-163.376
 20
190.7059999999999
 30
0.0
 11
-167.3759999999998
 21
188.397
 31
0.0
  0
LINE
  5
16C
330
A
100
AcDbEntity
  8
PV
  6
Continuous
 62
     7
100
AcDbLine
 10
-167.3759999999998
 20
188.397
 30
0.0
 11
-167.3759999999998
 21
183.6159999999999
 31
0.0
  0
LINE
  5
16D
330
A
100
AcDbEntity
  8
PV
  6
Continuous
 62
     7
100
AcDbLine
 10
-159.376
 20
188.397
 30
0.0
 11
-159.376
 21
183.6159999999999
 31
0.0
  0
LINE
  5
16E
330
A
100
AcDbEntity
  8
PV
  6
Continuous
 62
     7
100
AcDbLine
 10
-163.376
 20
181.3059999999999
 30
0.0
 11
-159.376
 21
183.6159999999999
 31
0.0
  0
LINE
  5
16F
330
A
100
AcDbEntity
  8
PV
  6
Continuous
 62
     7
100
AcDbLine
 10
-159.376
 20
188.397
 30
0.0
 11
-163.376
 21
190.7059999999999
 31
0.0
  0
LINE
  5
170
330
A
100
AcDbEntity
  8
PV
  6
Continuous
 62
     7
100
AcDbLine
 10
154.072
 20
-19.94099999999998
 30
0.0
 11
155.0
 21
-16.47899999999999
 31
0.0
  0
LINE
  5
171
330
A
100
AcDbEntity
  8
PV
  6
Continuous
 62
     7
100
AcDbLine
 10
155.0
 20
-16.47899999999999
 30
0.0
 11
155.928
 21
-19.94099999999998
 31
0.0
  0
LINE
  5
172
330
A
100
AcDbEntity
  8
PV
  6
Continuous
 62
     7
100
AcDbLine
 10
155.0
 20
-16.47899999999999
 30
0.0
 11
155.0
 21
-19.94099999999998
 31
0.0
  0
LINE
  5
173
330
A
100
AcDbEntity
  8
PV
  6
Continuous
 62
     7
100
AcDbLine
 10
155.928
 20
-176.5159999999999
 30
0.0
 11
155.0
 21
-179.979
 31
0.0
  0
LINE
  5
174
330
A
100
AcDbEntity
  8
PV
  6
Continuous
 62
     7
100
AcDbLine
 10
155.0
 20
-179.979
 30
0.0
 11
154.072
 21
-176.5159999999999
 31
0.0
  0
LINE
  5
175
330
A
100
AcDbEntity
  8
PV
  6
Continuous
 62
     7
100
AcDbLine
 10
155.0
 20
-179.979
 30
0.0
 11
155.0
 21
-176.5159999999999
 31
0.0
  0
LINE
  5
176
330
A
100
AcDbEntity
  8
PV
  6
Continuous
 62
     7
100
AcDbLine
 10
155.0
 20
-16.47899999999999
 30
0.0
 11
155.0
 21
-179.979
 31
0.0
  0
LINE
  5
177
330
A
100
AcDbEntity
  8
PV
  6
Continuous
 62
     7
100
AcDbLine
 10
93.175
 20
-16.47899999999999
 30
0.0
 11
157.857
 21
-16.47899999999999
 31
0.0
  0
LINE
  5
178
330
A
100
AcDbEntity
  8
PV
  6
Continuous
 62
     7
100
AcDbLine
 10
126.299
 20
-179.979
 30
0.0
 11
157.857
 21
-179.979
 31
0.0
  0
MTEXT
  5
179
330
A
100
AcDbEntity
  8
PV
  6
Continuous
 62
     7
100
AcDbMText
 10
144.216666
 20
-98.229
 30
0.0
 40
8.4
 41
0.0
 71
     2
 72
     1
  1
\A1;163.5
 11
0.0
 21
1.0
 31
0.0
 73
     1
 44
1.0
  0
POINT
  5
17A
330
A
100
AcDbEntity
  8
PV
  6
Continuous
 62
     7
100
AcDbPoint
 10
90.0
 20
-16.47899999999999
 30
0.0
  0
POINT
  5
17B
330
A
100
AcDbEntity
  8
PV
  6
Continuous
 62
     7
100
AcDbPoint
 10
123.1239999999999
 20
-179.979
 30
0.0
  0
POINT
  5
17C
330
A
100
AcDbEntity
  8
PV
  6
Continuous
 62
     7
100
AcDbPoint
 10
155.0
 20
-179.979
 30
0.0
  0
LINE
  5
17D
330
A
100
AcDbEntity
  8
PV
  6
Continuous
 62
     7
100
AcDbLine
 10
154.072
 20
25.559
 30
0.0
 11
155.0
 21
29.021
 31
0.0
  0
LINE
  5
17E
330
A
100
AcDbEntity
  8
PV
  6
Continuous
 62
     7
100
AcDbLine
 10
155.0
 20
29.021
 30
0.0
 11
155.928
 21
25.559
 31
0.0
  0
LINE
  5
17F
330
A
100
AcDbEntity
  8
PV
  6
Continuous
 62
     7
100
AcDbLine
 10
155.0
 20
29.021
 30
0.0
 11
155.0
 21
25.559
 31
0.0
  0
LINE
  5
180
330
A
100
AcDbEntity
  8
PV
  6
Continuous
 62
     7
100
AcDbLine
 10
155.928
 20
-13.01599999999999
 30
0.0
 11
155.0
 21
-16.47899999999999
 31
0.0
  0
LINE
  5
181
330
A
100
AcDbEntity
  8
PV
  6
Continuous
 62
     7
100
AcDbLine
 10
155.0
 20
-16.47899999999999
 30
0.0
 11
154.072
 21
-13.01599999999999
 31
0.0
  0
LINE
  5
182
330
A
100
AcDbEntity
  8
PV
  6
Continuous
 62
     7
100
AcDbLine
 10
155.0
 20
-16.47899999999999
 30
0.0
 11
155.0
 21
-13.01599999999999
 31
0.0
  0
LINE
  5
183
330
A
100
AcDbEntity
  8
PV
  6
Continuous
 62
     7
100
AcDbLine
 10
155.0
 20
29.021
 30
0.0
 11
155.0
 21
-16.47899999999999
 31
0.0
  0
LINE
  5
184
330
A
100
AcDbEntity
  8
PV
  6
Continuous
 62
     7
100
AcDbLine
 10
93.175
 20
29.021
 30
0.0
 11
157.857
 21
29.021
 31
0.0
  0
MTEXT
  5
185
330
A
100
AcDbEntity
  8
PV
  6
Continuous
 62
     7
100
AcDbMText
 10
144.2166669999999
 20
6.270999999999999
 30
0.0
 40
8.4
 41
0.0
 71
     2
 72
     1
  1
\A1;45.5
 11
0.0
 21
1.0
 31
0.0
 73
     1
 44
1.0
  0
POINT
  5
186
330
A
100
AcDbEntity
  8
PV
  6
Continuous
 62
     7
100
AcDbPoint
 10
90.0
 20
29.021
 30
0.0
  0
POINT
  5
187
330
A
100
AcDbEntity
  8
PV
  6
Continuous
 62
     7
100
AcDbPoint
 10
94.75900000000001
 20
-16.47899999999999
 30
0.0
  0
POINT
  5
188
330
A
100
AcDbEntity
  8
PV
  6
Continuous
 62
     7
100
AcDbPoint
 10
155.0
 20
-16.47899999999999
 30
0.0
  0
LINE
  5
189
330
A
100
AcDbEntity
  8
PV
  6
Continuous
 62
     7
100
AcDbLine
 10
-68.838
 20
-164.0719999999999
 30
0.0
 11
-65.37600000000001
 21
-165.0
 31
0.0
  0
LINE
  5
18A
330
A
100
AcDbEntity
  8
PV
  6
Continuous
 62
     7
100
AcDbLine
 10
-65.37600000000001
 20
-165.0
 30
0.0
 11
-68.838
 21
-165.928
 31
0.0
  0
LINE
  5
18B
330
A
100
AcDbEntity
  8
PV
  6
Continuous
 62
     7
100
AcDbLine
 10
-65.37600000000001
 20
-165.0
 30
0.0
 11
-68.838
 21
-165.0
 31
0.0
  0
LINE
  5
18C
330
A
100
AcDbEntity
  8
PV
  6
Continuous
 62
     7
100
AcDbLine
 10
-171.9129999999999
 20
-165.928
 30
0.0
 11
-175.3759999999999
 21
-165.0
 31
0.0
  0
LINE
  5
18D
330
A
100
AcDbEntity
  8
PV
  6
Continuous
 62
     7
100
AcDbLine
 10
-175.3759999999999
 20
-165.0
 30
0.0
 11
-171.9129999999999
 21
-164.0719999999999
 31
0.0
  0
LINE
  5
18E
330
A
100
AcDbEntity
  8
PV
  6
Continuous
 62
     7
100
AcDbLine
 10
-175.3759999999999
 20
-165.0
 30
0.0
 11
-171.9129999999999
 21
-165.0
 31
0.0
  0
LINE
  5
18F
330
A
100
AcDbEntity
  8
PV
  6
Continuous
 62
     7
100
AcDbLine
 10
-65.37600000000001
 20
-165.0
 30
0.0
 11
-175.3759999999999
 21
-165.0
 31
0.0
  0
LINE
  5
190
330
A
100
AcDbEntity
  8
PV
  6
Continuous
 62
     7
100
AcDbLine
 10
-65.37600000000001
 20
-143.175
 30
0.0
 11
-65.37600000000001
 21
-167.857
 31
0.0
  0
LINE
  5
191
330
A
100
AcDbEntity
  8
PV
  6
Continuous
 62
     7
100
AcDbLine
 10
-175.3759999999999
 20
-143.175
 30
0.0
 11
-175.3759999999999
 21
-167.857
 31
0.0
  0
MTEXT
  5
192
330
A
100
AcDbEntity
  8
PV
  6
Continuous
 62
     7
100
AcDbMText
 10
-100.0
 20
-154.216667
 30
0.0
 40
8.4
 41
0.0
 71
     2
 72
     1
  1
\A1;\U+2205110
 73
     1
 44
1.0
  0
POINT
  5
193
330
A
100
AcDbEntity
  8
PV
  6
Continuous
 62
     7
100
AcDbPoint
 10
-65.37600000000001
 20
-140.0
 30
0.0
  0
POINT
  5
194
330
A
100
AcDbEntity
  8
PV
  6
Continuous
 62
     7
100
AcDbPoint
 10
-175.3759999999999
 20
-140.0
 30
0.0
  0
POINT
  5
195
330
A
100
AcDbEntity
  8
PV
  6
Continuous
 62
     7
100
AcDbPoint
 10
-175.3759999999999
 20
-165.0
 30
0.0
  0
LINE
  5
196
330
A
100
AcDbEntity
  8
PV
  6
Continuous
 62
     7
100
AcDbLine
 10
-204.9129999999999
 20
208.7459999999999
 30
0.0
 11
-208.3759999999999
 21
209.6729999999999
 31
0.0
  0
LINE
  5
197
330
A
100
AcDbEntity
  8
PV
  6
Continuous
 62
     7
100
AcDbLine
 10
-208.3759999999999
 20
209.6729999999999
 30
0.0
 11
-204.9129999999999
 21
210.6009999999999
 31
0.0
  0
LINE
  5
198
330
A
100
AcDbEntity
  8
PV
  6
Continuous
 62
     7
100
AcDbLine
 10
-208.3759999999999
 20
209.6729999999999
 30
0.0
 11
-204.9129999999999
 21
209.6729999999999
 31
0.0
  0
LINE
  5
199
330
A
100
AcDbEntity
  8
PV
  6
Continuous
 62
     7
100
AcDbLine
 10
-68.838
 20
210.6009999999999
 30
0.0
 11
-65.37600000000001
 21
209.6729999999999
 31
0.0
  0
LINE
  5
19A
330
A
100
AcDbEntity
  8
PV
  6
Continuous
 62
     7
100
AcDbLine
 10
-65.37600000000001
 20
209.6729999999999
 30
0.0
 11
-68.838
 21
208.7459999999999
 31
0.0
  0
LINE
  5
19B
330
A
100
AcDbEntity
  8
PV
  6
Continuous
 62
     7
100
AcDbLine
 10
-65.37600000000001
 20
209.6729999999999
 30
0.0
 11
-68.838
 21
209.6729999999999
 31
0.0
  0
LINE
  5
19C
330
A
100
AcDbEntity
  8
PV
  6
Continuous
 62
     7
100
AcDbLine
 10
-208.3759999999999
 20
209.6729999999999
 30
0.0
 11
-65.37600000000001
 21
209.6729999999999
 31
0.0
  0
LINE
  5
19D
330
A
100
AcDbEntity
  8
PV
  6
Continuous
 62
     7
100
AcDbLine
 10
-208.3759999999999
 20
189.6809999999999
 30
0.0
 11
-208.3759999999999
 21
212.5309999999999
 31
0.0
  0
LINE
  5
19E
330
A
100
AcDbEntity
  8
PV
  6
Continuous
 62
     7
100
AcDbLine
 10
-65.37600000000001
 20
194.1809999999999
 30
0.0
 11
-65.37600000000001
 21
212.5309999999999
 31
0.0
  0
MTEXT
  5
19F
330
A
100
AcDbEntity
  8
PV
  6
Continuous
 62
     7
100
AcDbMText
 10
-136.8759999999998
 20
220.456333
 30
0.0
 40
8.4
 41
0.0
 71
     2
 72
     1
  1
\A1;143
 73
     1
 44
1.0
  0
POINT
  5
1A0
330
A
100
AcDbEntity
  8
PV
  6
Continuous
 62
     7
100
AcDbPoint
 10
-208.3759999999999
 20
186.5059999999999
 30
0.0
  0
POINT
  5
1A1
330
A
100
AcDbEntity
  8
PV
  6
Continuous
 62
     7
100
AcDbPoint
 10
-65.37600000000001
 20
191.0059999999999
 30
0.0
  0
POINT
  5
1A2
330
A
100
AcDbEntity
  8
PV
  6
Continuous
 62
     7
100
AcDbPoint
 10
-65.37600000000001
 20
209.6729999999999
 30
0.0
  0
LINE
  5
1A3
330
A
100
AcDbEntity
  8
PV
  6
Continuous
 62
     7
100
AcDbLine
 10
-29.64
 20
-28.94099999999999
 30
0.0
 11
-28.71199999999999
 21
-25.479
 31
0.0
  0
LINE
  5
1A4
330
A
100
AcDbEntity
  8
PV
  6
Continuous
 62
     7
100
AcDbLine
 10
-28.71199999999999
 20
-25.479
 30
0.0
 11
-27.785
 21
-28.94099999999999
 31
0.0
  0
LINE
  5
1A5
330
A
100
AcDbEntity
  8
PV
  6
Continuous
 62
     7
100
AcDbLine
 10
-28.71199999999999
 20
-25.479
 30
0.0
 11
-28.71199999999999
 21
-28.94099999999999
 31
0.0
  0
LINE
  5
1A6
330
A
100
AcDbEntity
  8
PV
  6
Continuous
 62
     7
100
AcDbLine
 10
-27.785
 20
-176.5159999999999
 30
0.0
 11
-28.71199999999999
 21
-179.979
 31
0.0
  0
LINE
  5
1A7
330
A
100
AcDbEntity
  8
PV
  6
Continuous
 62
     7
100
AcDbLine
 10
-28.71199999999999
 20
-179.979
 30
0.0
 11
-29.64
 21
-176.5159999999999
 31
0.0
  0
LINE
  5
1A8
330
A
100
AcDbEntity
  8
PV
  6
Continuous
 62
     7
100
AcDbLine
 10
-28.71199999999999
 20
-179.979
 30
0.0
 11
-28.71199999999999
 21
-176.5159999999999
 31
0.0
  0
LINE
  5
1A9
330
A
100
AcDbEntity
  8
PV
  6
Continuous
 62
     7
100
AcDbLine
 10
-28.71199999999999
 20
-25.479
 30
0.0
 11
-28.71199999999999
 21
-179.979
 31
0.0
  0
MTEXT
  5
1AA
330
A
100
AcDbEntity
  8
PV
  6
Continuous
 62
     7
100
AcDbMText
 10
-39.49533399999999
 20
-102.729
 30
0.0
 40
8.4
 41
0.0
 71
     2
 72
     1
  1
\A1;154.5
 11
0.0
 21
1.0
 31
0.0
 73
     1
 44
1.0
  0
POINT
  5
1AB
330
A
100
AcDbEntity
  8
PV
  6
Continuous
 62
     7
100
AcDbPoint
 10
-65.40899999999999
 20
-25.479
 30
0.0
  0
POINT
  5
1AC
330
A
100
AcDbEntity
  8
PV
  6
Continuous
 62
     7
100
AcDbPoint
 10
-76.876
 20
-179.979
 30
0.0
  0
POINT
  5
1AD
330
A
100
AcDbEntity
  8
PV
  6
Continuous
 62
     7
100
AcDbPoint
 10
-28.71199999999999
 20
-179.979
 30
0.0
  0
LINE
  5
1AE
330
A
100
AcDbEntity
  8
PV
  6
Continuous
 62
     7
100
AcDbLine
 10
-29.64
 20
45.559
 30
0.0
 11
-28.71199999999999
 21
49.021
 31
0.0
  0
LINE
  5
1AF
330
A
100
AcDbEntity
  8
PV
  6
Continuous
 62
     7
100
AcDbLine
 10
-28.71199999999999
 20
49.021
 30
0.0
 11
-27.785
 21
45.559
 31
0.0
  0
LINE
  5
1B0
330
A
100
AcDbEntity
  8
PV
  6
Continuous
 62
     7
100
AcDbLine
 10
-28.71199999999999
 20
49.021
 30
0.0
 11
-28.71199999999999
 21
45.559
 31
0.0
  0
LINE
  5
1B1
330
A
100
AcDbEntity
  8
PV
  6
Continuous
 62
     7
100
AcDbLine
 10
-27.785
 20
-22.016
 30
0.0
 11
-28.71199999999999
 21
-25.479
 31
0.0
  0
LINE
  5
1B2
330
A
100
AcDbEntity
  8
PV
  6
Continuous
 62
     7
100
AcDbLine
 10
-28.71199999999999
 20
-25.479
 30
0.0
 11
-29.64
 21
-22.016
 31
0.0
  0
LINE
  5
1B3
330
A
100
AcDbEntity
  8
PV
  6
Continuous
 62
     7
100
AcDbLine
 10
-28.71199999999999
 20
-25.479
 30
0.0
 11
-28.71199999999999
 21
-22.016
 31
0.0
  0
LINE
  5
1B4
330
A
100
AcDbEntity
  8
PV
  6
Continuous
 62
     7
100
AcDbLine
 10
-28.71199999999999
 20
49.021
 30
0.0
 11
-28.71199999999999
 21
-25.479
 31
0.0
  0
LINE
  5
1B5
330
A
100
AcDbEntity
  8
PV
  6
Continuous
 62
     7
100
AcDbLine
 10
-62.23399999999998
 20
-25.479
 30
0.0
 11
-26.42599999999999
 21
-25.479
 31
0.0
  0
MTEXT
  5
1B6
330
A
100
AcDbEntity
  8
PV
  6
Continuous
 62
     7
100
AcDbMText
 10
-39.495333
 20
11.771
 30
0.0
 40
8.4
 41
0.0
 71
     2
 72
     1
  1
\A1;74.5
 11
0.0
 21
1.0
 31
0.0
 73
     1
 44
1.0
  0
POINT
  5
1B7
330
A
100
AcDbEntity
  8
PV
  6
Continuous
 62
     7
100
AcDbPoint
 10
-65.37600000000001
 20
49.021
 30
0.0
  0
POINT
  5
1B8
330
A
100
AcDbEntity
  8
PV
  6
Continuous
 62
     7
100
AcDbPoint
 10
-65.40899999999999
 20
-25.479
 30
0.0
  0
POINT
  5
1B9
330
A
100
AcDbEntity
  8
PV
  6
Continuous
 62
     7
100
AcDbPoint
 10
-28.71199999999999
 20
-25.479
 30
0.0
  0
LINE
  5
1BA
330
A
100
AcDbEntity
  8
PV
  6
Continuous
 62
     7
100
AcDbLine
 10
-16.385
 20
45.559
 30
0.0
 11
-15.457
 21
49.021
 31
0.0
  0
LINE
  5
1BB
330
A
100
AcDbEntity
  8
PV
  6
Continuous
 62
     7
100
AcDbLine
 10
-15.457
 20
49.021
 30
0.0
 11
-14.529
 21
45.559
 31
0.0
  0
LINE
  5
1BC
330
A
100
AcDbEntity
  8
PV
  6
Continuous
 62
     7
100
AcDbLine
 10
-15.457
 20
49.021
 30
0.0
 11
-15.457
 21
45.559
 31
0.0
  0
LINE
  5
1BD
330
A
100
AcDbEntity
  8
PV
  6
Continuous
 62
     7
100
AcDbLine
 10
-14.529
 20
-176.5159999999999
 30
0.0
 11
-15.457
 21
-179.979
 31
0.0
  0
LINE
  5
1BE
330
A
100
AcDbEntity
  8
PV
  6
Continuous
 62
     7
100
AcDbLine
 10
-15.457
 20
-179.979
 30
0.0
 11
-16.385
 21
-176.5159999999999
 31
0.0
  0
LINE
  5
1BF
330
A
100
AcDbEntity
  8
PV
  6
Continuous
 62
     7
100
AcDbLine
 10
-15.457
 20
-179.979
 30
0.0
 11
-15.457
 21
-176.5159999999999
 31
0.0
  0
LINE
  5
1C0
330
A
100
AcDbEntity
  8
PV
  6
Continuous
 62
     7
100
AcDbLine
 10
-15.457
 20
49.021
 30
0.0
 11
-15.457
 21
-179.979
 31
0.0
  0
LINE
  5
1C1
330
A
100
AcDbEntity
  8
PV
  6
Continuous
 62
     7
100
AcDbLine
 10
-62.201
 20
49.021
 30
0.0
 11
-13.17099999999999
 21
49.021
 31
0.0
  0
LINE
  5
1C2
330
A
100
AcDbEntity
  8
PV
  6
Continuous
 62
     7
100
AcDbLine
 10
-73.701
 20
-179.979
 30
0.0
 11
-13.17099999999999
 21
-179.979
 31
0.0
  0
MTEXT
  5
1C3
330
A
100
AcDbEntity
  8
PV
  6
Continuous
 62
     7
100
AcDbMText
 10
-26.240333
 20
-65.479
 30
0.0
 40
8.4
 41
0.0
 71
     2
 72
     1
  1
\W0.952;\A1;229
 11
0.0
 21
1.0
 31
0.0
 73
     1
 44
1.0
  0
POINT
  5
1C4
330
A
100
AcDbEntity
  8
PV
  6
Continuous
 62
     7
100
AcDbPoint
 10
-65.37600000000001
 20
49.021
 30
0.0
  0
POINT
  5
1C5
330
A
100
AcDbEntity
  8
PV
  6
Continuous
 62
     7
100
AcDbPoint
 10
-76.876
 20
-179.979
 30
0.0
  0
POINT
  5
1C6
330
A
100
AcDbEntity
  8
PV
  6
Continuous
 62
     7
100
AcDbPoint
 10
-15.457
 20
-179.979
 30
0.0
  0
LINE
  5
1C7
330
A
100
AcDbEntity
  8
PV
  6
Continuous
 62
     7
100
AcDbLine
 10
-228.0879999999999
 20
-132.016
 30
0.0
 11
-229.0159999999999
 21
-135.4789999999999
 31
0.0
  0
LINE
  5
1C8
330
A
100
AcDbEntity
  8
PV
  6
Continuous
 62
     7
100
AcDbLine
 10
-229.0159999999999
 20
-135.4789999999999
 30
0.0
 11
-229.944
 21
-132.016
 31
0.0
  0
LINE
  5
1C9
330
A
100
AcDbEntity
  8
PV
  6
Continuous
 62
     7
100
AcDbLine
 10
-229.0159999999999
 20
-135.4789999999999
 30
0.0
 11
-229.0159999999999
 21
-132.016
 31
0.0
  0
LINE
  5
1CA
330
A
100
AcDbEntity
  8
PV
  6
Continuous
 62
     7
100
AcDbLine
 10
-229.944
 20
-51.941
 30
0.0
 11
-229.0159999999999
 21
-48.479
 31
0.0
  0
LINE
  5
1CB
330
A
100
AcDbEntity
  8
PV
  6
Continuous
 62
     7
100
AcDbLine
 10
-229.0159999999999
 20
-48.479
 30
0.0
 11
-228.0879999999999
 21
-51.941
 31
0.0
  0
LINE
  5
1CC
330
A
100
AcDbEntity
  8
PV
  6
Continuous
 62
     7
100
AcDbLine
 10
-229.0159999999999
 20
-48.479
 30
0.0
 11
-229.0159999999999
 21
-51.941
 31
0.0
  0
LINE
  5
1CD
330
A
100
AcDbEntity
  8
PV
  6
Continuous
 62
     7
100
AcDbLine
 10
-229.0159999999999
 20
-135.4789999999999
 30
0.0
 11
-229.0159999999999
 21
-48.479
 31
0.0
  0
LINE
  5
1CE
330
A
100
AcDbEntity
  8
PV
  6
Continuous
 62
     7
100
AcDbLine
 10
-211.551
 20
-135.4789999999999
 30
0.0
 11
-233.5879999999999
 21
-135.4789999999999
 31
0.0
  0
LINE
  5
1CF
330
A
100
AcDbEntity
  8
PV
  6
Continuous
 62
     7
100
AcDbLine
 10
-211.551
 20
-48.479
 30
0.0
 11
-233.5879999999999
 21
-48.479
 31
0.0
  0
MTEXT
  5
1D0
330
A
100
AcDbEntity
  8
PV
  6
Continuous
 62
     7
100
AcDbMText
 10
-239.7993339999999
 20
-71.58800000000002
 30
0.0
 40
8.4
 41
0.0
 71
     2
 72
     1
  1
\T0.912;\W1.064;\A1;\U+220587
 11
0.0
 21
1.0
 31
0.0
 73
     1
 44
1.0
  0
POINT
  5
1D1
330
A
100
AcDbEntity
  8
PV
  6
Continuous
 62
     7
100
AcDbPoint
 10
-208.3759999999999
 20
-135.4789999999999
 30
0.0
  0
POINT
  5
1D2
330
A
100
AcDbEntity
  8
PV
  6
Continuous
 62
     7
100
AcDbPoint
 10
-208.3759999999999
 20
-48.479
 30
0.0
  0
POINT
  5
1D3
330
A
100
AcDbEntity
  8
PV
  6
Continuous
 62
     7
100
AcDbPoint
 10
-229.0159999999999
 20
-48.479
 30
0.0
  0
LINE
  5
1D4
330
A
100
AcDbEntity
  8
PV
  6
Continuous
 62
     7
100
AcDbLine
 10
-245.75
 20
-176.5159999999999
 30
0.0
 11
-246.6779999999999
 21
-179.979
 31
0.0
  0
LINE
  5
1D5
330
A
100
AcDbEntity
  8
PV
  6
Continuous
 62
     7
100
AcDbLine
 10
-246.6779999999999
 20
-179.979
 30
0.0
 11
-247.6059999999999
 21
-176.5159999999999
 31
0.0
  0
LINE
  5
1D6
330
A
100
AcDbEntity
  8
PV
  6
Continuous
 62
     7
100
AcDbLine
 10
-246.6779999999999
 20
-179.979
 30
0.0
 11
-246.6779999999999
 21
-176.5159999999999
 31
0.0
  0
LINE
  5
1D7
330
A
100
AcDbEntity
  8
PV
  6
Continuous
 62
     7
100
AcDbLine
 10
-247.6059999999999
 20
-95.441
 30
0.0
 11
-246.6779999999999
 21
-91.979
 31
0.0
  0
LINE
  5
1D8
330
A
100
AcDbEntity
  8
PV
  6
Continuous
 62
     7
100
AcDbLine
 10
-246.6779999999999
 20
-91.979
 30
0.0
 11
-245.75
 21
-95.441
 31
0.0
  0
LINE
  5
1D9
330
A
100
AcDbEntity
  8
PV
  6
Continuous
 62
     7
100
AcDbLine
 10
-246.6779999999999
 20
-91.979
 30
0.0
 11
-246.6779999999999
 21
-95.441
 31
0.0
  0
LINE
  5
1DA
330
A
100
AcDbEntity
  8
PV
  6
Continuous
 62
     7
100
AcDbLine
 10
-246.6779999999999
 20
-179.979
 30
0.0
 11
-246.6779999999999
 21
-91.979
 31
0.0
  0
LINE
  5
1DB
330
A
100
AcDbEntity
  8
PV
  6
Continuous
 62
     7
100
AcDbLine
 10
-167.0509999999999
 20
-179.979
 30
0.0
 11
-251.25
 21
-179.979
 31
0.0
  0
LINE
  5
1DC
330
A
100
AcDbEntity
  8
PV
  6
Continuous
 62
     7
100
AcDbLine
 10
-219.09
 20
-91.979
 30
0.0
 11
-251.25
 21
-91.979
 31
0.0
  0
MTEXT
  5
1DD
330
A
100
AcDbEntity
  8
PV
  6
Continuous
 62
     7
100
AcDbMText
 10
-257.461333
 20
-135.9789999999998
 30
0.0
 40
8.4
 41
0.0
 71
     2
 72
     1
  1
\W0.952;\A1;88
 11
0.0
 21
1.0
 31
0.0
 73
     1
 44
1.0
  0
POINT
  5
1DE
330
A
100
AcDbEntity
  8
PV
  6
Continuous
 62
     7
100
AcDbPoint
 10
-163.8759999999998
 20
-179.979
 30
0.0
  0
POINT
  5
1DF
330
A
100
AcDbEntity
  8
PV
  6
Continuous
 62
     7
100
AcDbPoint
 10
-215.9149999999999
 20
-91.979
 30
0.0
  0
POINT
  5
1E0
330
A
100
AcDbEntity
  8
PV
  6
Continuous
 62
     7
100
AcDbPoint
 10
-246.6779999999999
 20
-91.979
 30
0.0
  0
LINE
  5
1E1
330
A
100
AcDbEntity
  8
PV
  6
Continuous
 62
     7
100
AcDbLine
 10
-123.838
 20
-221.31
 30
0.0
 11
-120.376
 21
-222.238
 31
0.0
  0
LINE
  5
1E2
330
A
100
AcDbEntity
  8
PV
  6
Continuous
 62
     7
100
AcDbLine
 10
-120.376
 20
-222.238
 30
0.0
 11
-123.838
 21
-223.166
 31
0.0
  0
LINE
  5
1E3
330
A
100
AcDbEntity
  8
PV
  6
Continuous
 62
     7
100
AcDbLine
 10
-120.376
 20
-222.238
 30
0.0
 11
-123.838
 21
-222.238
 31
0.0
  0
LINE
  5
1E4
330
A
100
AcDbEntity
  8
PV
  6
Continuous
 62
     7
100
AcDbLine
 10
-204.9129999999999
 20
-223.166
 30
0.0
 11
-208.3759999999999
 21
-222.238
 31
0.0
  0
LINE
  5
1E5
330
A
100
AcDbEntity
  8
PV
  6
Continuous
 62
     7
100
AcDbLine
 10
-208.3759999999999
 20
-222.238
 30
0.0
 11
-204.9129999999999
 21
-221.31
 31
0.0
  0
LINE
  5
1E6
330
A
100
AcDbEntity
  8
PV
  6
Continuous
 62
     7
100
AcDbLine
 10
-208.3759999999999
 20
-222.238
 30
0.0
 11
-204.9129999999999
 21
-222.238
 31
0.0
  0
LINE
  5
1E7
330
A
100
AcDbEntity
  8
PV
  6
Continuous
 62
     7
100
AcDbLine
 10
-120.376
 20
-222.238
 30
0.0
 11
-208.3759999999999
 21
-222.238
 31
0.0
  0
LINE
  5
1E8
330
A
100
AcDbEntity
  8
PV
  6
Continuous
 62
     7
100
AcDbLine
 10
-120.376
 20
-190.456
 30
0.0
 11
-120.376
 21
-226.81
 31
0.0
  0
LINE
  5
1E9
330
A
100
AcDbEntity
  8
PV
  6
Continuous
 62
     7
100
AcDbLine
 10
-208.3759999999999
 20
-138.6539999999999
 30
0.0
 11
-208.3759999999999
 21
-226.81
 31
0.0
  0
MTEXT
  5
1EA
330
A
100
AcDbEntity
  8
PV
  6
Continuous
 62
     7
100
AcDbMText
 10
-164.3759999999998
 20
-211.454667
 30
0.0
 40
8.4
 41
0.0
 71
     2
 72
     1
  1
\W0.952;\A1;88
 73
     1
 44
1.0
  0
POINT
  5
1EB
330
A
100
AcDbEntity
  8
PV
  6
Continuous
 62
     7
100
AcDbPoint
 10
-120.376
 20
-187.2809999999999
 30
0.0
  0
POINT
  5
1EC
330
A
100
AcDbEntity
  8
PV
  6
Continuous
 62
     7
100
AcDbPoint
 10
-208.3759999999999
 20
-135.4789999999999
 30
0.0
  0
POINT
  5
1ED
330
A
100
AcDbEntity
  8
PV
  6
Continuous
 62
     7
100
AcDbPoint
 10
-208.3759999999999
 20
-222.238
 30
0.0
  0
LINE
  5
1EE
330
A
100
AcDbEntity
  8
PV
  6
Continuous
 62
     7
100
AcDbLine
 10
-80.33800000000002
 20
-201.5699999999999
 30
0.0
 11
-76.876
 21
-202.4979999999999
 31
0.0
  0
LINE
  5
1EF
330
A
100
AcDbEntity
  8
PV
  6
Continuous
 62
     7
100
AcDbLine
 10
-76.876
 20
-202.4979999999999
 30
0.0
 11
-80.33800000000002
 21
-203.4259999999999
 31
0.0
  0
LINE
  5
1F0
330
A
100
AcDbEntity
  8
PV
  6
Continuous
 62
     7
100
AcDbLine
 10
-76.876
 20
-202.4979999999999
 30
0.0
 11
-80.33800000000002
 21
-202.4979999999999
 31
0.0
  0
LINE
  5
1F1
330
A
100
AcDbEntity
  8
PV
  6
Continuous
 62
     7
100
AcDbLine
 10
-160.4129999999998
 20
-203.4259999999999
 30
0.0
 11
-163.8759999999998
 21
-202.4979999999999
 31
0.0
  0
LINE
  5
1F2
330
A
100
AcDbEntity
  8
PV
  6
Continuous
 62
     7
100
AcDbLine
 10
-163.8759999999998
 20
-202.4979999999999
 30
0.0
 11
-160.4129999999998
 21
-201.5699999999999
 31
0.0
  0
LINE
  5
1F3
330
A
100
AcDbEntity
  8
PV
  6
Continuous
 62
     7
100
AcDbLine
 10
-163.8759999999998
 20
-202.4979999999999
 30
0.0
 11
-160.4129999999998
 21
-202.4979999999999
 31
0.0
  0
LINE
  5
1F4
330
A
100
AcDbEntity
  8
PV
  6
Continuous
 62
     7
100
AcDbLine
 10
-76.876
 20
-202.4979999999999
 30
0.0
 11
-163.8759999999998
 21
-202.4979999999999
 31
0.0
  0
LINE
  5
1F5
330
A
100
AcDbEntity
  8
PV
  6
Continuous
 62
     7
100
AcDbLine
 10
-76.876
 20
-183.154
 30
0.0
 11
-76.876
 21
-207.0699999999999
 31
0.0
  0
LINE
  5
1F6
330
A
100
AcDbEntity
  8
PV
  6
Continuous
 62
     7
100
AcDbLine
 10
-163.8759999999998
 20
-183.154
 30
0.0
 11
-163.8759999999998
 21
-207.0699999999999
 31
0.0
  0
MTEXT
  5
1F7
330
A
100
AcDbEntity
  8
PV
  6
Continuous
 62
     7
100
AcDbMText
 10
-102.262
 20
-191.714666
 30
0.0
 40
8.4
 41
0.0
 71
     2
 72
     1
  1
\T0.912;\W1.064;\A1;\U+220587
 73
     1
 44
1.0
  0
POINT
  5
1F8
330
A
100
AcDbEntity
  8
PV
  6
Continuous
 62
     7
100
AcDbPoint
 10
-76.876
 20
-179.979
 30
0.0
  0
POINT
  5
1F9
330
A
100
AcDbEntity
  8
PV
  6
Continuous
 62
     7
100
AcDbPoint
 10
-163.8759999999998
 20
-179.979
 30
0.0
  0
POINT
  5
1FA
330
A
100
AcDbEntity
  8
PV
  6
Continuous
 62
     7
100
AcDbPoint
 10
-163.8759999999998
 20
-202.4979999999999
 30
0.0
  0
CIRCLE
  5
1FB
330
A
100
AcDbEntity
  8
PV
  6
Continuous
 62
     7
100
AcDbCircle
 10
90.12399999999999
 20
-20.47899999999998
 30
0.0
 40
1.199999999999999
  0
CIRCLE
  5
1FC
330
A
100
AcDbEntity
  8
PV
  6
Continuous
 62
     7
100
AcDbCircle
 10
90.12399999999999
 20
-20.47899999999998
 30
0.0
 40
1.5
  0
CIRCLE
  5
1FD
330
A
100
AcDbEntity
  8
PV
  6
Continuous
 62
     7
100
AcDbCircle
 10
69.12399999999999
 20
-20.47899999999998
 30
0.0
 40
1.199999999999999
  0
CIRCLE
  5
1FE
330
A
100
AcDbEntity
  8
PV
  6
Continuous
 62
     7
100
AcDbCircle
 10
69.12399999999999
 20
-20.47899999999998
 30
0.0
 40
1.5
  0
CIRCLE
  5
1FF
330
A
100
AcDbEntity
  8
PV
  6
Continuous
 62
     7
100
AcDbCircle
 10
90.12399999999999
 20
44.02099999999999
 30
0.0
 40
1.199999999999999
  0
CIRCLE
  5
200
330
A
100
AcDbEntity
  8
PV
  6
Continuous
 62
     7
100
AcDbCircle
 10
90.12399999999999
 20
44.02099999999999
 30
0.0
 40
1.5
  0
CIRCLE
  5
201
330
A
100
AcDbEntity
  8
PV
  6
Continuous
 62
     7
100
AcDbCircle
 10
69.12399999999999
 20
44.02099999999999
 30
0.0
 40
1.199999999999999
  0
CIRCLE
  5
202
330
A
100
AcDbEntity
  8
PV
  6
Continuous
 62
     7
100
AcDbCircle
 10
69.12399999999999
 20
44.02099999999999
 30
0.0
 40
1.5
  0
CIRCLE
  5
203
330
A
100
AcDbEntity
  8
PV
  6
Continuous
 62
     7
100
AcDbCircle
 10
79.62399999999998
 20
29.021
 30
0.0
 40
4.849999999999998
  0
CIRCLE
  5
204
330
A
100
AcDbEntity
  8
PV
  6
Continuous
 62
     7
100
AcDbCircle
 10
79.62399999999998
 20
29.021
 30
0.0
 40
3.85
  0
CIRCLE
  5
205
330
A
100
AcDbEntity
  8
PV
  6
Continuous
 62
     7
100
AcDbCircle
 10
79.62399999999998
 20
-16.47899999999999
 30
0.0
 40
4.849999999999998
  0
CIRCLE
  5
206
330
A
100
AcDbEntity
  8
PV
  6
Continuous
 62
     7
100
AcDbCircle
 10
79.62399999999998
 20
-16.47899999999999
 30
0.0
 40
3.85
  0
ARC
  5
207
330
A
100
AcDbEntity
  8
PV
  6
Continuous
 62
     7
100
AcDbCircle
 10
-214.994
 20
-91.979
 30
0.0
 40
55.0
100
AcDbArc
 50
316.208468
 51
43.933467
  0
ARC
  5
208
330
A
100
AcDbEntity
  8
PV
  6
Continuous
 62
     7
100
AcDbCircle
 10
-162.376
 20
-178.1299999999999
 30
0.0
 40
1.5
100
AcDbArc
 50
105.0
 51
180.000005
  0
ARC
  5
209
330
A
100
AcDbEntity
  8
PV
  6
Continuous
 62
     7
100
AcDbCircle
 10
-78.37600000000001
 20
-178.1299999999999
 30
0.0
 40
1.5
100
AcDbArc
 50
359.999995
 51
74.999999
  0
ARC
  5
20A
330
A
100
AcDbEntity
  8
PV
  6
Continuous
 62
     7
100
AcDbCircle
 10
-206.527
 20
-49.979
 30
0.0
 40
1.5
100
AcDbArc
 50
15.00000199999999
 51
90.00000300000001
  0
ARC
  5
20B
330
A
100
AcDbEntity
  8
PV
  6
Continuous
 62
     7
100
AcDbCircle
 10
-206.527
 20
-133.9789999999998
 30
0.0
 40
1.5
100
AcDbArc
 50
269.9999969999999
 51
345.000001
  0
ARC
  5
20C
330
A
100
AcDbEntity
  8
PV
  6
Continuous
 62
     7
100
AcDbCircle
 10
37.624
 20
-178.1299999999999
 30
0.0
 40
1.5
100
AcDbArc
 50
105.0
 51
180.000005
  0
ARC
  5
20D
330
A
100
AcDbEntity
  8
PV
  6
Continuous
 62
     7
100
AcDbCircle
 10
121.6239999999999
 20
-178.1299999999999
 30
0.0
 40
1.5
100
AcDbArc
 50
359.999995
 51
74.999999
  0
CIRCLE
  5
20E
330
A
100
AcDbEntity
  8
PV
  6
Continuous
 62
     7
100
AcDbCircle
 10
-120.376
 20
143.006
 30
0.0
 40
47.5
  0
ARC
  5
20F
330
A
100
AcDbEntity
  8
PV
  6
Continuous
 62
     7
100
AcDbCircle
 10
-120.376
 20
143.006
 30
0.0
 40
73.0
100
AcDbArc
 50
131.1120929999999
 51
138.887908
  0
ARC
  5
210
330
A
100
AcDbEntity
  8
PV
  6
Continuous
 62
     7
100
AcDbCircle
 10
-120.376
 20
143.006
 30
0.0
 40
73.0
100
AcDbArc
 50
41.11209
 51
48.887909
  0
ARC
  5
211
330
A
100
AcDbEntity
  8
PV
  6
Continuous
 62
     7
100
AcDbCircle
 10
-120.376
 20
143.006
 30
0.0
 40
73.0
100
AcDbArc
 50
221.1120919999999
 51
228.8879069999999
  0
ARC
  5
212
330
A
100
AcDbEntity
  8
PV
  6
Continuous
 62
     7
100
AcDbCircle
 10
-120.376
 20
143.006
 30
0.0
 40
73.0
100
AcDbArc
 50
311.112091
 51
318.88791
  0
CIRCLE
  5
213
330
A
100
AcDbEntity
  8
PV
  6
Continuous
 62
     7
100
AcDbCircle
 10
-163.376
 20
186.0059999999999
 30
0.0
 40
9.0
  0
CIRCLE
  5
214
330
A
100
AcDbEntity
  8
PV
  6
Continuous
 62
     7
100
AcDbCircle
 10
-77.376
 20
186.0059999999999
 30
0.0
 40
9.0
  0
CIRCLE
  5
215
330
A
100
AcDbEntity
  8
PV
  6
Continuous
 62
     7
100
AcDbCircle
 10
-77.376
 20
100.0059999999999
 30
0.0
 40
9.0
  0
CIRCLE
  5
216
330
A
100
AcDbEntity
  8
PV
  6
Continuous
 62
     7
100
AcDbCircle
 10
-163.376
 20
100.0059999999999
 30
0.0
 40
9.0
  0
ARC
  5
217
330
A
100
AcDbEntity
  8
PV
  6
Continuous
 62
     7
100
AcDbCircle
 10
-206.527
 20
101.0059999999999
 30
0.0
 40
1.5
100
AcDbArc
 50
269.9999969999999
 51
344.999998
  0
ARC
  5
218
330
A
100
AcDbEntity
  8
PV
  6
Continuous
 62
     7
100
AcDbCircle
 10
-206.527
 20
185.0059999999999
 30
0.0
 40
1.5
100
AcDbArc
 50
15.00000199999999
 51
90.00000300000001
  0
LINE
  5
219
330
A
100
AcDbEntity
  8
PV
  6
Continuous
 62
     7
100
AcDbLine
 10
-72.376
 20
49.021
 30
0.0
 11
-72.376
 21
-43.97899999999999
 31
0.0
  0
LINE
  5
21A
330
A
100
AcDbEntity
  8
PV
  6
Continuous
 62
     7
100
AcDbLine
 10
-168.3759999999999
 20
49.021
 30
0.0
 11
-168.3759999999999
 21
-43.97899999999999
 31
0.0
  0
LINE
  5
21B
330
A
100
AcDbEntity
  8
PV
  6
Continuous
 62
     7
100
AcDbLine
 10
127.624
 20
49.021
 30
0.0
 11
127.624
 21
-43.97899999999999
 31
0.0
  0
LINE
  5
21C
330
A
100
AcDbEntity
  8
PV
  6
Continuous
 62
     7
100
AcDbLine
 10
31.624
 20
49.021
 30
0.0
 11
31.624
 21
-43.97899999999999
 31
0.0
  0
LINE
  5
21D
330
A
100
AcDbEntity
  8
PV
  6
Continuous
 62
     7
100
AcDbLine
 10
134.6239999999999
 20
-137.4789999999999
 30
0.0
 11
24.624
 21
-137.4789999999999
 31
0.0
  0
LINE
  5
21E
330
A
100
AcDbEntity
  8
PV
  6
Continuous
 62
     7
100
AcDbLine
 10
-65.37600000000001
 20
-137.4789999999999
 30
0.0
 11
-175.3759999999999
 21
-137.4789999999999
 31
0.0
  0
LINE
  5
21F
330
A
100
AcDbEntity
  8
PV
  6
Continuous
 62
     7
100
AcDbLine
 10
124.624
 20
-147.4789999999998
 30
0.0
 11
134.6239999999999
 21
-137.4789999999999
 31
0.0
  0
LINE
  5
220
330
A
100
AcDbEntity
  8
PV
  6
Continuous
 62
     7
100
AcDbLine
 10
24.624
 20
-137.4789999999999
 30
0.0
 11
34.624
 21
-147.4789999999998
 31
0.0
  0
LINE
  5
221
330
A
100
AcDbEntity
  8
PV
  6
Continuous
 62
     7
100
AcDbLine
 10
-75.37600000000002
 20
-147.4789999999998
 30
0.0
 11
-65.37600000000001
 21
-137.4789999999999
 31
0.0
  0
LINE
  5
222
330
A
100
AcDbEntity
  8
PV
  6
Continuous
 62
     7
100
AcDbLine
 10
-175.3759999999999
 20
-137.4789999999999
 30
0.0
 11
-165.3759999999999
 21
-147.4789999999998
 31
0.0
  0
LINE
  5
224
330
A
100
AcDbEntity
  8
PV
  6
CENTER
 62
     7
100
AcDbLine
 10
87.749
 20
-20.47899999999998
 30
0.0
 11
92.87399999999999
 21
-20.47899999999998
 31
0.0
  0
LINE
  5
225
330
A
100
AcDbEntity
  8
PV
  6
CENTER
 62
     7
100
AcDbLine
 10
90.12399999999999
 20
-23.15599999999999
 30
0.0
 11
90.12399999999999
 21
-17.749
 31
0.0
  0
LINE
  5
226
330
A
100
AcDbEntity
  8
PV
  6
CENTER
 62
     7
100
AcDbLine
 10
71.5
 20
-20.47899999999998
 30
0.0
 11
66.37399999999999
 21
-20.47899999999998
 31
0.0
  0
LINE
  5
227
330
A
100
AcDbEntity
  8
PV
  6
CENTER
 62
     7
100
AcDbLine
 10
69.12399999999999
 20
-23.15599999999999
 30
0.0
 11
69.12399999999999
 21
-17.749
 31
0.0
  0
LINE
  5
228
330
A
100
AcDbEntity
  8
PV
  6
CENTER
 62
     7
100
AcDbLine
 10
87.749
 20
44.02099999999999
 30
0.0
 11
92.87399999999999
 21
44.02099999999999
 31
0.0
  0
LINE
  5
229
330
A
100
AcDbEntity
  8
PV
  6
CENTER
 62
     7
100
AcDbLine
 10
90.12399999999999
 20
46.698
 30
0.0
 11
90.12399999999999
 21
41.291
 31
0.0
  0
LINE
  5
22A
330
A
100
AcDbEntity
  8
PV
  6
CENTER
 62
     7
100
AcDbLine
 10
71.5
 20
44.02099999999999
 30
0.0
 11
66.37399999999999
 21
44.02099999999999
 31
0.0
  0
LINE
  5
22B
330
A
100
AcDbEntity
  8
PV
  6
CENTER
 62
     7
100
AcDbLine
 10
69.12399999999999
 20
46.698
 30
0.0
 11
69.12399999999999
 21
41.291
 31
0.0
  0
LINE
  5
22C
330
A
100
AcDbEntity
  8
PV
  6
Continuous
 62
     7
100
AcDbLine
 10
-175.3759999999999
 20
-130.1289999999999
 30
0.0
 11
-175.3759999999999
 21
-137.4789999999999
 31
0.0
  0
LINE
  5
22D
330
A
100
AcDbEntity
  8
PV
  6
Continuous
 62
     7
100
AcDbLine
 10
-65.37600000000001
 20
49.021
 30
0.0
 11
-65.37600000000001
 21
-137.4789999999999
 31
0.0
  0
LINE
  5
22E
330
A
100
AcDbEntity
  8
PV
  6
Continuous
 62
     7
100
AcDbLine
 10
-175.3759999999999
 20
49.021
 30
0.0
 11
-175.3759999999999
 21
-53.82899999999999
 31
0.0
  0
LINE
  5
22F
330
A
100
AcDbEntity
  8
PV
  6
CENTER
 62
     7
100
AcDbLine
 10
-163.376
 20
57.078
 30
0.0
 11
-163.376
 21
-49.193
 31
0.0
  0
LINE
  5
230
330
A
100
AcDbEntity
  8
PV
  6
CENTER
 62
     7
100
AcDbLine
 10
-77.376
 20
55.831
 30
0.0
 11
-77.376
 21
-48.85
 31
0.0
  0
LINE
  5
231
330
A
100
AcDbEntity
  8
PV
  6
Continuous
 62
     7
100
AcDbLine
 10
-65.536
 20
-43.97899999999999
 30
0.0
 11
-175.3519999999999
 21
-43.97899999999999
 31
0.0
  0
LINE
  5
232
330
A
100
AcDbEntity
  8
PV
  6
Continuous
 62
     7
100
AcDbLine
 10
-65.37600000000001
 20
49.021
 30
0.0
 11
-175.3759999999999
 21
49.021
 31
0.0
  0
LINE
  5
233
330
A
100
AcDbEntity
  8
PV
  6
Continuous
 62
     7
100
AcDbLine
 10
-109.126
 20
49.021
 30
0.0
 11
-109.126
 21
-25.377
 31
0.0
  0
LINE
  5
234
330
A
100
AcDbEntity
  8
PV
  6
Continuous
 62
     7
100
AcDbLine
 10
-113.526
 20
49.021
 30
0.0
 11
-113.526
 21
-25.271
 31
0.0
  0
LINE
  5
235
330
A
100
AcDbEntity
  8
PV
  6
Continuous
 62
     7
100
AcDbLine
 10
-127.126
 20
48.88399999999999
 30
0.0
 11
-127.126
 21
-25.483
 31
0.0
  0
LINE
  5
236
330
A
100
AcDbEntity
  8
PV
  6
Continuous
 62
     7
100
AcDbLine
 10
-131.526
 20
48.88399999999999
 30
0.0
 11
-131.526
 21
-25.377
 31
0.0
  0
LINE
  5
237
330
A
100
AcDbEntity
  8
PV
  6
Continuous
 62
     7
100
AcDbLine
 10
-65.40899999999999
 20
-25.479
 30
0.0
 11
-175.534
 21
-25.479
 31
0.0
  0
LINE
  5
238
330
A
100
AcDbEntity
  8
PV
  6
CENTER
 62
     7
100
AcDbLine
 10
-60.03
 20
-16.47899999999999
 30
0.0
 11
-76.876
 21
-16.47899999999999
 31
0.0
  0
LINE
  5
239
330
A
100
AcDbEntity
  8
PV
  6
CENTER
 62
     7
100
AcDbLine
 10
-60.05600000000001
 20
29.021
 30
0.0
 11
-77.603
 21
29.021
 31
0.0
  0
LINE
  5
23A
330
A
100
AcDbEntity
  8
PV
  6
Continuous
 62
     7
100
AcDbLine
 10
-77.414
 20
-176.979
 30
0.0
 11
-163.338
 21
-176.979
 31
0.0
  0
LINE
  5
23B
330
A
100
AcDbEntity
  8
PV
  6
Continuous
 62
     7
100
AcDbLine
 10
-82.22599999999998
 20
-175.5449999999999
 30
0.0
 11
-158.526
 21
-175.5449999999999
 31
0.0
  0
LINE
  5
23C
330
A
100
AcDbEntity
  8
PV
  6
CENTER
 62
     7
100
AcDbLine
 10
-120.376
 20
63.466
 30
0.0
 11
-120.376
 21
-191.7809999999999
 31
0.0
  0
LINE
  5
23D
330
A
100
AcDbEntity
  8
PV
  6
Continuous
 62
     7
100
AcDbLine
 10
-162.764
 20
-176.6809999999999
 30
0.0
 11
-158.526
 21
-175.5449999999999
 31
0.0
  0
LINE
  5
23E
330
A
100
AcDbEntity
  8
PV
  6
Continuous
 62
     7
100
AcDbLine
 10
-163.8759999999998
 20
-178.1299999999999
 30
0.0
 11
-163.8759999999998
 21
-179.979
 31
0.0
  0
LINE
  5
23F
330
A
100
AcDbEntity
  8
PV
  6
Continuous
 62
     7
100
AcDbLine
 10
-158.526
 20
-147.4789999999998
 30
0.0
 11
-158.526
 21
-175.5449999999999
 31
0.0
  0
LINE
  5
240
330
A
100
AcDbEntity
  8
PV
  6
Continuous
 62
     7
100
AcDbLine
 10
-77.987
 20
-176.6809999999999
 30
0.0
 11
-82.22599999999998
 21
-175.5449999999999
 31
0.0
  0
LINE
  5
241
330
A
100
AcDbEntity
  8
PV
  6
Continuous
 62
     7
100
AcDbLine
 10
-82.22599999999998
 20
-147.4789999999998
 30
0.0
 11
-82.22599999999998
 21
-175.5449999999999
 31
0.0
  0
LINE
  5
242
330
A
100
AcDbEntity
  8
PV
  6
Continuous
 62
     7
100
AcDbLine
 10
-76.876
 20
-178.1299999999999
 30
0.0
 11
-76.876
 21
-179.979
 31
0.0
  0
LINE
  5
243
330
A
100
AcDbEntity
  8
PV
  6
Continuous
 62
     7
100
AcDbLine
 10
-76.876
 20
-179.979
 30
0.0
 11
-163.8759999999998
 21
-179.979
 31
0.0
  0
LINE
  5
244
330
A
100
AcDbEntity
  8
PV
  6
Continuous
 62
     7
100
AcDbLine
 10
-205.3759999999999
 20
-134.9409999999999
 30
0.0
 11
-205.3759999999999
 21
-49.01699999999999
 31
0.0
  0
LINE
  5
245
330
A
100
AcDbEntity
  8
PV
  6
Continuous
 62
     7
100
AcDbLine
 10
-203.942
 20
-130.1289999999999
 30
0.0
 11
-203.942
 21
-53.82899999999999
 31
0.0
  0
LINE
  5
246
330
A
100
AcDbEntity
  8
PV
  6
Continuous
 62
     7
100
AcDbLine
 10
-205.078
 20
-49.591
 30
0.0
 11
-203.942
 21
-53.82899999999999
 31
0.0
  0
LINE
  5
247
330
A
100
AcDbEntity
  8
PV
  6
Continuous
 62
     7
100
AcDbLine
 10
-206.527
 20
-48.479
 30
0.0
 11
-208.3759999999999
 21
-48.479
 31
0.0
  0
LINE
  5
248
330
A
100
AcDbEntity
  8
PV
  6
Continuous
 62
     7
100
AcDbLine
 10
-175.3759999999999
 20
-53.82899999999999
 30
0.0
 11
-203.942
 21
-53.82899999999999
 31
0.0
  0
LINE
  5
249
330
A
100
AcDbEntity
  8
PV
  6
Continuous
 62
     7
100
AcDbLine
 10
-205.078
 20
-134.367
 30
0.0
 11
-203.942
 21
-130.1289999999999
 31
0.0
  0
LINE
  5
24A
330
A
100
AcDbEntity
  8
PV
  6
Continuous
 62
     7
100
AcDbLine
 10
-175.3759999999999
 20
-130.1289999999999
 30
0.0
 11
-203.942
 21
-130.1289999999999
 31
0.0
  0
LINE
  5
24B
330
A
100
AcDbEntity
  8
PV
  6
Continuous
 62
     7
100
AcDbLine
 10
-206.527
 20
-135.4789999999999
 30
0.0
 11
-208.3759999999999
 21
-135.4789999999999
 31
0.0
  0
LINE
  5
24C
330
A
100
AcDbEntity
  8
PV
  6
CENTER
 62
     7
100
AcDbLine
 10
-150.026
 20
-91.979
 30
0.0
 11
-215.9149999999999
 21
-91.979
 31
0.0
  0
LINE
  5
24D
330
A
100
AcDbEntity
  8
PV
  6
Continuous
 62
     7
100
AcDbLine
 10
-208.3759999999999
 20
-135.4789999999999
 30
0.0
 11
-208.3759999999999
 21
-48.479
 31
0.0
  0
LINE
  5
24E
330
A
100
AcDbEntity
  8
PV
  6
Continuous
 62
     7
100
AcDbLine
 10
-75.37600000000002
 20
-147.4789999999998
 30
0.0
 11
-165.3759999999999
 21
-147.4789999999998
 31
0.0
  0
LINE
  5
24F
330
A
100
AcDbEntity
  8
PV
  6
Continuous
 62
     7
100
AcDbLine
 10
134.6239999999999
 20
49.021
 30
0.0
 11
134.6239999999999
 21
-137.4789999999999
 31
0.0
  0
LINE
  5
250
330
A
100
AcDbEntity
  8
PV
  6
Continuous
 62
     7
100
AcDbLine
 10
24.624
 20
49.021
 30
0.0
 11
24.624
 21
-137.4789999999999
 31
0.0
  0
LINE
  5
251
330
A
100
AcDbEntity
  8
PV
  6
CENTER
 62
     7
100
AcDbLine
 10
36.624
 20
57.078
 30
0.0
 11
36.624
 21
-49.193
 31
0.0
  0
LINE
  5
252
330
A
100
AcDbEntity
  8
PV
  6
CENTER
 62
     7
100
AcDbLine
 10
122.6239999999999
 20
55.831
 30
0.0
 11
122.6239999999999
 21
-48.85
 31
0.0
  0
LINE
  5
253
330
A
100
AcDbEntity
  8
PV
  6
Continuous
 62
     7
100
AcDbLine
 10
134.464
 20
-43.97899999999999
 30
0.0
 11
24.648
 21
-43.97899999999999
 31
0.0
  0
LINE
  5
254
330
A
100
AcDbEntity
  8
PV
  6
Continuous
 62
     7
100
AcDbLine
 10
134.6239999999999
 20
49.021
 30
0.0
 11
24.624
 21
49.021
 31
0.0
  0
LINE
  5
255
330
A
100
AcDbEntity
  8
PV
  6
Continuous
 62
     7
100
AcDbLine
 10
134.591
 20
-25.479
 30
0.0
 11
24.466
 21
-25.479
 31
0.0
  0
LINE
  5
256
330
A
100
AcDbEntity
  8
PV
  6
CENTER
 62
     7
100
AcDbLine
 10
89.37600000000001
 20
-16.47899999999999
 30
0.0
 11
70.12199999999999
 21
-16.47899999999999
 31
0.0
  0
LINE
  5
257
330
A
100
AcDbEntity
  8
PV
  6
CENTER
 62
     7
100
AcDbLine
 10
89.51100000000002
 20
29.021
 30
0.0
 11
71.333
 21
29.021
 31
0.0
  0
LINE
  5
258
330
A
100
AcDbEntity
  8
PV
  6
Continuous
 62
     7
100
AcDbLine
 10
122.5859999999999
 20
-176.979
 30
0.0
 11
36.66199999999999
 21
-176.979
 31
0.0
  0
LINE
  5
259
330
A
100
AcDbEntity
  8
PV
  6
Continuous
 62
     7
100
AcDbLine
 10
117.774
 20
-175.5449999999999
 30
0.0
 11
41.474
 21
-175.5449999999999
 31
0.0
  0
LINE
  5
25A
330
A
100
AcDbEntity
  8
PV
  6
CENTER
 62
     7
100
AcDbLine
 10
79.62399999999998
 20
63.466
 30
0.0
 11
79.62399999999998
 21
-191.7809999999999
 31
0.0
  0
LINE
  5
25B
330
A
100
AcDbEntity
  8
PV
  6
Continuous
 62
     7
100
AcDbLine
 10
37.23599999999999
 20
-176.6809999999999
 30
0.0
 11
41.474
 21
-175.5449999999999
 31
0.0
  0
LINE
  5
25C
330
A
100
AcDbEntity
  8
PV
  6
Continuous
 62
     7
100
AcDbLine
 10
36.124
 20
-178.1299999999999
 30
0.0
 11
36.124
 21
-179.979
 31
0.0
  0
LINE
  5
25D
330
A
100
AcDbEntity
  8
PV
  6
Continuous
 62
     7
100
AcDbLine
 10
41.474
 20
-147.4789999999998
 30
0.0
 11
41.474
 21
-175.5449999999999
 31
0.0
  0
LINE
  5
25E
330
A
100
AcDbEntity
  8
PV
  6
Continuous
 62
     7
100
AcDbLine
 10
122.0129999999999
 20
-176.6809999999999
 30
0.0
 11
117.774
 21
-175.5449999999999
 31
0.0
  0
LINE
  5
25F
330
A
100
AcDbEntity
  8
PV
  6
Continuous
 62
     7
100
AcDbLine
 10
117.774
 20
-147.4789999999998
 30
0.0
 11
117.774
 21
-175.5449999999999
 31
0.0
  0
LINE
  5
260
330
A
100
AcDbEntity
  8
PV
  6
Continuous
 62
     7
100
AcDbLine
 10
123.1239999999999
 20
-178.1299999999999
 30
0.0
 11
123.1239999999999
 21
-179.979
 31
0.0
  0
LINE
  5
261
330
A
100
AcDbEntity
  8
PV
  6
Continuous
 62
     7
100
AcDbLine
 10
123.1239999999999
 20
-179.979
 30
0.0
 11
36.124
 21
-179.979
 31
0.0
  0
LINE
  5
262
330
A
100
AcDbEntity
  8
PV
  6
Continuous
 62
     7
100
AcDbLine
 10
124.624
 20
-147.4789999999998
 30
0.0
 11
34.624
 21
-147.4789999999998
 31
0.0
  0
LINE
  5
263
330
A
100
AcDbEntity
  8
PV
  6
Continuous
 62
     7
100
AcDbLine
 10
-72.376
 20
88.00600000000001
 30
0.0
 11
-168.3759999999999
 21
88.00600000000001
 31
0.0
  0
LINE
  5
264
330
A
100
AcDbEntity
  8
PV
  6
Continuous
 62
     7
100
AcDbLine
 10
-72.376
 20
198.0059999999999
 30
0.0
 11
-168.3759999999999
 21
198.0059999999999
 31
0.0
  0
LINE
  5
265
330
A
100
AcDbEntity
  8
PV
  6
Continuous
 62
     7
100
AcDbLine
 10
-65.37600000000001
 20
191.0059999999999
 30
0.0
 11
-65.37600000000001
 21
95.006
 31
0.0
  0
LINE
  5
266
330
A
100
AcDbEntity
  8
PV
  6
Continuous
 62
     7
100
AcDbLine
 10
-175.3759999999999
 20
191.0059999999999
 30
0.0
 11
-175.3759999999999
 21
95.006
 31
0.0
  0
LINE
  5
267
330
A
100
AcDbEntity
  8
PV
  6
Continuous
 62
     7
100
AcDbLine
 10
-109.126
 20
198.0059999999999
 30
0.0
 11
-109.126
 21
197.0059999999999
 31
0.0
  0
LINE
  5
268
330
A
100
AcDbEntity
  8
PV
  6
Continuous
 62
     7
100
AcDbLine
 10
-108.2259999999999
 20
197.0059999999999
 30
0.0
 11
-109.126
 21
197.0059999999999
 31
0.0
  0
LINE
  5
269
330
A
100
AcDbEntity
  8
PV
  6
Continuous
 62
     7
100
AcDbLine
 10
-108.2259999999999
 20
197.0059999999999
 30
0.0
 11
-108.2259999999999
 21
193.3059999999999
 31
0.0
  0
LINE
  5
26A
330
A
100
AcDbEntity
  8
PV
  6
Continuous
 62
     7
100
AcDbLine
 10
-108.2259999999999
 20
193.3059999999999
 30
0.0
 11
-114.426
 21
193.3059999999999
 31
0.0
  0
LINE
  5
26B
330
A
100
AcDbEntity
  8
PV
  6
Continuous
 62
     7
100
AcDbLine
 10
-114.426
 20
197.0059999999999
 30
0.0
 11
-114.426
 21
193.3059999999999
 31
0.0
  0
LINE
  5
26C
330
A
100
AcDbEntity
  8
PV
  6
Continuous
 62
     7
100
AcDbLine
 10
-131.526
 20
198.0059999999999
 30
0.0
 11
-131.526
 21
197.0059999999999
 31
0.0
  0
LINE
  5
26D
330
A
100
AcDbEntity
  8
PV
  6
Continuous
 62
     7
100
AcDbLine
 10
-131.526
 20
197.0059999999999
 30
0.0
 11
-132.426
 21
197.0059999999999
 31
0.0
  0
LINE
  5
26E
330
A
100
AcDbEntity
  8
PV
  6
Continuous
 62
     7
100
AcDbLine
 10
-127.126
 20
198.0059999999999
 30
0.0
 11
-127.126
 21
197.0059999999999
 31
0.0
  0
LINE
  5
26F
330
A
100
AcDbEntity
  8
PV
  6
Continuous
 62
     7
100
AcDbLine
 10
-126.2259999999999
 20
197.0059999999999
 30
0.0
 11
-127.126
 21
197.0059999999999
 31
0.0
  0
LINE
  5
270
330
A
100
AcDbEntity
  8
PV
  6
Continuous
 62
     7
100
AcDbLine
 10
-126.2259999999999
 20
197.0059999999999
 30
0.0
 11
-126.2259999999999
 21
193.3059999999999
 31
0.0
  0
LINE
  5
271
330
A
100
AcDbEntity
  8
PV
  6
Continuous
 62
     7
100
AcDbLine
 10
-132.426
 20
197.0059999999999
 30
0.0
 11
-132.426
 21
193.3059999999999
 31
0.0
  0
LINE
  5
272
330
A
100
AcDbEntity
  8
PV
  6
Continuous
 62
     7
100
AcDbLine
 10
-126.2259999999999
 20
193.3059999999999
 30
0.0
 11
-132.426
 21
193.3059999999999
 31
0.0
  0
LINE
  5
273
330
A
100
AcDbEntity
  8
PV
  6
Continuous
 62
     7
100
AcDbLine
 10
-113.526
 20
198.0059999999999
 30
0.0
 11
-113.526
 21
197.0059999999999
 31
0.0
  0
LINE
  5
274
330
A
100
AcDbEntity
  8
PV
  6
Continuous
 62
     7
100
AcDbLine
 10
-113.526
 20
197.0059999999999
 30
0.0
 11
-114.426
 21
197.0059999999999
 31
0.0
  0
LINE
  5
275
330
A
100
AcDbEntity
  8
PV
  6
Continuous
 62
     7
100
AcDbLine
 10
-131.526
 20
88.00600000000001
 30
0.0
 11
-131.526
 21
89.006
 31
0.0
  0
LINE
  5
276
330
A
100
AcDbEntity
  8
PV
  6
Continuous
 62
     7
100
AcDbLine
 10
-127.126
 20
88.00600000000001
 30
0.0
 11
-127.126
 21
89.006
 31
0.0
  0
LINE
  5
277
330
A
100
AcDbEntity
  8
PV
  6
Continuous
 62
     7
100
AcDbLine
 10
-109.126
 20
88.00600000000001
 30
0.0
 11
-109.126
 21
89.006
 31
0.0
  0
LINE
  5
278
330
A
100
AcDbEntity
  8
PV
  6
Continuous
 62
     7
100
AcDbLine
 10
-113.526
 20
88.00600000000001
 30
0.0
 11
-113.526
 21
89.006
 31
0.0
  0
LINE
  5
279
330
A
100
AcDbEntity
  8
PV
  6
Continuous
 62
     7
100
AcDbLine
 10
-108.2259999999999
 20
89.006
 30
0.0
 11
-108.2259999999999
 21
92.70599999999999
 31
0.0
  0
LINE
  5
27A
330
A
100
AcDbEntity
  8
PV
  6
Continuous
 62
     7
100
AcDbLine
 10
-108.2259999999999
 20
89.006
 30
0.0
 11
-109.126
 21
89.006
 31
0.0
  0
LINE
  5
27B
330
A
100
AcDbEntity
  8
PV
  6
Continuous
 62
     7
100
AcDbLine
 10
-113.526
 20
89.006
 30
0.0
 11
-114.426
 21
89.006
 31
0.0
  0
LINE
  5
27C
330
A
100
AcDbEntity
  8
PV
  6
Continuous
 62
     7
100
AcDbLine
 10
-114.426
 20
89.006
 30
0.0
 11
-114.426
 21
92.70599999999999
 31
0.0
  0
LINE
  5
27D
330
A
100
AcDbEntity
  8
PV
  6
Continuous
 62
     7
100
AcDbLine
 10
-131.526
 20
89.006
 30
0.0
 11
-132.426
 21
89.006
 31
0.0
  0
LINE
  5
27E
330
A
100
AcDbEntity
  8
PV
  6
Continuous
 62
     7
100
AcDbLine
 10
-132.426
 20
89.006
 30
0.0
 11
-132.426
 21
92.70599999999999
 31
0.0
  0
LINE
  5
27F
330
A
100
AcDbEntity
  8
PV
  6
Continuous
 62
     7
100
AcDbLine
 10
-126.2259999999999
 20
92.70599999999999
 30
0.0
 11
-132.426
 21
92.70599999999999
 31
0.0
  0
LINE
  5
280
330
A
100
AcDbEntity
  8
PV
  6
Continuous
 62
     7
100
AcDbLine
 10
-126.2259999999999
 20
89.006
 30
0.0
 11
-126.2259999999999
 21
92.70599999999999
 31
0.0
  0
LINE
  5
281
330
A
100
AcDbEntity
  8
PV
  6
Continuous
 62
     7
100
AcDbLine
 10
-126.2259999999999
 20
89.006
 30
0.0
 11
-127.126
 21
89.006
 31
0.0
  0
LINE
  5
282
330
A
100
AcDbEntity
  8
PV
  6
Continuous
 62
     7
100
AcDbLine
 10
-108.2259999999999
 20
92.70599999999999
 30
0.0
 11
-114.426
 21
92.70599999999999
 31
0.0
  0
LINE
  5
283
330
A
100
AcDbEntity
  8
PV
  6
CENTER
 62
     7
100
AcDbLine
 10
-163.376
 20
111.977
 30
0.0
 11
-163.376
 21
88.60700000000001
 31
0.0
  0
LINE
  5
284
330
A
100
AcDbEntity
  8
PV
  6
CENTER
 62
     7
100
AcDbLine
 10
-77.376
 20
112.568
 30
0.0
 11
-77.376
 21
89.25499999999997
 31
0.0
  0
LINE
  5
285
330
A
100
AcDbEntity
  8
PV
  6
CENTER
 62
     7
100
AcDbLine
 10
-88.145
 20
186.0059999999999
 30
0.0
 11
-66.25399999999999
 21
186.0059999999999
 31
0.0
  0
LINE
  5
286
330
A
100
AcDbEntity
  8
PV
  6
CENTER
 62
     7
100
AcDbLine
 10
-90.21500000000001
 20
100.0059999999999
 30
0.0
 11
-65.958
 21
100.0059999999999
 31
0.0
  0
LINE
  5
287
330
A
100
AcDbEntity
  8
PV
  6
CENTER
 62
     7
100
AcDbLine
 10
-77.376
 20
196.997
 30
0.0
 11
-77.376
 21
174.3109999999999
 31
0.0
  0
LINE
  5
288
330
A
100
AcDbEntity
  8
PV
  6
CENTER
 62
     7
100
AcDbLine
 10
-163.376
 20
197.1529999999999
 30
0.0
 11
-163.376
 21
174.902
 31
0.0
  0
LINE
  5
289
330
A
100
AcDbEntity
  8
PV
  6
CENTER
 62
     7
100
AcDbLine
 10
-174.736
 20
100.0059999999999
 30
0.0
 11
-151.9579999999999
 21
100.0059999999999
 31
0.0
  0
LINE
  5
28A
330
A
100
AcDbEntity
  8
PV
  6
CENTER
 62
     7
100
AcDbLine
 10
-174.013
 20
186.0059999999999
 30
0.0
 11
-151.9579999999999
 21
186.0059999999999
 31
0.0
  0
LINE
  5
28B
330
A
100
AcDbEntity
  8
PV
  6
Continuous
 62
     7
100
AcDbLine
 10
-203.942
 20
181.1559999999999
 30
0.0
 11
-203.942
 21
104.856
 31
0.0
  0
LINE
  5
28C
330
A
100
AcDbEntity
  8
PV
  6
Continuous
 62
     7
100
AcDbLine
 10
-205.078
 20
100.618
 30
0.0
 11
-203.942
 21
104.856
 31
0.0
  0
LINE
  5
28D
330
A
100
AcDbEntity
  8
PV
  6
Continuous
 62
     7
100
AcDbLine
 10
-206.527
 20
99.50600000000001
 30
0.0
 11
-208.3759999999999
 21
99.50600000000001
 31
0.0
  0
LINE
  5
28E
330
A
100
AcDbEntity
  8
PV
  6
Continuous
 62
     7
100
AcDbLine
 10
-175.444
 20
104.856
 30
0.0
 11
-203.942
 21
104.856
 31
0.0
  0
LINE
  5
28F
330
A
100
AcDbEntity
  8
PV
  6
CENTER
 62
     7
100
AcDbLine
 10
-60.0
 20
143.006
 30
0.0
 11
-216.68
 21
143.006
 31
0.0
  0
LINE
  5
290
330
A
100
AcDbEntity
  8
PV
  6
CENTER
 62
     7
100
AcDbLine
 10
-120.376
 20
207.277
 30
0.0
 11
-120.376
 21
76.97199999999998
 31
0.0
  0
LINE
  5
291
330
A
100
AcDbEntity
  8
PV
  6
Continuous
 62
     7
100
AcDbLine
 10
-205.3759999999999
 20
100.045
 30
0.0
 11
-205.3759999999999
 21
185.9679999999999
 31
0.0
  0
LINE
  5
292
330
A
100
AcDbEntity
  8
PV
  6
Continuous
 62
     7
100
AcDbLine
 10
-205.078
 20
185.395
 30
0.0
 11
-203.942
 21
181.1559999999999
 31
0.0
  0
LINE
  5
293
330
A
100
AcDbEntity
  8
PV
  6
Continuous
 62
     7
100
AcDbLine
 10
-206.527
 20
186.5059999999999
 30
0.0
 11
-208.3759999999999
 21
186.5059999999999
 31
0.0
  0
LINE
  5
294
330
A
100
AcDbEntity
  8
PV
  6
Continuous
 62
     7
100
AcDbLine
 10
-175.6119999999999
 20
181.1559999999999
 30
0.0
 11
-203.942
 21
181.1559999999999
 31
0.0
  0
LINE
  5
295
330
A
100
AcDbEntity
  8
PV
  6
Continuous
 62
     7
100
AcDbLine
 10
-208.3759999999999
 20
99.50600000000001
 30
0.0
 11
-208.3759999999999
 21
186.5059999999999
 31
0.0
  0
ENDSEC
  0
SECTION
  2
OBJECTS
  0
DICTIONARY
  5
19
330
0
100
AcDbDictionary
281
     1
  3
ACAD_GROUP
350
1A
  3
ACAD_LAYOUT
350
1E
  3
ACAD_MLINESTYLE
350
1B
  3
ACAD_PLOTSETTINGS
350
22
  3
ACAD_PLOTSTYLENAME
350
1F
  0
DICTIONARY
  5
1A
102
{ACAD_REACTORS
330
19
102
}
330
19
100
AcDbDictionary
281
     1
  0
DICTIONARY
  5
1E
102
{ACAD_REACTORS
330
19
102
}
330
19
100
AcDbDictionary
281
     1
  3
Layout1
350
21
  3
Model
350
20
  0
DICTIONARY
  5
1B
102
{ACAD_REACTORS
330
19
102
}
330
19
100
AcDbDictionary
281
     1
  3
Standard
350
1C
  0
DICTIONARY
  5
22
102
{ACAD_REACTORS
330
19
102
}
330
19
100
AcDbDictionary
281
     1
  0
ACDBDICTIONARYWDFLT
  5
1F
102
{ACAD_REACTORS
330
19
102
}
330
19
100
AcDbDictionary
281
     1
  3
Normal
350
1D
100
AcDbDictionaryWithDefault
340
1D
  0
LAYOUT
  5
21
102
{ACAD_REACTORS
330
1E
102
}
330
1E
100
AcDbPlotSettings
  1

  2

  4

  6

 40
0.0
 41
0.0
 42
0.0
 43
0.0
 44
0.0
 45
0.0
 46
0.0
 47
0.0
 48
0.0
 49
0.0
140
0.0
141
0.0
142
1.0
143
1.0
 70
     0
 72
     0
 73
     0
 74
     0
  7

 75
     0
147
1.0
148
0.0
149
0.0
100
AcDbLayout
  1
Layout1
 70
     0
 71
     1
 10
0.0
 20
0.0
 11
12.0
 21
9.0
 12
0.0
 22
0.0
 32
0.0
 14
1.000000000000000E+20
 24
1.000000000000000E+20
 34
1.000000000000000E+20
 15
-1.000000000000000E+20
 25
-1.000000000000000E+20
 35
-1.000000000000000E+20
146
0.0
 13
0.0
 23
0.0
 33
0.0
 16
1.0
 26
0.0
 36
0.0
 17
0.0
 27
1.0
 37
0.0
 76
     0
330
B
  0
LAYOUT
  5
20
102
{ACAD_REACTORS
330
1E
102
}
330
1E
100
AcDbPlotSettings
  1

  2
Adobe PDF
  4
A3
  6

 40
3.174999952316283
 41
3.174999952316283
 42
3.17498779296875
 43
3.17498779296875
 44
297.0318298339843
 45
420.1583251953125
 46
0.0
 47
69.7
 48
0.0
 49
0.0
140
0.0
141
0.0
142
1.0
143
1.548312511597011
 70
 11284
 72
     1
 73
     1
 74
     2
  7

 75
     0
147
0.6458644443611367
148
260.261333
149
226.81
100
AcDbLayout
  1
Model
 70
     0
 71
     0
 10
0.0
 20
0.0
 11
0.0
 21
0.0
 12
0.0
 22
0.0
 32
0.0
 14
0.0
 24
0.0
 34
0.0
 15
0.0
 25
0.0
 35
0.0
146
0.0
 13
0.0
 23
0.0
 33
0.0
 16
0.0
 26
0.0
 36
0.0
 17
0.0
 27
0.0
 37
0.0
 76
     0
330
A
  0
MLINESTYLE
  5
1C
102
{ACAD_REACTORS
330
1B
102
}
330
1B
100
AcDbMlineStyle
  2
STANDARD
 70
     0
  3

 62
     0
 51
90.0
 52
90.0
 71
     2
 49
0.5
 62
   256
  6
BYLAYER
 49
-0.5
 62
   256
  6
BYLAYER
  0
ACDBPLACEHOLDER
  5
1D
102
{ACAD_REACTORS
330
1F
102
}
330
1F
  0
ENDSEC
  0
EOF
