  0
SECTION
  2
HEADER
  9
$ACADVER
  1
AC1015
  9
$ACADMAINTVER
 70
     6
  9
$DWGCODEPAGE
  3
ANSI_932
  9
$INSBASE
 10
0.0
 20
0.0
 30
0.0
  9
$EXTMIN
 10
-197.042668
 20
-186.335
 30
0.0
  9
$EXTMAX
 10
141.88043
 20
179.559668
 30
0.0
  9
$LIMMIN
 10
-197.042668
 20
-186.335
  9
$LIMMAX
 10
141.88043
 20
179.559668
  9
$ORTHOMODE
 70
     0
  9
$REGENMODE
 70
     1
  9
$FILLMODE
 70
     1
  9
$QTEXTMODE
 70
     0
  9
$MIRRTEXT
 70
     1
  9
$LTSCALE
 40
1.0
  9
$ATTMODE
 70
     1
  9
$TEXTSIZE
 40
3.2
  9
$TRACEWID
 40
0.05
  9
$TEXTSTYLE
  7
MX_NOTE_STANDARD
  9
$CLAYER
  8
0
  9
$CELTYPE
  6
CONTINUOUS
  9
$CECOLOR
 62
   256
  9
$CELTSCALE
 40
1.0
  9
$DISPSILH
 70
     0
  9
$DIMSCALE
 40
1.0
  9
$DIMASZ
 40
2.5
  9
$DIMEXO
 40
2.54
  9
$DIMDLI
 40
3.75
  9
$DIMRND
 40
0.0
  9
$DIMDLE
 40
0.0
  9
$DIMEXE
 40
2.286
  9
$DIMTP
 40
0.0
  9
$DIMTM
 40
0.0
  9
$DIMTXT
 40
3.2
  9
$DIMCEN
 40
2.5
  9
$DIMTSZ
 40
0.0
  9
$DIMTOL
 70
     0
  9
$DIMLIM
 70
     0
  9
$DIMTIH
 70
     0
  9
$DIMTOH
 70
     0
  9
$DIMSE1
 70
     0
  9
$DIMSE2
 70
     0
  9
$DIMTAD
 70
     1
  9
$DIMZIN
 70
     8
  9
$DIMBLK
  1

  9
$DIMASO
 70
     1
  9
$DIMSHO
 70
     1
  9
$DIMPOST
  1

  9
$DIMAPOST
  1

  9
$DIMALT
 70
     0
  9
$DIMALTD
 70
     4
  9
$DIMALTF
 40
0.03937
  9
$DIMLFAC
 40
1.0
  9
$DIMTOFL
 70
     1
  9
$DIMTVP
 40
0.0
  9
$DIMTIX
 70
     0
  9
$DIMSOXD
 70
     0
  9
$DIMSAH
 70
     1
  9
$DIMBLK1
  1
_OPEN30
  9
$DIMBLK2
  1
_OPEN30
  9
$DIMSTYLE
  2
MXDIMSTYLE
  9
$DIMCLRD
 70
     0
  9
$DIMCLRE
 70
     0
  9
$DIMCLRT
 70
     0
  9
$DIMTFAC
 40
1.0
  9
$DIMGAP
 40
1.0
  9
$DIMJUST
 70
     0
  9
$DIMSD1
 70
     0
  9
$DIMSD2
 70
     0
  9
$DIMTOLJ
 70
     0
  9
$DIMTZIN
 70
     0
  9
$DIMALTZ
 70
     0
  9
$DIMALTTZ
 70
     0
  9
$DIMUPT
 70
     1
  9
$DIMDEC
 70
     2
  9
$DIMTDEC
 70
     2
  9
$DIMALTU
 70
     2
  9
$DIMALTTD
 70
     4
  9
$DIMTXSTY
  7
MX_NOTE_STANDARD
  9
$DIMAUNIT
 70
     0
  9
$DIMADEC
 70
     0
  9
$DIMALTRND
 40
0.0
  9
$DIMAZIN
 70
     0
  9
$DIMDSEP
 70
    46
  9
$DIMATFIT
 70
     3
  9
$DIMFRAC
 70
     0
  9
$DIMLDRBLK
  1
_OPEN30
  9
$DIMLUNIT
 70
     2
  9
$DIMLWD
 70
    -2
  9
$DIMLWE
 70
    -2
  9
$DIMTMOVE
 70
     0
  9
$LUNITS
 70
     2
  9
$LUPREC
 70
     4
  9
$SKETCHINC
 40
0.1
  9
$FILLETRAD
 40
0.0
  9
$AUNITS
 70
     0
  9
$AUPREC
 70
     0
  9
$MENU
  1
acad
  9
$ELEVATION
 40
0.0
  9
$PELEVATION
 40
0.0
  9
$THICKNESS
 40
0.0
  9
$LIMCHECK
 70
     0
  9
$CHAMFERA
 40
0.0
  9
$CHAMFERB
 40
0.0
  9
$CHAMFERC
 40
0.0
  9
$CHAMFERD
 40
0.0
  9
$SKPOLY
 70
     0
  9
$TDCREATE
 40
2455288.614687500
  9
$TDUCREATE
 40
0.000000000
  9
$TDUPDATE
 40
2455288.614687500
  9
$TDUUPDATE
 40
0.000000000
  9
$TDINDWG
 40
0.0000000000
  9
$TDUSRTIMER
 40
0.0000000000
  9
$USRTIMER
 70
     1
  9
$ANGBASE
 50
0.0
  9
$ANGDIR
 70
     0
  9
$PDMODE
 70
     0
  9
$PDSIZE
 40
0.0
  9
$PLINEWID
 40
0.0
  9
$SPLFRAME
 70
     0
  9
$SPLINETYPE
 70
     6
  9
$SPLINESEGS
 70
     8
  9
$HANDSEED
  5
27B
  9
$SURFTAB1
 70
     6
  9
$SURFTAB2
 70
     6
  9
$SURFTYPE
 70
     6
  9
$SURFU
 70
     6
  9
$SURFV
 70
     6
  9
$UCSBASE
  2

  9
$UCSNAME
  2

  9
$UCSORG
 10
0.0
 20
0.0
 30
0.0
  9
$UCSXDIR
 10
1.0
 20
0.0
 30
0.0
  9
$UCSYDIR
 10
0.0
 20
1.0
 30
0.0
  9
$UCSORTHOREF
  2

  9
$UCSORTHOVIEW
 70
     0
  9
$UCSORGTOP
 10
0.0
 20
0.0
 30
0.0
  9
$UCSORGBOTTOM
 10
0.0
 20
0.0
 30
0.0
  9
$UCSORGLEFT
 10
0.0
 20
0.0
 30
0.0
  9
$UCSORGRIGHT
 10
0.0
 20
0.0
 30
0.0
  9
$UCSORGFRONT
 10
0.0
 20
0.0
 30
0.0
  9
$UCSORGBACK
 10
0.0
 20
0.0
 30
0.0
  9
$PUCSBASE
  2

  9
$PUCSNAME
  2

  9
$PUCSORG
 10
0.0
 20
0.0
 30
0.0
  9
$PUCSXDIR
 10
1.0
 20
0.0
 30
0.0
  9
$PUCSYDIR
 10
0.0
 20
1.0
 30
0.0
  9
$PUCSORTHOREF
  2

  9
$PUCSORTHOVIEW
 70
     0
  9
$PUCSORGTOP
 10
0.0
 20
0.0
 30
0.0
  9
$PUCSORGBOTTOM
 10
0.0
 20
0.0
 30
0.0
  9
$PUCSORGLEFT
 10
0.0
 20
0.0
 30
0.0
  9
$PUCSORGRIGHT
 10
0.0
 20
0.0
 30
0.0
  9
$PUCSORGFRONT
 10
0.0
 20
0.0
 30
0.0
  9
$PUCSORGBACK
 10
0.0
 20
0.0
 30
0.0
  9
$USERI1
 70
     0
  9
$USERI2
 70
     0
  9
$USERI3
 70
     0
  9
$USERI4
 70
     0
  9
$USERI5
 70
     0
  9
$USERR1
 40
0.0
  9
$USERR2
 40
0.0
  9
$USERR3
 40
0.0
  9
$USERR4
 40
0.0
  9
$USERR5
 40
0.0
  9
$WORLDVIEW
 70
     1
  9
$SHADEDGE
 70
     3
  9
$SHADEDIF
 70
    70
  9
$TILEMODE
 70
     1
  9
$MAXACTVP
 70
    16
  9
$PINSBASE
 10
0.0
 20
0.0
 30
0.0
  9
$PLIMCHECK
 70
     0
  9
$PEXTMIN
 10
1.000000E+20
 20
1.000000E+20
 30
1.000000E+20
  9
$PEXTMAX
 10
-1.000000E+20
 20
-1.000000E+20
 30
-1.000000E+20
  9
$PLIMMIN
 10
0.0
 20
0.0
  9
$PLIMMAX
 10
12.0
 20
9.0
  9
$UNITMODE
 70
     0
  9
$VISRETAIN
 70
     0
  9
$PLINEGEN
 70
     1
  9
$PSLTSCALE
 70
     0
  9
$TREEDEPTH
 70
  3020
  9
$CMLSTYLE
  2
Standard
  9
$CMLJUST
 70
     0
  9
$CMLSCALE
 40
1.0
  9
$PROXYGRAPHICS
 70
     0
  9
$MEASUREMENT
 70
     1
  9
$CELWEIGHT
370
     0
  9
$ENDCAPS
280
     0
  9
$JOINSTYLE
280
     0
  9
$LWDISPLAY
290
     0
  9
$INSUNITS
 70
     0
  9
$HYPERLINKBASE
  1

  9
$STYLESHEET
  1

  9
$XEDIT
290
     1
  9
$CEPSNTYPE
380
     0
  9
$PSTYLEMODE
290
     1
  9
$FINGERPRINTGUID
  2

  9
$VERSIONGUID
  2

  9
$EXTNAMES
290
     1
  9
$PSVPSCALE
 40
0.0
  0
ENDSEC
  0
SECTION
  2
CLASSES
  0
CLASS
  1
LWPOLYLINE
  2
AcDbPolyline
  3
AutoCAD 2000
 90
        0
280
     0
281
     1
  0
CLASS
  1
IMAGE
  2
AcDbRasterImage
  3
ISM
 90
      127
280
     0
281
     1
  0
CLASS
  1
OLE2FRAME
  2
AcDbOle2Frame
  3
AutoCAD 2000
 90
        0
280
     0
281
     1
  0
CLASS
  1
HATCH
  2
AcDbHatch
  3
AutoCAD 2000
 90
        0
280
     0
281
     1
  0
CLASS
  1
DICTIONARYVAR
  2
AcDbDictionaryVar
  3
AutoCAD 2000
 90
        0
280
     0
281
     0
  0
CLASS
  1
RASTERVARIABLES
  2
AcDbRasterVariables
  3
ISM
 90
        0
280
     0
281
     0
  0
CLASS
  1
IMAGEDEF
  2
AcDbRasterImageDef
  3
ISM
 90
        0
280
     0
281
     0
  0
CLASS
  1
IMAGEDEF_REACTOR
  2
AcDbRasterImageDefReactor
  3
ISM
 90
        1
280
     0
281
     0
  0
CLASS
  1
IDBUFFER
  2
AcDbIdBuffer
  3
AutoCAD 2000
 90
        0
280
     0
281
     0
  0
CLASS
  1
SPATIAL_FILTER
  2
AcDbSpatialFilter
  3
AutoCAD 2000
 90
        0
280
     0
281
     0
  0
CLASS
  1
XRECORD
  2
AcDbXrecord
  3
AutoCAD 2000
 90
        0
280
     0
281
     0
  0
CLASS
  1
SORTENTSTABLE
  2
AcDbSortentsTable
  3
AutoCAD 2000
 90
        0
280
     0
281
     0
  0
CLASS
  1
LAYER_INDEX
  2
AcDbLayerIndex
  3
AutoCAD 2000
 90
        0
280
     0
281
     0
  0
CLASS
  1
SPATIAL_INDEX
  2
AcDbSpatialIndex
  3
AutoCAD 2000
 90
        0
280
     0
281
     0
  0
CLASS
  1
OBJECT_PTR
  2
CAseDLPNTableRecord
  3
"ASE-LPNTableRecord"
 90
        1
280
     0
281
     0
  0
CLASS
  1
LAYOUT
  2
AcDbLayout
  3
AutoCAD 2000
 90
        0
280
     0
281
     0
  0
CLASS
  1
PLOTSETTINGS
  2
AcDbPlotSettings
  3
AutoCAD 2000
 90
        0
280
     0
281
     0
  0
CLASS
  1
ACDBDICTIONARYWDFLT
  2
AcDbDictionaryWithDefault
  3
AutoCAD 2000
 90
        0
280
     0
281
     0
  0
CLASS
  1
ACDBPLACEHOLDER
  2
AcDbPlaceHolder
  3
AutoCAD 2000
 90
        0
280
     0
281
     0
  0
ENDSEC
  0
SECTION
  2
TABLES
  0
TABLE
  2
VPORT
  5
7
100
AcDbSymbolTable
 70
     1
  0
VPORT
  5
15
100
AcDbSymbolTableRecord
100
AcDbViewportTableRecord
  2
*ACTIVE
 70
     0
 10
0.0
 20
0.0
 11
1.0
 21
1.0
 12
-27.581119
 22
-3.387666
 13
0.0
 23
0.0
 14
1.0
 24
1.0
 15
0.0
 25
0.0
 16
0.0
 26
0.0
 36
1.0
 17
0.0
 27
0.0
 37
0.0
 40
369.553615
 41
1.732051
 42
50.0
 43
0.0
 44
0.0
 50
0.0
 51
0.0
 71
     0
 72
   100
 73
     1
 74
     1
 75
     0
 76
     0
 77
     0
 78
     0
281
     0
 65
     0
110
0.0
120
0.0
130
0.0
111
1.0
121
0.0
131
0.0
112
0.0
122
1.0
132
0.0
345
0
346
0
 79
     0
146
0.0
  0
ENDTAB
  0
TABLE
  2
LTYPE
  5
4
100
AcDbSymbolTable
 70
     4
  0
LTYPE
  5
11
100
AcDbSymbolTableRecord
100
AcDbLinetypeTableRecord
  2
BYBLOCK
 70
    64
  3

 72
    65
 73
     0
 40
0.0
  0
LTYPE
  5
12
100
AcDbSymbolTableRecord
100
AcDbLinetypeTableRecord
  2
BYLAYER
 70
    64
  3

 72
    65
 73
     0
 40
0.0
  0
LTYPE
  5
13
100
AcDbSymbolTableRecord
100
AcDbLinetypeTableRecord
  2
CONTINUOUS
 70
    64
  3
Solid line
 72
    65
 73
     0
 40
0.0
  0
LTYPE
  5
31
100
AcDbSymbolTableRecord
100
AcDbLinetypeTableRecord
  2
CENTER
 70
    64
  3
Center ____ _ ____ _ ____ _ ____ _ ____ _ ____
 72
    65
 73
     4
 40
50.8
 49
31.75
 74
     0
 49
-6.35
 74
     0
 49
6.35
 74
     0
 49
-6.35
 74
     0
  0
ENDTAB
  0
TABLE
  2
LAYER
  5
2
100
AcDbSymbolTable
 70
     5
  0
LAYER
  5
14
100
AcDbSymbolTableRecord
100
AcDbLayerTableRecord
  2
0
 70
     0
 62
     7
  6
CONTINUOUS
290
     1
370
    -3
390
1D
  0
LAYER
  5
23
100
AcDbSymbolTableRecord
100
AcDbLayerTableRecord
  2
AV
 70
     0
 62
     7
  6
CONTINUOUS
290
     1
370
    -3
390
1D
  0
LAYER
  5
24
100
AcDbSymbolTableRecord
100
AcDbLayerTableRecord
  2
DEFPOINTS
 70
     0
 62
     7
  6
CONTINUOUS
290
     0
370
    -3
390
1D
  0
LAYER
  5
25
100
AcDbSymbolTableRecord
100
AcDbLayerTableRecord
  2
PV
 70
     0
 62
     7
  6
CONTINUOUS
290
     1
370
    -3
390
1D
  0
LAYER
  5
26
100
AcDbSymbolTableRecord
100
AcDbLayerTableRecord
  2
WV
 70
     0
 62
     7
  6
CONTINUOUS
290
     1
370
    -3
390
1D
  0
ENDTAB
  0
TABLE
  2
STYLE
  5
3
100
AcDbSymbolTable
 70
     1
  0
STYLE
  5
17
100
AcDbSymbolTableRecord
100
AcDbTextStyleTableRecord
  2
MX_NOTE_STANDARD
 70
     0
 40
0.0
 41
1.0
 50
0.0
 71
     0
 42
3.2
  3
txt.shx
  4
extfont.shx
  0
ENDTAB
  0
TABLE
  2
VIEW
  5
5
100
AcDbSymbolTable
 70
     0
  0
ENDTAB
  0
TABLE
  2
UCS
  5
6
100
AcDbSymbolTable
 70
     0
  0
ENDTAB
  0
TABLE
  2
APPID
  5
8
100
AcDbSymbolTable
 70
     1
  0
APPID
  5
16
100
AcDbSymbolTableRecord
100
AcDbRegAppTableRecord
  2
ACAD
 70
     0
  0
ENDTAB
  0
TABLE
  2
DIMSTYLE
  5
9
100
AcDbSymbolTable
 70
     1
100
AcDbDimStyleTable
 71
     0
  0
DIMSTYLE
105
18
100
AcDbSymbolTableRecord
100
AcDbDimStyleTableRecord
  2
MXDIMSTYLE
 70
     0
  3

  4

 40
1.0
 41
2.5
 42
2.54
 43
3.75
 44
2.286
 45
0.0
 46
0.0
 47
0.0
 48
0.0
 71
     0
 72
     0
 73
     0
 74
     0
 75
     0
 76
     0
 77
     1
 78
     8
 79
     0
140
3.2
141
2.5
142
0.0
143
0.03937
144
1.0
145
0.0
146
1.0
147
1.0
148
0.0
170
     0
171
     4
172
     1
173
     1
174
     0
175
     0
176
     0
177
     0
178
     0
179
     0
271
     2
272
     2
273
     2
274
     4
275
     0
276
     0
277
     2
278
    46
279
     0
280
     0
281
     0
282
     0
283
     0
284
     0
285
     0
286
     0
288
     1
289
     3
340
17
341
27
342
0
343
27
344
27
371
    -2
372
    -2
  0
ENDTAB
  0
TABLE
  2
BLOCK_RECORD
  5
1
100
AcDbSymbolTable
 70
     1
  0
BLOCK_RECORD
  5
A
100
AcDbSymbolTableRecord
100
AcDbBlockTableRecord
  2
*MODEL_SPACE
340
20
  0
BLOCK_RECORD
  5
B
100
AcDbSymbolTableRecord
100
AcDbBlockTableRecord
  2
*PAPER_SPACE
340
21
  0
BLOCK_RECORD
  5
27
100
AcDbSymbolTableRecord
100
AcDbBlockTableRecord
  2
_OPEN30
340
0
  0
ENDTAB
  0
ENDSEC
  0
SECTION
  2
BLOCKS
  0
BLOCK
  5
D
100
AcDbEntity
  8
0
390
0
100
AcDbBlockBegin
  2
*MODEL_SPACE
 70
     0
 10
0.0
 20
0.0
 30
0.0
  3
*MODEL_SPACE
  1

  0
ENDBLK
  5
E
100
AcDbEntity
  8
0
390
0
100
AcDbBlockEnd
  0
BLOCK
  5
F
100
AcDbEntity
 67
     1
  8
0
390
0
100
AcDbBlockBegin
  2
*PAPER_SPACE
 70
     0
 10
0.0
 20
0.0
 30
0.0
  3
*PAPER_SPACE
  1

  0
ENDBLK
  5
10
100
AcDbEntity
 67
     1
  8
0
390
0
100
AcDbBlockEnd
  0
BLOCK
  5
28
100
AcDbEntity
  8
0
370
    -2
390
0
  6
ByBlock
 62
     0
100
AcDbBlockBegin
  2
_OPEN30
 70
     2
 10
0.0
 20
0.0
 30
0.0
  3
_OPEN30
  1

  0
LINE
  5
29
100
AcDbEntity
  8
0
370
    -2
390
0
  6
ByBlock
 62
     0
100
AcDbLine
 10
-1.0
 20
0.267949
 30
0.0
 11
0.0
 21
0.0
 31
0.0
  0
LINE
  5
2A
100
AcDbEntity
  8
0
370
    -2
390
0
  6
ByBlock
 62
     0
100
AcDbLine
 10
0.0
 20
0.0
 30
0.0
 11
-1.0
 21
-0.267949
 31
0.0
  0
LINE
  5
2B
100
AcDbEntity
  8
0
370
    -2
390
0
  6
ByBlock
 62
     0
100
AcDbLine
 10
0.0
 20
0.0
 30
0.0
 11
-1.0
 21
0.0
 31
0.0
  0
ENDBLK
  5
2C
100
AcDbEntity
  8
0
370
    -2
390
0
  6
ByBlock
 62
     0
100
AcDbBlockEnd
  0
ENDSEC
  0
SECTION
  2
ENTITIES
  0
LEADER
  5
2D
100
AcDbEntity
  8
0
390
0
  6
CONTINUOUS
 62
     7
100
AcDbLeader
  3
MXDIMSTYLE
 73
     3
 74
     0
 75
     0
 40
0.0
 76
     2
 10
60.801
 20
10.5
 30
0.0
 10
97.919845
 20
64.940837
 30
0.0
 77
     7
1001
ACAD
1000
DSTYLE
1002
{
1070
    41
1040
2.77
1002
}
  0
MTEXT
  5
2E
100
AcDbEntity
  8
0
390
0
  6
CONTINUOUS
 62
     7
100
AcDbMText
 10
102.88043
 20
70.815837
 30
0.0
 40
6.5
 41
0.0
 71
     4
 72
     1
  1
\W1.139;\A1;Rc 1/8
 73
     1
 44
0.9
  0
LEADER
  5
2F
100
AcDbEntity
  8
0
390
0
  6
CONTINUOUS
 62
     7
100
AcDbLeader
  3
MXDIMSTYLE
 73
     3
 74
     0
 75
     0
 40
0.0
 76
     3
 10
60.801
 20
-28.5
 30
0.0
 10
97.919845
 20
64.940837
 30
0.0
 10
141.88043
 20
64.940837
 30
0.0
 77
     7
1001
ACAD
1000
DSTYLE
1002
{
1070
    41
1040
2.77
1002
}
  0
LINE
  5
30
100
AcDbEntity
  8
PV
390
0
  6
CONTINUOUS
 62
     7
100
AcDbLine
 10
-157.75
 20
75.506
 30
0.0
 11
-157.75
 21
150.506
 31
0.0
  0
LINE
  5
32
100
AcDbEntity
  8
PV
390
0
  6
CENTER
 62
     7
100
AcDbLine
 10
-87.75
 20
164.116
 30
0.0
 11
-87.75
 21
61.926
 31
0.0
  0
LINE
  5
33
100
AcDbEntity
  8
PV
390
0
  6
CENTER
 62
     7
100
AcDbLine
 10
-31.885
 20
113.006
 30
0.0
 11
-165.903
 21
113.006
 31
0.0
  0
LINE
  5
34
100
AcDbEntity
  8
PV
390
0
  6
CONTINUOUS
 62
     7
100
AcDbLine
 10
-75.6
 20
71.706
 30
0.0
 11
-81.8
 21
71.706
 31
0.0
  0
LINE
  5
35
100
AcDbEntity
  8
PV
390
0
  6
CONTINUOUS
 62
     7
100
AcDbLine
 10
-93.6
 20
68.006
 30
0.0
 11
-94.5
 21
68.006
 31
0.0
  0
LINE
  5
36
100
AcDbEntity
  8
PV
390
0
  6
CONTINUOUS
 62
     7
100
AcDbLine
 10
-93.6
 20
68.006
 30
0.0
 11
-93.6
 21
71.706
 31
0.0
  0
LINE
  5
37
100
AcDbEntity
  8
PV
390
0
  6
CONTINUOUS
 62
     7
100
AcDbLine
 10
-93.6
 20
71.706
 30
0.0
 11
-99.8
 21
71.706
 31
0.0
  0
LINE
  5
38
100
AcDbEntity
  8
PV
390
0
  6
CONTINUOUS
 62
     7
100
AcDbLine
 10
-99.8
 20
68.006
 30
0.0
 11
-99.8
 21
71.706
 31
0.0
  0
LINE
  5
39
100
AcDbEntity
  8
PV
390
0
  6
CONTINUOUS
 62
     7
100
AcDbLine
 10
-98.9
 20
68.006
 30
0.0
 11
-99.8
 21
68.006
 31
0.0
  0
LINE
  5
3A
100
AcDbEntity
  8
PV
390
0
  6
CONTINUOUS
 62
     7
100
AcDbLine
 10
-81.8
 20
68.006
 30
0.0
 11
-81.8
 21
71.706
 31
0.0
  0
LINE
  5
3B
100
AcDbEntity
  8
PV
390
0
  6
CONTINUOUS
 62
     7
100
AcDbLine
 10
-80.9
 20
68.006
 30
0.0
 11
-81.8
 21
68.006
 31
0.0
  0
LINE
  5
3C
100
AcDbEntity
  8
PV
390
0
  6
CONTINUOUS
 62
     7
100
AcDbLine
 10
-75.6
 20
68.006
 30
0.0
 11
-76.5
 21
68.006
 31
0.0
  0
LINE
  5
3D
100
AcDbEntity
  8
PV
390
0
  6
CONTINUOUS
 62
     7
100
AcDbLine
 10
-75.6
 20
68.006
 30
0.0
 11
-75.6
 21
71.706
 31
0.0
  0
LINE
  5
3E
100
AcDbEntity
  8
PV
390
0
  6
CONTINUOUS
 62
     7
100
AcDbLine
 10
-157.75
 20
150.506
 30
0.0
 11
-155.901
 21
150.506
 31
0.0
  0
LINE
  5
3F
100
AcDbEntity
  8
PV
390
0
  6
CONTINUOUS
 62
     7
100
AcDbLine
 10
-152.807
 20
143.256
 30
0.0
 11
-133.75
 21
143.256
 31
0.0
  0
LINE
  5
40
100
AcDbEntity
  8
PV
390
0
  6
CONTINUOUS
 62
     7
100
AcDbLine
 10
-154.452
 20
149.395
 30
0.0
 11
-152.807
 21
143.256
 31
0.0
  0
LINE
  5
41
100
AcDbEntity
  8
PV
390
0
  6
CONTINUOUS
 62
     7
100
AcDbLine
 10
-80.9
 20
67.006
 30
0.0
 11
-80.9
 21
68.006
 31
0.0
  0
LINE
  5
42
100
AcDbEntity
  8
PV
390
0
  6
CONTINUOUS
 62
     7
100
AcDbLine
 10
-76.5
 20
67.006
 30
0.0
 11
-76.5
 21
68.006
 31
0.0
  0
LINE
  5
43
100
AcDbEntity
  8
PV
390
0
  6
CONTINUOUS
 62
     7
100
AcDbLine
 10
-94.5
 20
67.006
 30
0.0
 11
-94.5
 21
68.006
 31
0.0
  0
LINE
  5
44
100
AcDbEntity
  8
PV
390
0
  6
CONTINUOUS
 62
     7
100
AcDbLine
 10
-98.9
 20
67.006
 30
0.0
 11
-98.9
 21
68.006
 31
0.0
  0
LINE
  5
45
100
AcDbEntity
  8
PV
390
0
  6
CONTINUOUS
 62
     7
100
AcDbLine
 10
-157.75
 20
75.506
 30
0.0
 11
-155.901
 21
75.506
 31
0.0
  0
LINE
  5
46
100
AcDbEntity
  8
PV
390
0
  6
CONTINUOUS
 62
     7
100
AcDbLine
 10
-152.807
 20
82.756
 30
0.0
 11
-133.75
 21
82.756
 31
0.0
  0
LINE
  5
47
100
AcDbEntity
  8
PV
390
0
  6
CONTINUOUS
 62
     7
100
AcDbLine
 10
-154.452
 20
76.618
 30
0.0
 11
-152.807
 21
82.756
 31
0.0
  0
LINE
  5
48
100
AcDbEntity
  8
PV
390
0
  6
CONTINUOUS
 62
     7
100
AcDbLine
 10
-154.75
 20
149.968
 30
0.0
 11
-154.75
 21
76.045
 31
0.0
  0
LINE
  5
49
100
AcDbEntity
  8
PV
390
0
  6
CONTINUOUS
 62
     7
100
AcDbLine
 10
-152.807
 20
143.256
 30
0.0
 11
-152.807
 21
82.756
 31
0.0
  0
LINE
  5
4A
100
AcDbEntity
  8
PV
390
0
  6
CENTER
 62
     7
100
AcDbLine
 10
-111.75
 20
77.506
 30
0.0
 11
-134.75
 21
77.506
 31
0.0
  0
LINE
  5
4B
100
AcDbEntity
  8
PV
390
0
  6
CENTER
 62
     7
100
AcDbLine
 10
-123.25
 20
89.006
 30
0.0
 11
-123.25
 21
66.006
 31
0.0
  0
LINE
  5
4C
100
AcDbEntity
  8
PV
390
0
  6
CONTINUOUS
 62
     7
100
AcDbLine
 10
-133.75
 20
153.069
 30
0.0
 11
-133.75
 21
72.944
 31
0.0
  0
LINE
  5
4D
100
AcDbEntity
  8
PV
390
0
  6
CONTINUOUS
 62
     7
100
AcDbLine
 10
-41.75
 20
153.069
 30
0.0
 11
-41.75
 21
113.068
 31
0.0
  0
LINE
  5
4E
100
AcDbEntity
  8
PV
390
0
  6
CONTINUOUS
 62
     7
100
AcDbLine
 10
-47.688
 20
159.006
 30
0.0
 11
-87.849
 21
159.006
 31
0.0
  0
LINE
  5
4F
100
AcDbEntity
  8
PV
390
0
  6
CONTINUOUS
 62
     7
100
AcDbLine
 10
-47.688
 20
67.006
 30
0.0
 11
-127.812
 21
67.006
 31
0.0
  0
LINE
  5
50
100
AcDbEntity
  8
PV
390
0
  6
CONTINUOUS
 62
     7
100
AcDbLine
 10
-87.849
 20
159.006
 30
0.0
 11
-127.812
 21
159.006
 31
0.0
  0
LINE
  5
51
100
AcDbEntity
  8
PV
390
0
  6
CENTER
 62
     7
100
AcDbLine
 10
-63.75
 20
77.506
 30
0.0
 11
-40.75
 21
77.506
 31
0.0
  0
LINE
  5
52
100
AcDbEntity
  8
PV
390
0
  6
CENTER
 62
     7
100
AcDbLine
 10
-52.25
 20
89.006
 30
0.0
 11
-52.25
 21
66.006
 31
0.0
  0
LINE
  5
53
100
AcDbEntity
  8
PV
390
0
  6
CENTER
 62
     7
100
AcDbLine
 10
-111.75
 20
148.506
 30
0.0
 11
-134.75
 21
148.506
 31
0.0
  0
LINE
  5
54
100
AcDbEntity
  8
PV
390
0
  6
CENTER
 62
     7
100
AcDbLine
 10
-123.25
 20
137.006
 30
0.0
 11
-123.25
 21
160.006
 31
0.0
  0
LINE
  5
55
100
AcDbEntity
  8
PV
390
0
  6
CENTER
 62
     7
100
AcDbLine
 10
-63.75
 20
148.506
 30
0.0
 11
-40.75
 21
148.506
 31
0.0
  0
LINE
  5
56
100
AcDbEntity
  8
PV
390
0
  6
CENTER
 62
     7
100
AcDbLine
 10
-52.25
 20
137.006
 30
0.0
 11
-52.25
 21
160.006
 31
0.0
  0
LINE
  5
57
100
AcDbEntity
  8
PV
390
0
  6
CONTINUOUS
 62
     7
100
AcDbLine
 10
-75.6
 20
154.306
 30
0.0
 11
-81.8
 21
154.306
 31
0.0
  0
LINE
  5
58
100
AcDbEntity
  8
PV
390
0
  6
CONTINUOUS
 62
     7
100
AcDbLine
 10
-81.8
 20
158.006
 30
0.0
 11
-81.8
 21
154.306
 31
0.0
  0
LINE
  5
59
100
AcDbEntity
  8
PV
390
0
  6
CONTINUOUS
 62
     7
100
AcDbLine
 10
-75.6
 20
158.006
 30
0.0
 11
-75.6
 21
154.306
 31
0.0
  0
LINE
  5
5A
100
AcDbEntity
  8
PV
390
0
  6
CONTINUOUS
 62
     7
100
AcDbLine
 10
-75.6
 20
158.006
 30
0.0
 11
-76.5
 21
158.006
 31
0.0
  0
LINE
  5
5B
100
AcDbEntity
  8
PV
390
0
  6
CONTINUOUS
 62
     7
100
AcDbLine
 10
-76.5
 20
159.006
 30
0.0
 11
-76.5
 21
158.006
 31
0.0
  0
LINE
  5
5C
100
AcDbEntity
  8
PV
390
0
  6
CONTINUOUS
 62
     7
100
AcDbLine
 10
-80.9
 20
158.006
 30
0.0
 11
-81.8
 21
158.006
 31
0.0
  0
LINE
  5
5D
100
AcDbEntity
  8
PV
390
0
  6
CONTINUOUS
 62
     7
100
AcDbLine
 10
-80.9
 20
159.006
 30
0.0
 11
-80.9
 21
158.006
 31
0.0
  0
LINE
  5
5E
100
AcDbEntity
  8
PV
390
0
  6
CONTINUOUS
 62
     7
100
AcDbLine
 10
-93.6
 20
154.306
 30
0.0
 11
-99.8
 21
154.306
 31
0.0
  0
LINE
  5
5F
100
AcDbEntity
  8
PV
390
0
  6
CONTINUOUS
 62
     7
100
AcDbLine
 10
-93.6
 20
158.006
 30
0.0
 11
-93.6
 21
154.306
 31
0.0
  0
LINE
  5
60
100
AcDbEntity
  8
PV
390
0
  6
CONTINUOUS
 62
     7
100
AcDbLine
 10
-93.6
 20
158.006
 30
0.0
 11
-94.5
 21
158.006
 31
0.0
  0
LINE
  5
61
100
AcDbEntity
  8
PV
390
0
  6
CONTINUOUS
 62
     7
100
AcDbLine
 10
-94.5
 20
159.006
 30
0.0
 11
-94.5
 21
158.006
 31
0.0
  0
LINE
  5
62
100
AcDbEntity
  8
PV
390
0
  6
CONTINUOUS
 62
     7
100
AcDbLine
 10
-99.8
 20
158.006
 30
0.0
 11
-99.8
 21
154.306
 31
0.0
  0
LINE
  5
63
100
AcDbEntity
  8
PV
390
0
  6
CONTINUOUS
 62
     7
100
AcDbLine
 10
-98.9
 20
158.006
 30
0.0
 11
-99.8
 21
158.006
 31
0.0
  0
LINE
  5
64
100
AcDbEntity
  8
PV
390
0
  6
CONTINUOUS
 62
     7
100
AcDbLine
 10
-98.9
 20
159.006
 30
0.0
 11
-98.9
 21
158.006
 31
0.0
  0
LINE
  5
65
100
AcDbEntity
  8
PV
390
0
  6
CONTINUOUS
 62
     7
100
AcDbLine
 10
-41.75
 20
112.897
 30
0.0
 11
-41.75
 21
72.944
 31
0.0
  0
LINE
  5
66
100
AcDbEntity
  8
PV
390
0
  6
CENTER
 62
     7
100
AcDbLine
 10
-165.417
 20
-87.0
 30
0.0
 11
-113.781
 21
-87.0
 31
0.0
  0
LINE
  5
67
100
AcDbEntity
  8
PV
390
0
  6
CENTER
 62
     7
100
AcDbLine
 10
-87.75
 20
45.69
 30
0.0
 11
-87.75
 21
-162.657945
 31
0.0
  0
LINE
  5
68
100
AcDbEntity
  8
PV
390
0
  6
CONTINUOUS
 62
     7
100
AcDbLine
 10
-52.25
 20
-129.5
 30
0.0
 11
-123.3
 21
-129.5
 31
0.0
  0
LINE
  5
69
100
AcDbEntity
  8
PV
390
0
  6
CONTINUOUS
 62
     7
100
AcDbLine
 10
-41.75
 20
-37.5
 30
0.0
 11
-133.75
 21
-37.5
 31
0.0
  0
LINE
  5
6A
100
AcDbEntity
  8
PV
390
0
  6
CENTER
 62
     7
100
AcDbLine
 10
74.25
 20
-28.5
 30
0.0
 11
49.25
 21
-28.5
 31
0.0
  0
LINE
  5
6B
100
AcDbEntity
  8
PV
390
0
  6
CENTER
 62
     7
100
AcDbLine
 10
74.25
 20
10.5
 30
0.0
 11
49.577
 21
10.5
 31
0.0
  0
LINE
  5
6C
100
AcDbEntity
  8
PV
390
0
  6
CONTINUOUS
 62
     7
100
AcDbLine
 10
-157.75
 20
-49.5
 30
0.0
 11
-155.901
 21
-49.5
 31
0.0
  0
LINE
  5
6D
100
AcDbEntity
  8
PV
390
0
  6
CONTINUOUS
 62
     7
100
AcDbLine
 10
-152.807
 20
-56.75
 30
0.0
 11
-132.25
 21
-56.75
 31
0.0
  0
LINE
  5
6E
100
AcDbEntity
  8
PV
390
0
  6
CONTINUOUS
 62
     7
100
AcDbLine
 10
-154.452
 20
-50.612
 30
0.0
 11
-152.807
 21
-56.75
 31
0.0
  0
LINE
  5
6F
100
AcDbEntity
  8
PV
390
0
  6
CONTINUOUS
 62
     7
100
AcDbLine
 10
-154.75
 20
-87.0
 30
0.0
 11
-154.75
 21
-50.038
 31
0.0
  0
LINE
  5
70
100
AcDbEntity
  8
PV
390
0
  6
CONTINUOUS
 62
     7
100
AcDbLine
 10
-152.807
 20
-87.0
 30
0.0
 11
-152.807
 21
-56.75
 31
0.0
  0
LINE
  5
71
100
AcDbEntity
  8
PV
390
0
  6
CONTINUOUS
 62
     7
100
AcDbLine
 10
-157.75
 20
-87.0
 30
0.0
 11
-157.75
 21
-49.5
 31
0.0
  0
LINE
  5
72
100
AcDbEntity
  8
PV
390
0
  6
CONTINUOUS
 62
     7
100
AcDbLine
 10
-125.25
 20
-157.0
 30
0.0
 11
-125.25
 21
-155.151
 31
0.0
  0
LINE
  5
73
100
AcDbEntity
  8
PV
390
0
  6
CONTINUOUS
 62
     7
100
AcDbLine
 10
-118.0
 20
-152.057
 30
0.0
 11
-118.0
 21
-129.555
 31
0.0
  0
LINE
  5
74
100
AcDbEntity
  8
PV
390
0
  6
CONTINUOUS
 62
     7
100
AcDbLine
 10
-124.138
 20
-153.702
 30
0.0
 11
-118.0
 21
-152.057
 31
0.0
  0
LINE
  5
75
100
AcDbEntity
  8
PV
390
0
  6
CONTINUOUS
 62
     7
100
AcDbLine
 10
-50.788
 20
-154.0
 30
0.0
 11
-124.712
 21
-154.0
 31
0.0
  0
LINE
  5
76
100
AcDbEntity
  8
PV
390
0
  6
CONTINUOUS
 62
     7
100
AcDbLine
 10
-57.5
 20
-152.057
 30
0.0
 11
-118.0
 21
-152.057
 31
0.0
  0
LINE
  5
77
100
AcDbEntity
  8
PV
390
0
  6
CONTINUOUS
 62
     7
100
AcDbLine
 10
-50.25
 20
-157.0
 30
0.0
 11
-125.25
 21
-157.0
 31
0.0
  0
LINE
  5
78
100
AcDbEntity
  8
PV
390
0
  6
CONTINUOUS
 62
     7
100
AcDbLine
 10
-94.5
 20
-37.5
 30
0.0
 11
-94.5
 21
29.5
 31
0.0
  0
LINE
  5
79
100
AcDbEntity
  8
PV
390
0
  6
CONTINUOUS
 62
     7
100
AcDbLine
 10
-98.9
 20
-37.5
 30
0.0
 11
-98.9
 21
29.5
 31
0.0
  0
LINE
  5
7A
100
AcDbEntity
  8
PV
390
0
  6
CONTINUOUS
 62
     7
100
AcDbLine
 10
-80.9
 20
-37.5
 30
0.0
 11
-80.9
 21
29.5
 31
0.0
  0
LINE
  5
7B
100
AcDbEntity
  8
PV
390
0
  6
CONTINUOUS
 62
     7
100
AcDbLine
 10
-76.5
 20
-37.5
 30
0.0
 11
-76.5
 21
29.5
 31
0.0
  0
LINE
  5
7C
100
AcDbEntity
  8
PV
390
0
  6
CONTINUOUS
 62
     7
100
AcDbLine
 10
-50.25
 20
-157.0
 30
0.0
 11
-50.25
 21
-155.151
 31
0.0
  0
LINE
  5
7D
100
AcDbEntity
  8
PV
390
0
  6
CONTINUOUS
 62
     7
100
AcDbLine
 10
-57.5
 20
-152.057
 30
0.0
 11
-57.5
 21
-129.573
 31
0.0
  0
LINE
  5
7E
100
AcDbEntity
  8
PV
390
0
  6
CONTINUOUS
 62
     7
100
AcDbLine
 10
-51.362
 20
-153.702
 30
0.0
 11
-57.5
 21
-152.057
 31
0.0
  0
LINE
  5
7F
100
AcDbEntity
  8
PV
390
0
  6
CONTINUOUS
 62
     7
100
AcDbLine
 10
-157.75
 20
-124.5
 30
0.0
 11
-155.901
 21
-124.5
 31
0.0
  0
LINE
  5
80
100
AcDbEntity
  8
PV
390
0
  6
CONTINUOUS
 62
     7
100
AcDbLine
 10
-152.807
 20
-117.25
 30
0.0
 11
-132.25
 21
-117.25
 31
0.0
  0
LINE
  5
81
100
AcDbEntity
  8
PV
390
0
  6
CONTINUOUS
 62
     7
100
AcDbLine
 10
-154.452
 20
-123.388
 30
0.0
 11
-152.807
 21
-117.25
 31
0.0
  0
LINE
  5
82
100
AcDbEntity
  8
PV
390
0
  6
CONTINUOUS
 62
     7
100
AcDbLine
 10
-154.75
 20
-87.0
 30
0.0
 11
-154.75
 21
-123.962
 31
0.0
  0
LINE
  5
83
100
AcDbEntity
  8
PV
390
0
  6
CONTINUOUS
 62
     7
100
AcDbLine
 10
-152.807
 20
-87.0
 30
0.0
 11
-152.807
 21
-117.25
 31
0.0
  0
LINE
  5
84
100
AcDbEntity
  8
PV
390
0
  6
CONTINUOUS
 62
     7
100
AcDbLine
 10
-157.75
 20
-87.0
 30
0.0
 11
-157.75
 21
-124.5
 31
0.0
  0
LINE
  5
85
100
AcDbEntity
  8
PV
390
0
  6
CONTINUOUS
 62
     7
100
AcDbLine
 10
-41.75
 20
29.5
 30
0.0
 11
-133.75
 21
29.5
 31
0.0
  0
LINE
  5
86
100
AcDbEntity
  8
PV
390
0
  6
CONTINUOUS
 62
     7
100
AcDbLine
 10
-43.25
 20
-50.5
 30
0.0
 11
-43.25
 21
-120.5
 31
0.0
  0
LINE
  5
87
100
AcDbEntity
  8
PV
390
0
  6
CONTINUOUS
 62
     7
100
AcDbLine
 10
-132.25
 20
-117.25
 30
0.0
 11
-132.25
 21
-120.55
 31
0.0
  0
LINE
  5
88
100
AcDbEntity
  8
PV
390
0
  6
CENTER
 62
     7
100
AcDbLine
 10
-123.25
 20
37.445
 30
0.0
 11
-123.25
 21
-54.15
 31
0.0
  0
LINE
  5
89
100
AcDbEntity
  8
PV
390
0
  6
CENTER
 62
     7
100
AcDbLine
 10
-52.25
 20
37.574
 30
0.0
 11
-52.25
 21
-53.672
 31
0.0
  0
LINE
  5
8A
100
AcDbEntity
  8
PV
390
0
  6
CONTINUOUS
 62
     7
100
AcDbLine
 10
-133.75
 20
29.5
 30
0.0
 11
-133.75
 21
-37.5
 31
0.0
  0
LINE
  5
8B
100
AcDbEntity
  8
PV
390
0
  6
CONTINUOUS
 62
     7
100
AcDbLine
 10
-41.75
 20
29.5
 30
0.0
 11
-41.75
 21
-37.5
 31
0.0
  0
LINE
  5
8C
100
AcDbEntity
  8
PV
390
0
  6
CONTINUOUS
 62
     7
100
AcDbLine
 10
-133.75
 20
-37.5
 30
0.0
 11
-133.75
 21
-50.5
 31
0.0
  0
LINE
  5
8D
100
AcDbEntity
  8
PV
390
0
  6
CONTINUOUS
 62
     7
100
AcDbLine
 10
-41.75
 20
-37.5
 30
0.0
 11
-41.75
 21
-50.5
 31
0.0
  0
LINE
  5
8E
100
AcDbEntity
  8
PV
390
0
  6
CONTINUOUS
 62
     7
100
AcDbLine
 10
-132.25
 20
-50.5
 30
0.0
 11
-132.25
 21
-56.704
 31
0.0
  0
LINE
  5
8F
100
AcDbEntity
  8
PV
390
0
  6
CENTER
 62
     7
100
AcDbLine
 10
60.801
 20
46.234
 30
0.0
 11
60.801
 21
-166.5
 31
0.0
  0
LINE
  5
90
100
AcDbEntity
  8
PV
390
0
  6
CONTINUOUS
 62
     7
100
AcDbLine
 10
96.351
 20
-129.5
 30
0.0
 11
25.251
 21
-129.5
 31
0.0
  0
LINE
  5
91
100
AcDbEntity
  8
PV
390
0
  6
CONTINUOUS
 62
     7
100
AcDbLine
 10
106.801
 20
-37.5
 30
0.0
 11
14.801
 21
-37.5
 31
0.0
  0
LINE
  5
92
100
AcDbEntity
  8
PV
390
0
  6
CONTINUOUS
 62
     7
100
AcDbLine
 10
23.301
 20
-157.0
 30
0.0
 11
23.301
 21
-155.151
 31
0.0
  0
LINE
  5
93
100
AcDbEntity
  8
PV
390
0
  6
CONTINUOUS
 62
     7
100
AcDbLine
 10
30.551
 20
-152.057
 30
0.0
 11
30.551
 21
-129.555
 31
0.0
  0
LINE
  5
94
100
AcDbEntity
  8
PV
390
0
  6
CONTINUOUS
 62
     7
100
AcDbLine
 10
24.413
 20
-153.702
 30
0.0
 11
30.551
 21
-152.057
 31
0.0
  0
LINE
  5
95
100
AcDbEntity
  8
PV
390
0
  6
CONTINUOUS
 62
     7
100
AcDbLine
 10
97.763
 20
-154.0
 30
0.0
 11
23.839
 21
-154.0
 31
0.0
  0
LINE
  5
96
100
AcDbEntity
  8
PV
390
0
  6
CONTINUOUS
 62
     7
100
AcDbLine
 10
91.051
 20
-152.057
 30
0.0
 11
30.551
 21
-152.057
 31
0.0
  0
LINE
  5
97
100
AcDbEntity
  8
PV
390
0
  6
CONTINUOUS
 62
     7
100
AcDbLine
 10
98.301
 20
-157.0
 30
0.0
 11
23.301
 21
-157.0
 31
0.0
  0
LINE
  5
98
100
AcDbEntity
  8
PV
390
0
  6
CONTINUOUS
 62
     7
100
AcDbLine
 10
98.301
 20
-157.0
 30
0.0
 11
98.301
 21
-155.151
 31
0.0
  0
LINE
  5
99
100
AcDbEntity
  8
PV
390
0
  6
CONTINUOUS
 62
     7
100
AcDbLine
 10
91.051
 20
-152.057
 30
0.0
 11
91.051
 21
-129.573
 31
0.0
  0
LINE
  5
9A
100
AcDbEntity
  8
PV
390
0
  6
CONTINUOUS
 62
     7
100
AcDbLine
 10
97.189
 20
-153.702
 30
0.0
 11
91.051
 21
-152.057
 31
0.0
  0
LINE
  5
9B
100
AcDbEntity
  8
PV
390
0
  6
CONTINUOUS
 62
     7
100
AcDbLine
 10
106.801
 20
29.5
 30
0.0
 11
14.801
 21
29.5
 31
0.0
  0
LINE
  5
9C
100
AcDbEntity
  8
PV
390
0
  6
CONTINUOUS
 62
     7
100
AcDbLine
 10
105.351
 20
-50.5
 30
0.0
 11
105.351
 21
-120.5
 31
0.0
  0
LINE
  5
9D
100
AcDbEntity
  8
PV
390
0
  6
CENTER
 62
     7
100
AcDbLine
 10
25.301
 20
38.151
 30
0.0
 11
25.301
 21
-52.672
 31
0.0
  0
LINE
  5
9E
100
AcDbEntity
  8
PV
390
0
  6
CENTER
 62
     7
100
AcDbLine
 10
96.301
 20
38.709
 30
0.0
 11
96.301
 21
-53.672
 31
0.0
  0
LINE
  5
9F
100
AcDbEntity
  8
PV
390
0
  6
CONTINUOUS
 62
     7
100
AcDbLine
 10
106.801
 20
-50.5
 30
0.0
 11
14.801
 21
-50.5
 31
0.0
  0
LINE
  5
A0
100
AcDbEntity
  8
PV
390
0
  6
CONTINUOUS
 62
     7
100
AcDbLine
 10
14.801
 20
29.5
 30
0.0
 11
14.801
 21
-50.5
 31
0.0
  0
LINE
  5
A1
100
AcDbEntity
  8
PV
390
0
  6
CONTINUOUS
 62
     7
100
AcDbLine
 10
106.801
 20
29.5
 30
0.0
 11
106.801
 21
-50.5
 31
0.0
  0
LINE
  5
A2
100
AcDbEntity
  8
PV
390
0
  6
CONTINUOUS
 62
     7
100
AcDbLine
 10
16.251
 20
-50.5
 30
0.0
 11
16.251
 21
-120.5
 31
0.0
  0
LINE
  5
A3
100
AcDbEntity
  8
PV
390
0
  6
CENTER
 62
     7
100
AcDbLine
 10
-31.079
 20
10.5
 30
0.0
 11
-49.231
 21
10.5
 31
0.0
  0
LINE
  5
A4
100
AcDbEntity
  8
PV
390
0
  6
CENTER
 62
     7
100
AcDbLine
 10
-30.736
 20
-28.5
 30
0.0
 11
-50.25
 21
-28.5
 31
0.0
  0
LINE
  5
A5
100
AcDbEntity
  8
PV
390
0
  6
CONTINUOUS
 62
     7
100
AcDbLine
 10
105.351
 20
-120.5
 30
0.0
 11
96.351
 21
-129.5
 31
0.0
  0
LINE
  5
A6
100
AcDbEntity
  8
PV
390
0
  6
CONTINUOUS
 62
     7
100
AcDbLine
 10
25.251
 20
-129.5
 30
0.0
 11
16.251
 21
-120.5
 31
0.0
  0
LINE
  5
A7
100
AcDbEntity
  8
PV
390
0
  6
CONTINUOUS
 62
     7
100
AcDbLine
 10
105.351
 20
-120.5
 30
0.0
 11
16.251
 21
-120.5
 31
0.0
  0
LINE
  5
A8
100
AcDbEntity
  8
PV
390
0
  6
CONTINUOUS
 62
     7
100
AcDbLine
 10
-43.25
 20
-120.5
 30
0.0
 11
-52.25
 21
-129.5
 31
0.0
  0
LINE
  5
A9
100
AcDbEntity
  8
PV
390
0
  6
CONTINUOUS
 62
     7
100
AcDbLine
 10
-123.3
 20
-129.5
 30
0.0
 11
-132.25
 21
-120.55
 31
0.0
  0
LINE
  5
AA
100
AcDbEntity
  8
PV
390
0
  6
CONTINUOUS
 62
     7
100
AcDbLine
 10
-43.25
 20
-120.5
 30
0.0
 11
-132.25
 21
-120.5
 31
0.0
  0
LINE
  5
AB
100
AcDbEntity
  8
PV
390
0
  6
CONTINUOUS
 62
     7
100
AcDbLine
 10
20.739
 20
29.5
 30
0.0
 11
20.739
 21
-50.5
 31
0.0
  0
LINE
  5
AC
100
AcDbEntity
  8
PV
390
0
  6
CONTINUOUS
 62
     7
100
AcDbLine
 10
100.864
 20
29.5
 30
0.0
 11
100.864
 21
-50.5
 31
0.0
  0
LINE
  5
AD
100
AcDbEntity
  8
PV
390
0
  6
CONTINUOUS
 62
     7
100
AcDbLine
 10
-47.688
 20
29.5
 30
0.0
 11
-47.688
 21
-50.5
 31
0.0
  0
LINE
  5
AE
100
AcDbEntity
  8
PV
390
0
  6
CONTINUOUS
 62
     7
100
AcDbLine
 10
-127.812
 20
29.5
 30
0.0
 11
-127.812
 21
-50.5
 31
0.0
  0
LINE
  5
AF
100
AcDbEntity
  8
PV
390
0
  6
CONTINUOUS
 62
     7
100
AcDbLine
 10
-41.75
 20
-50.5
 30
0.0
 11
-133.75
 21
-50.5
 31
0.0
  0
LINE
  5
B0
100
AcDbEntity
  8
PV
390
0
  6
CENTER
 62
     7
100
AcDbLine
 10
48.801
 20
28.506
 30
0.0
 11
48.801
 21
22.145
 31
0.0
  0
LINE
  5
B1
100
AcDbEntity
  8
PV
390
0
  6
CENTER
 62
     7
100
AcDbLine
 10
51.341
 20
25.5
 30
0.0
 11
46.365
 21
25.5
 31
0.0
  0
LINE
  5
B2
100
AcDbEntity
  8
PV
390
0
  6
CENTER
 62
     7
100
AcDbLine
 10
72.801
 20
28.506
 30
0.0
 11
72.801
 21
22.145
 31
0.0
  0
LINE
  5
B3
100
AcDbEntity
  8
PV
390
0
  6
CENTER
 62
     7
100
AcDbLine
 10
70.262
 20
25.5
 30
0.0
 11
75.238
 21
25.5
 31
0.0
  0
LINE
  5
B4
100
AcDbEntity
  8
PV
390
0
  6
CENTER
 62
     7
100
AcDbLine
 10
48.801
 20
-36.506
 30
0.0
 11
48.801
 21
-30.145
 31
0.0
  0
LINE
  5
B5
100
AcDbEntity
  8
PV
390
0
  6
CENTER
 62
     7
100
AcDbLine
 10
51.341
 20
-33.5
 30
0.0
 11
46.365
 21
-33.5
 31
0.0
  0
LINE
  5
B6
100
AcDbEntity
  8
PV
390
0
  6
CENTER
 62
     7
100
AcDbLine
 10
72.801
 20
-36.506
 30
0.0
 11
72.801
 21
-30.145
 31
0.0
  0
LINE
  5
B7
100
AcDbEntity
  8
PV
390
0
  6
CENTER
 62
     7
100
AcDbLine
 10
70.262
 20
-33.5
 30
0.0
 11
75.238
 21
-33.5
 31
0.0
  0
ARC
  5
B8
100
AcDbEntity
  8
PV
390
0
  6
CONTINUOUS
 62
     7
100
AcDbCircle
 10
-155.901
 20
149.006
 30
0.0
 40
1.5
100
AcDbArc
 50
14.99997
 51
89.999927
  0
ARC
  5
B9
100
AcDbEntity
  8
PV
390
0
  6
CONTINUOUS
 62
     7
100
AcDbCircle
 10
-155.901
 20
77.006
 30
0.0
 40
1.5
100
AcDbArc
 50
270.000073
 51
345.00003
  0
CIRCLE
  5
BA
100
AcDbEntity
  8
PV
390
0
  6
CONTINUOUS
 62
     7
100
AcDbCircle
 10
-52.25
 20
77.506
 30
0.0
 40
7.5
  0
CIRCLE
  5
BB
100
AcDbEntity
  8
PV
390
0
  6
CONTINUOUS
 62
     7
100
AcDbCircle
 10
-123.25
 20
77.506
 30
0.0
 40
7.5
  0
CIRCLE
  5
BC
100
AcDbEntity
  8
PV
390
0
  6
CONTINUOUS
 62
     7
100
AcDbCircle
 10
-123.25
 20
148.506
 30
0.0
 40
7.5
  0
CIRCLE
  5
BD
100
AcDbEntity
  8
PV
390
0
  6
CONTINUOUS
 62
     7
100
AcDbCircle
 10
-52.25
 20
148.506
 30
0.0
 40
7.5
  0
ARC
  5
BE
100
AcDbEntity
  8
PV
390
0
  6
CONTINUOUS
 62
     7
100
AcDbCircle
 10
-87.75
 20
113.006
 30
0.0
 40
61.0
100
AcDbArc
 50
131.053339
 51
138.946661
  0
ARC
  5
BF
100
AcDbEntity
  8
PV
390
0
  6
CONTINUOUS
 62
     7
100
AcDbCircle
 10
-87.75
 20
113.006
 30
0.0
 40
61.0
100
AcDbArc
 50
221.053339
 51
228.946647
  0
ARC
  5
C0
100
AcDbEntity
  8
PV
390
0
  6
CONTINUOUS
 62
     7
100
AcDbCircle
 10
-87.75
 20
113.006
 30
0.0
 40
61.0
100
AcDbArc
 50
311.053352
 51
318.946649
  0
ARC
  5
C1
100
AcDbEntity
  8
PV
390
0
  6
CONTINUOUS
 62
     7
100
AcDbCircle
 10
-87.75
 20
113.006
 30
0.0
 40
61.0
100
AcDbArc
 50
41.053351
 51
48.946659
  0
ARC
  5
C2
100
AcDbEntity
  8
PV
390
0
  6
CONTINUOUS
 62
     7
100
AcDbCircle
 10
-155.901
 20
-51.0
 30
0.0
 40
1.5
100
AcDbArc
 50
14.99997
 51
89.999927
  0
ARC
  5
C3
100
AcDbEntity
  8
PV
390
0
  6
CONTINUOUS
 62
     7
100
AcDbCircle
 10
-123.75
 20
-155.151
 30
0.0
 40
1.5
100
AcDbArc
 50
105.000006
 51
179.999937
  0
ARC
  5
C4
100
AcDbEntity
  8
PV
390
0
  6
CONTINUOUS
 62
     7
100
AcDbCircle
 10
-51.75
 20
-155.151
 30
0.0
 40
1.5
100
AcDbArc
 50
0.000027
 51
74.999958
  0
ARC
  5
C5
100
AcDbEntity
  8
PV
390
0
  6
CONTINUOUS
 62
     7
100
AcDbCircle
 10
-155.901
 20
-123.0
 30
0.0
 40
1.5
100
AcDbArc
 50
270.000018
 51
344.999976
  0
ARC
  5
C6
100
AcDbEntity
  8
PV
390
0
  6
CONTINUOUS
 62
     7
100
AcDbCircle
 10
-165.005
 20
-87.0
 30
0.0
 40
44.55
100
AcDbArc
 50
317.434049
 51
42.671661
  0
ARC
  5
C7
100
AcDbEntity
  8
PV
390
0
  6
CONTINUOUS
 62
     7
100
AcDbCircle
 10
24.801
 20
-155.151
 30
0.0
 40
1.5
100
AcDbArc
 50
105.000006
 51
179.999937
  0
ARC
  5
C8
100
AcDbEntity
  8
PV
390
0
  6
CONTINUOUS
 62
     7
100
AcDbCircle
 10
96.801
 20
-155.151
 30
0.0
 40
1.5
100
AcDbArc
 50
0.000027
 51
74.999958
  0
CIRCLE
  5
C9
100
AcDbEntity
  8
PV
390
0
  6
CONTINUOUS
 62
     7
100
AcDbCircle
 10
60.801
 20
-28.5
 30
0.0
 40
3.85
  0
CIRCLE
  5
CA
100
AcDbEntity
  8
PV
390
0
  6
CONTINUOUS
 62
     7
100
AcDbCircle
 10
60.801
 20
-28.5
 30
0.0
 40
4.85
  0
CIRCLE
  5
CB
100
AcDbEntity
  8
PV
390
0
  6
CONTINUOUS
 62
     7
100
AcDbCircle
 10
60.801
 20
10.5
 30
0.0
 40
4.85
  0
CIRCLE
  5
CC
100
AcDbEntity
  8
PV
390
0
  6
CONTINUOUS
 62
     7
100
AcDbCircle
 10
60.801
 20
10.5
 30
0.0
 40
3.85
  0
CIRCLE
  5
CD
100
AcDbEntity
  8
PV
390
0
  6
CONTINUOUS
 62
     7
100
AcDbCircle
 10
48.801
 20
25.5
 30
0.0
 40
1.5
  0
CIRCLE
  5
CE
100
AcDbEntity
  8
PV
390
0
  6
CONTINUOUS
 62
     7
100
AcDbCircle
 10
48.801
 20
25.5
 30
0.0
 40
1.2
  0
CIRCLE
  5
CF
100
AcDbEntity
  8
PV
390
0
  6
CONTINUOUS
 62
     7
100
AcDbCircle
 10
72.801
 20
25.5
 30
0.0
 40
1.5
  0
CIRCLE
  5
D0
100
AcDbEntity
  8
PV
390
0
  6
CONTINUOUS
 62
     7
100
AcDbCircle
 10
72.801
 20
25.5
 30
0.0
 40
1.2
  0
CIRCLE
  5
D1
100
AcDbEntity
  8
PV
390
0
  6
CONTINUOUS
 62
     7
100
AcDbCircle
 10
48.801
 20
-33.5
 30
0.0
 40
1.5
  0
CIRCLE
  5
D2
100
AcDbEntity
  8
PV
390
0
  6
CONTINUOUS
 62
     7
100
AcDbCircle
 10
48.801
 20
-33.5
 30
0.0
 40
1.2
  0
CIRCLE
  5
D3
100
AcDbEntity
  8
PV
390
0
  6
CONTINUOUS
 62
     7
100
AcDbCircle
 10
72.801
 20
-33.5
 30
0.0
 40
1.5
  0
CIRCLE
  5
D4
100
AcDbEntity
  8
PV
390
0
  6
CONTINUOUS
 62
     7
100
AcDbCircle
 10
72.801
 20
-33.5
 30
0.0
 40
1.2
  0
LINE
  5
D5
100
AcDbEntity
  8
PV
390
0
  6
CONTINUOUS
 62
     7
100
AcDbLine
 10
-123.25
 20
145.042
 30
0.0
 11
-120.25
 21
146.774
 31
0.0
  0
LINE
  5
D6
100
AcDbEntity
  8
PV
390
0
  6
CONTINUOUS
 62
     7
100
AcDbLine
 10
-126.25
 20
150.238
 30
0.0
 11
-123.25
 21
151.971
 31
0.0
  0
LINE
  5
D7
100
AcDbEntity
  8
PV
390
0
  6
CONTINUOUS
 62
     7
100
AcDbLine
 10
-120.25
 20
150.238
 30
0.0
 11
-120.25
 21
146.774
 31
0.0
  0
LINE
  5
D8
100
AcDbEntity
  8
PV
390
0
  6
CONTINUOUS
 62
     7
100
AcDbLine
 10
-126.25
 20
150.238
 30
0.0
 11
-126.25
 21
146.774
 31
0.0
  0
LINE
  5
D9
100
AcDbEntity
  8
PV
390
0
  6
CONTINUOUS
 62
     7
100
AcDbLine
 10
-123.25
 20
151.971
 30
0.0
 11
-120.25
 21
150.238
 31
0.0
  0
LINE
  5
DA
100
AcDbEntity
  8
PV
390
0
  6
CONTINUOUS
 62
     7
100
AcDbLine
 10
-126.25
 20
146.774
 30
0.0
 11
-123.25
 21
145.042
 31
0.0
  0
CIRCLE
  5
DB
100
AcDbEntity
  8
PV
390
0
  6
CONTINUOUS
 62
     7
100
AcDbCircle
 10
-123.25
 20
148.506
 30
0.0
 40
6.5
  0
CIRCLE
  5
DC
100
AcDbEntity
  8
PV
390
0
  6
CONTINUOUS
 62
     7
100
AcDbCircle
 10
-123.25
 20
148.506
 30
0.0
 40
5.634
  0
LINE
  5
DD
100
AcDbEntity
  8
PV
390
0
  6
CONTINUOUS
 62
     7
100
AcDbLine
 10
-123.25
 20
74.042
 30
0.0
 11
-120.25
 21
75.774
 31
0.0
  0
LINE
  5
DE
100
AcDbEntity
  8
PV
390
0
  6
CONTINUOUS
 62
     7
100
AcDbLine
 10
-126.25
 20
79.238
 30
0.0
 11
-123.25
 21
80.971
 31
0.0
  0
LINE
  5
DF
100
AcDbEntity
  8
PV
390
0
  6
CONTINUOUS
 62
     7
100
AcDbLine
 10
-120.25
 20
79.238
 30
0.0
 11
-120.25
 21
75.774
 31
0.0
  0
LINE
  5
E0
100
AcDbEntity
  8
PV
390
0
  6
CONTINUOUS
 62
     7
100
AcDbLine
 10
-126.25
 20
79.238
 30
0.0
 11
-126.25
 21
75.774
 31
0.0
  0
LINE
  5
E1
100
AcDbEntity
  8
PV
390
0
  6
CONTINUOUS
 62
     7
100
AcDbLine
 10
-123.25
 20
80.971
 30
0.0
 11
-120.25
 21
79.238
 31
0.0
  0
LINE
  5
E2
100
AcDbEntity
  8
PV
390
0
  6
CONTINUOUS
 62
     7
100
AcDbLine
 10
-126.25
 20
75.774
 30
0.0
 11
-123.25
 21
74.042
 31
0.0
  0
CIRCLE
  5
E3
100
AcDbEntity
  8
PV
390
0
  6
CONTINUOUS
 62
     7
100
AcDbCircle
 10
-123.25
 20
77.506
 30
0.0
 40
6.5
  0
CIRCLE
  5
E4
100
AcDbEntity
  8
PV
390
0
  6
CONTINUOUS
 62
     7
100
AcDbCircle
 10
-123.25
 20
77.506
 30
0.0
 40
5.634
  0
LINE
  5
E5
100
AcDbEntity
  8
PV
390
0
  6
CONTINUOUS
 62
     7
100
AcDbLine
 10
-52.25
 20
74.042
 30
0.0
 11
-49.25
 21
75.774
 31
0.0
  0
LINE
  5
E6
100
AcDbEntity
  8
PV
390
0
  6
CONTINUOUS
 62
     7
100
AcDbLine
 10
-55.25
 20
79.238
 30
0.0
 11
-52.25
 21
80.971
 31
0.0
  0
LINE
  5
E7
100
AcDbEntity
  8
PV
390
0
  6
CONTINUOUS
 62
     7
100
AcDbLine
 10
-49.25
 20
79.238
 30
0.0
 11
-49.25
 21
75.774
 31
0.0
  0
LINE
  5
E8
100
AcDbEntity
  8
PV
390
0
  6
CONTINUOUS
 62
     7
100
AcDbLine
 10
-55.25
 20
79.238
 30
0.0
 11
-55.25
 21
75.774
 31
0.0
  0
LINE
  5
E9
100
AcDbEntity
  8
PV
390
0
  6
CONTINUOUS
 62
     7
100
AcDbLine
 10
-52.25
 20
80.971
 30
0.0
 11
-49.25
 21
79.238
 31
0.0
  0
LINE
  5
EA
100
AcDbEntity
  8
PV
390
0
  6
CONTINUOUS
 62
     7
100
AcDbLine
 10
-55.25
 20
75.774
 30
0.0
 11
-52.25
 21
74.042
 31
0.0
  0
CIRCLE
  5
EB
100
AcDbEntity
  8
PV
390
0
  6
CONTINUOUS
 62
     7
100
AcDbCircle
 10
-52.25
 20
77.506
 30
0.0
 40
6.5
  0
CIRCLE
  5
EC
100
AcDbEntity
  8
PV
390
0
  6
CONTINUOUS
 62
     7
100
AcDbCircle
 10
-52.25
 20
77.506
 30
0.0
 40
5.634
  0
LINE
  5
ED
100
AcDbEntity
  8
PV
390
0
  6
CONTINUOUS
 62
     7
100
AcDbLine
 10
-52.25
 20
145.042
 30
0.0
 11
-49.25
 21
146.774
 31
0.0
  0
LINE
  5
EE
100
AcDbEntity
  8
PV
390
0
  6
CONTINUOUS
 62
     7
100
AcDbLine
 10
-55.25
 20
150.238
 30
0.0
 11
-52.25
 21
151.971
 31
0.0
  0
LINE
  5
EF
100
AcDbEntity
  8
PV
390
0
  6
CONTINUOUS
 62
     7
100
AcDbLine
 10
-49.25
 20
150.238
 30
0.0
 11
-49.25
 21
146.774
 31
0.0
  0
LINE
  5
F0
100
AcDbEntity
  8
PV
390
0
  6
CONTINUOUS
 62
     7
100
AcDbLine
 10
-55.25
 20
150.238
 30
0.0
 11
-55.25
 21
146.774
 31
0.0
  0
LINE
  5
F1
100
AcDbEntity
  8
PV
390
0
  6
CONTINUOUS
 62
     7
100
AcDbLine
 10
-52.25
 20
151.971
 30
0.0
 11
-49.25
 21
150.238
 31
0.0
  0
LINE
  5
F2
100
AcDbEntity
  8
PV
390
0
  6
CONTINUOUS
 62
     7
100
AcDbLine
 10
-55.25
 20
146.774
 30
0.0
 11
-52.25
 21
145.042
 31
0.0
  0
CIRCLE
  5
F3
100
AcDbEntity
  8
PV
390
0
  6
CONTINUOUS
 62
     7
100
AcDbCircle
 10
-52.25
 20
148.506
 30
0.0
 40
6.5
  0
CIRCLE
  5
F4
100
AcDbEntity
  8
PV
390
0
  6
CONTINUOUS
 62
     7
100
AcDbCircle
 10
-52.25
 20
148.506
 30
0.0
 40
5.634
  0
MTEXT
  5
F5
100
AcDbEntity
  8
PV
390
0
  6
CONTINUOUS
 62
     7
100
AcDbMText
 10
-181.723335
 20
-69.266
 30
0.0
 40
7.0
 41
0.0
 71
     2
 72
     1
  1
\T0.891;\W1.089;\A1;\U+220575
 11
0.0
 21
1.0
 31
0.0
 73
     1
 44
1.0
  0
LINE
  5
F6
100
AcDbEntity
  8
PV
390
0
  6
CONTINUOUS
 62
     7
100
AcDbLine
 10
-160.29
 20
-49.5
 30
0.0
 11
-176.076
 21
-49.5
 31
0.0
  0
LINE
  5
F7
100
AcDbEntity
  8
PV
390
0
  6
CONTINUOUS
 62
     7
100
AcDbLine
 10
-160.29
 20
-124.5
 30
0.0
 11
-176.076
 21
-124.5
 31
0.0
  0
LINE
  5
F8
100
AcDbEntity
  8
PV
390
0
  6
CONTINUOUS
 62
     7
100
AcDbLine
 10
-173.79
 20
-124.5
 30
0.0
 11
-173.79
 21
-49.5
 31
0.0
  0
LINE
  5
F9
100
AcDbEntity
  8
PV
390
0
  6
CONTINUOUS
 62
     7
100
AcDbLine
 10
-173.79
 20
-49.5
 30
0.0
 11
-173.79
 21
-52.27
 31
0.0
  0
LINE
  5
FA
100
AcDbEntity
  8
PV
390
0
  6
CONTINUOUS
 62
     7
100
AcDbLine
 10
-173.79
 20
-49.5
 30
0.0
 11
-173.048
 21
-52.27
 31
0.0
  0
LINE
  5
FB
100
AcDbEntity
  8
PV
390
0
  6
CONTINUOUS
 62
     7
100
AcDbLine
 10
-174.532
 20
-52.27
 30
0.0
 11
-173.79
 21
-49.5
 31
0.0
  0
LINE
  5
FC
100
AcDbEntity
  8
PV
390
0
  6
CONTINUOUS
 62
     7
100
AcDbLine
 10
-173.79
 20
-124.5
 30
0.0
 11
-173.79
 21
-121.73
 31
0.0
  0
LINE
  5
FD
100
AcDbEntity
  8
PV
390
0
  6
CONTINUOUS
 62
     7
100
AcDbLine
 10
-173.79
 20
-124.5
 30
0.0
 11
-174.532
 21
-121.73
 31
0.0
  0
LINE
  5
FE
100
AcDbEntity
  8
PV
390
0
  6
CONTINUOUS
 62
     7
100
AcDbLine
 10
-173.048
 20
-121.73
 30
0.0
 11
-173.79
 21
-124.5
 31
0.0
  0
MTEXT
  5
FF
100
AcDbEntity
  8
PV
390
0
  6
CONTINUOUS
 62
     7
100
AcDbMText
 10
-70.686
 20
-160.911665
 30
0.0
 40
7.0
 41
0.0
 71
     2
 72
     1
  1
\T0.891;\W1.089;\A1;\U+220575
 73
     1
 44
1.0
  0
LINE
  5
100
100
AcDbEntity
  8
PV
390
0
  6
CONTINUOUS
 62
     7
100
AcDbLine
 10
-125.25
 20
-159.397436
 30
0.0
 11
-125.25
 21
-172.131
 31
0.0
  0
LINE
  5
101
100
AcDbEntity
  8
PV
390
0
  6
CONTINUOUS
 62
     7
100
AcDbLine
 10
-50.25
 20
-159.397436
 30
0.0
 11
-50.25
 21
-172.131
 31
0.0
  0
LINE
  5
102
100
AcDbEntity
  8
PV
390
0
  6
CONTINUOUS
 62
     7
100
AcDbLine
 10
-50.25
 20
-169.845
 30
0.0
 11
-125.25
 21
-169.845
 31
0.0
  0
LINE
  5
103
100
AcDbEntity
  8
PV
390
0
  6
CONTINUOUS
 62
     7
100
AcDbLine
 10
-125.25
 20
-169.845
 30
0.0
 11
-122.48
 21
-169.845
 31
0.0
  0
LINE
  5
104
100
AcDbEntity
  8
PV
390
0
  6
CONTINUOUS
 62
     7
100
AcDbLine
 10
-125.25
 20
-169.845
 30
0.0
 11
-122.48
 21
-169.103
 31
0.0
  0
LINE
  5
105
100
AcDbEntity
  8
PV
390
0
  6
CONTINUOUS
 62
     7
100
AcDbLine
 10
-122.48
 20
-170.587
 30
0.0
 11
-125.25
 21
-169.845
 31
0.0
  0
LINE
  5
106
100
AcDbEntity
  8
PV
390
0
  6
CONTINUOUS
 62
     7
100
AcDbLine
 10
-50.25
 20
-169.845
 30
0.0
 11
-53.02
 21
-169.845
 31
0.0
  0
LINE
  5
107
100
AcDbEntity
  8
PV
390
0
  6
CONTINUOUS
 62
     7
100
AcDbLine
 10
-50.25
 20
-169.845
 30
0.0
 11
-53.02
 21
-170.587
 31
0.0
  0
LINE
  5
108
100
AcDbEntity
  8
PV
390
0
  6
CONTINUOUS
 62
     7
100
AcDbLine
 10
-53.02
 20
-169.103
 30
0.0
 11
-50.25
 21
-169.845
 31
0.0
  0
MTEXT
  5
109
100
AcDbEntity
  8
PV
390
0
  6
CONTINUOUS
 62
     7
100
AcDbMText
 10
-194.709335
 20
-122.0
 30
0.0
 40
7.0
 41
0.0
 71
     2
 72
     1
  1
\A1;70
 11
0.0
 21
1.0
 31
0.0
 73
     1
 44
1.0
  0
LINE
  5
10A
100
AcDbEntity
  8
PV
390
0
  6
CONTINUOUS
 62
     7
100
AcDbLine
 10
-168.840106
 20
-87.0
 30
0.0
 11
-189.062
 21
-87.0
 31
0.0
  0
LINE
  5
10B
100
AcDbEntity
  8
PV
390
0
  6
CONTINUOUS
 62
     7
100
AcDbLine
 10
-128.473941
 20
-157.0
 30
0.0
 11
-189.062
 21
-157.0
 31
0.0
  0
LINE
  5
10C
100
AcDbEntity
  8
PV
390
0
  6
CONTINUOUS
 62
     7
100
AcDbLine
 10
-186.776
 20
-157.0
 30
0.0
 11
-186.776
 21
-87.0
 31
0.0
  0
LINE
  5
10D
100
AcDbEntity
  8
PV
390
0
  6
CONTINUOUS
 62
     7
100
AcDbLine
 10
-186.776
 20
-87.0
 30
0.0
 11
-186.776
 21
-89.77
 31
0.0
  0
LINE
  5
10E
100
AcDbEntity
  8
PV
390
0
  6
CONTINUOUS
 62
     7
100
AcDbLine
 10
-186.776
 20
-87.0
 30
0.0
 11
-186.034
 21
-89.77
 31
0.0
  0
LINE
  5
10F
100
AcDbEntity
  8
PV
390
0
  6
CONTINUOUS
 62
     7
100
AcDbLine
 10
-187.518
 20
-89.77
 30
0.0
 11
-186.776
 21
-87.0
 31
0.0
  0
LINE
  5
110
100
AcDbEntity
  8
PV
390
0
  6
CONTINUOUS
 62
     7
100
AcDbLine
 10
-186.776
 20
-157.0
 30
0.0
 11
-186.776
 21
-154.23
 31
0.0
  0
LINE
  5
111
100
AcDbEntity
  8
PV
390
0
  6
CONTINUOUS
 62
     7
100
AcDbLine
 10
-186.776
 20
-157.0
 30
0.0
 11
-187.518
 21
-154.23
 31
0.0
  0
LINE
  5
112
100
AcDbEntity
  8
PV
390
0
  6
CONTINUOUS
 62
     7
100
AcDbLine
 10
-186.034
 20
-154.23
 30
0.0
 11
-186.776
 21
-157.0
 31
0.0
  0
MTEXT
  5
113
100
AcDbEntity
  8
PV
390
0
  6
CONTINUOUS
 62
     7
100
AcDbMText
 10
-122.75
 20
-175.115665
 30
0.0
 40
7.0
 41
0.0
 71
     2
 72
     1
  1
\A1;70
 73
     1
 44
1.0
  0
LINE
  5
114
100
AcDbEntity
  8
PV
390
0
  6
CONTINUOUS
 62
     7
100
AcDbLine
 10
-157.75
 20
-127.354752
 30
0.0
 11
-157.75
 21
-186.335
 31
0.0
  0
LINE
  5
115
100
AcDbEntity
  8
PV
390
0
  6
CONTINUOUS
 62
     7
100
AcDbLine
 10
-87.75
 20
-166.232952
 30
0.0
 11
-87.75
 21
-186.335
 31
0.0
  0
LINE
  5
116
100
AcDbEntity
  8
PV
390
0
  6
CONTINUOUS
 62
     7
100
AcDbLine
 10
-87.75
 20
-184.049
 30
0.0
 11
-157.75
 21
-184.049
 31
0.0
  0
LINE
  5
117
100
AcDbEntity
  8
PV
390
0
  6
CONTINUOUS
 62
     7
100
AcDbLine
 10
-157.75
 20
-184.049
 30
0.0
 11
-154.98
 21
-184.049
 31
0.0
  0
LINE
  5
118
100
AcDbEntity
  8
PV
390
0
  6
CONTINUOUS
 62
     7
100
AcDbLine
 10
-157.75
 20
-184.049
 30
0.0
 11
-154.98
 21
-183.306
 31
0.0
  0
LINE
  5
119
100
AcDbEntity
  8
PV
390
0
  6
CONTINUOUS
 62
     7
100
AcDbLine
 10
-154.98
 20
-184.791
 30
0.0
 11
-157.75
 21
-184.049
 31
0.0
  0
LINE
  5
11A
100
AcDbEntity
  8
PV
390
0
  6
CONTINUOUS
 62
     7
100
AcDbLine
 10
-87.75
 20
-184.049
 30
0.0
 11
-90.52
 21
-184.049
 31
0.0
  0
LINE
  5
11B
100
AcDbEntity
  8
PV
390
0
  6
CONTINUOUS
 62
     7
100
AcDbLine
 10
-87.75
 20
-184.049
 30
0.0
 11
-90.52
 21
-184.791
 31
0.0
  0
LINE
  5
11C
100
AcDbEntity
  8
PV
390
0
  6
CONTINUOUS
 62
     7
100
AcDbLine
 10
-90.52
 20
-183.306
 30
0.0
 11
-87.75
 21
-184.049
 31
0.0
  0
MTEXT
  5
11D
100
AcDbEntity
  8
PV
390
0
  6
CONTINUOUS
 62
     7
100
AcDbMText
 10
-9.932335
 20
-65.524
 30
0.0
 40
7.0
 41
0.0
 71
     2
 72
     1
  1
\A1;186.5
 11
0.0
 21
1.0
 31
0.0
 73
     1
 44
1.0
  0
LINE
  5
11E
100
AcDbEntity
  8
PV
390
0
  6
CONTINUOUS
 62
     7
100
AcDbLine
 10
-47.148043
 20
-157.0
 30
0.0
 11
0.287
 21
-157.0
 31
0.0
  0
LINE
  5
11F
100
AcDbEntity
  8
PV
390
0
  6
CONTINUOUS
 62
     7
100
AcDbLine
 10
-38.726485
 20
29.5
 30
0.0
 11
0.287
 21
29.5
 31
0.0
  0
LINE
  5
120
100
AcDbEntity
  8
PV
390
0
  6
CONTINUOUS
 62
     7
100
AcDbLine
 10
-1.999
 20
29.5
 30
0.0
 11
-1.999
 21
-157.0
 31
0.0
  0
LINE
  5
121
100
AcDbEntity
  8
PV
390
0
  6
CONTINUOUS
 62
     7
100
AcDbLine
 10
-1.999
 20
-157.0
 30
0.0
 11
-1.999
 21
-154.23
 31
0.0
  0
LINE
  5
122
100
AcDbEntity
  8
PV
390
0
  6
CONTINUOUS
 62
     7
100
AcDbLine
 10
-1.999
 20
-157.0
 30
0.0
 11
-2.742
 21
-154.23
 31
0.0
  0
LINE
  5
123
100
AcDbEntity
  8
PV
390
0
  6
CONTINUOUS
 62
     7
100
AcDbLine
 10
-1.257
 20
-154.23
 30
0.0
 11
-1.999
 21
-157.0
 31
0.0
  0
LINE
  5
124
100
AcDbEntity
  8
PV
390
0
  6
CONTINUOUS
 62
     7
100
AcDbLine
 10
-1.999
 20
29.5
 30
0.0
 11
-1.999
 21
26.73
 31
0.0
  0
LINE
  5
125
100
AcDbEntity
  8
PV
390
0
  6
CONTINUOUS
 62
     7
100
AcDbLine
 10
-1.999
 20
29.5
 30
0.0
 11
-1.257
 21
26.73
 31
0.0
  0
LINE
  5
126
100
AcDbEntity
  8
PV
390
0
  6
CONTINUOUS
 62
     7
100
AcDbLine
 10
-2.742
 20
26.73
 30
0.0
 11
-1.999
 21
29.5
 31
0.0
  0
MTEXT
  5
127
100
AcDbEntity
  8
PV
390
0
  6
CONTINUOUS
 62
     7
100
AcDbMText
 10
-99.75
 20
177.226335
 30
0.0
 40
7.0
 41
0.0
 71
     2
 72
     1
  1
\A1;116
 73
     1
 44
1.0
  0
LINE
  5
128
100
AcDbEntity
  8
PV
390
0
  6
CONTINUOUS
 62
     7
100
AcDbLine
 10
-41.75
 20
155.609
 30
0.0
 11
-41.75
 21
170.579
 31
0.0
  0
LINE
  5
129
100
AcDbEntity
  8
PV
390
0
  6
CONTINUOUS
 62
     7
100
AcDbLine
 10
-157.75
 20
153.046
 30
0.0
 11
-157.75
 21
170.579
 31
0.0
  0
LINE
  5
12A
100
AcDbEntity
  8
PV
390
0
  6
CONTINUOUS
 62
     7
100
AcDbLine
 10
-157.75
 20
168.293
 30
0.0
 11
-41.75
 21
168.293
 31
0.0
  0
LINE
  5
12B
100
AcDbEntity
  8
PV
390
0
  6
CONTINUOUS
 62
     7
100
AcDbLine
 10
-41.75
 20
168.293
 30
0.0
 11
-44.52
 21
168.293
 31
0.0
  0
LINE
  5
12C
100
AcDbEntity
  8
PV
390
0
  6
CONTINUOUS
 62
     7
100
AcDbLine
 10
-41.75
 20
168.293
 30
0.0
 11
-44.52
 21
167.551
 31
0.0
  0
LINE
  5
12D
100
AcDbEntity
  8
PV
390
0
  6
CONTINUOUS
 62
     7
100
AcDbLine
 10
-44.52
 20
169.036
 30
0.0
 11
-41.75
 21
168.293
 31
0.0
  0
LINE
  5
12E
100
AcDbEntity
  8
PV
390
0
  6
CONTINUOUS
 62
     7
100
AcDbLine
 10
-157.75
 20
168.293
 30
0.0
 11
-154.98
 21
168.293
 31
0.0
  0
LINE
  5
12F
100
AcDbEntity
  8
PV
390
0
  6
CONTINUOUS
 62
     7
100
AcDbLine
 10
-157.75
 20
168.293
 30
0.0
 11
-154.98
 21
169.036
 31
0.0
  0
LINE
  5
130
100
AcDbEntity
  8
PV
390
0
  6
CONTINUOUS
 62
     7
100
AcDbLine
 10
-154.98
 20
167.551
 30
0.0
 11
-157.75
 21
168.293
 31
0.0
  0
MTEXT
  5
131
100
AcDbEntity
  8
PV
390
0
  6
CONTINUOUS
 62
     7
100
AcDbMText
 10
120.999665
 20
-9.0
 30
0.0
 40
7.0
 41
0.0
 71
     2
 72
     1
  1
\W0.952;\A1;39
 11
0.0
 21
1.0
 31
0.0
 73
     1
 44
1.0
  0
LINE
  5
132
100
AcDbEntity
  8
PV
390
0
  6
CONTINUOUS
 62
     7
100
AcDbLine
 10
76.79
 20
10.5
 30
0.0
 11
131.219
 21
10.5
 31
0.0
  0
LINE
  5
133
100
AcDbEntity
  8
PV
390
0
  6
CONTINUOUS
 62
     7
100
AcDbLine
 10
128.933
 20
10.5
 30
0.0
 11
128.933
 21
-28.5
 31
0.0
  0
LINE
  5
134
100
AcDbEntity
  8
PV
390
0
  6
CONTINUOUS
 62
     7
100
AcDbLine
 10
128.933
 20
-28.5
 30
0.0
 11
128.933
 21
-25.73
 31
0.0
  0
LINE
  5
135
100
AcDbEntity
  8
PV
390
0
  6
CONTINUOUS
 62
     7
100
AcDbLine
 10
128.933
 20
-28.5
 30
0.0
 11
128.19
 21
-25.73
 31
0.0
  0
LINE
  5
136
100
AcDbEntity
  8
PV
390
0
  6
CONTINUOUS
 62
     7
100
AcDbLine
 10
129.675
 20
-25.73
 30
0.0
 11
128.933
 21
-28.5
 31
0.0
  0
LINE
  5
137
100
AcDbEntity
  8
PV
390
0
  6
CONTINUOUS
 62
     7
100
AcDbLine
 10
128.933
 20
10.5
 30
0.0
 11
128.933
 21
7.73
 31
0.0
  0
LINE
  5
138
100
AcDbEntity
  8
PV
390
0
  6
CONTINUOUS
 62
     7
100
AcDbLine
 10
128.933
 20
10.5
 30
0.0
 11
129.675
 21
7.73
 31
0.0
  0
LINE
  5
139
100
AcDbEntity
  8
PV
390
0
  6
CONTINUOUS
 62
     7
100
AcDbLine
 10
128.19
 20
7.73
 30
0.0
 11
128.933
 21
10.5
 31
0.0
  0
MTEXT
  5
13A
100
AcDbEntity
  8
PV
390
0
  6
CONTINUOUS
 62
     7
100
AcDbMText
 10
120.999665
 20
-92.75
 30
0.0
 40
7.0
 41
0.0
 71
     2
 72
     1
  1
\A1;128.5
 11
0.0
 21
1.0
 31
0.0
 73
     1
 44
1.0
  0
LINE
  5
13B
100
AcDbEntity
  8
PV
390
0
  6
CONTINUOUS
 62
     7
100
AcDbLine
 10
100.841
 20
-157.0
 30
0.0
 11
131.219
 21
-157.0
 31
0.0
  0
LINE
  5
13C
100
AcDbEntity
  8
PV
390
0
  6
CONTINUOUS
 62
     7
100
AcDbLine
 10
76.79
 20
-28.5
 30
0.0
 11
131.219
 21
-28.5
 31
0.0
  0
LINE
  5
13D
100
AcDbEntity
  8
PV
390
0
  6
CONTINUOUS
 62
     7
100
AcDbLine
 10
128.933
 20
-28.5
 30
0.0
 11
128.933
 21
-157.0
 31
0.0
  0
LINE
  5
13E
100
AcDbEntity
  8
PV
390
0
  6
CONTINUOUS
 62
     7
100
AcDbLine
 10
128.933
 20
-157.0
 30
0.0
 11
128.933
 21
-154.23
 31
0.0
  0
LINE
  5
13F
100
AcDbEntity
  8
PV
390
0
  6
CONTINUOUS
 62
     7
100
AcDbLine
 10
128.933
 20
-157.0
 30
0.0
 11
128.19
 21
-154.23
 31
0.0
  0
LINE
  5
140
100
AcDbEntity
  8
PV
390
0
  6
CONTINUOUS
 62
     7
100
AcDbLine
 10
129.675
 20
-154.23
 30
0.0
 11
128.933
 21
-157.0
 31
0.0
  0
LINE
  5
141
100
AcDbEntity
  8
PV
390
0
  6
CONTINUOUS
 62
     7
100
AcDbLine
 10
128.933
 20
-28.5
 30
0.0
 11
128.933
 21
-31.27
 31
0.0
  0
LINE
  5
142
100
AcDbEntity
  8
PV
390
0
  6
CONTINUOUS
 62
     7
100
AcDbLine
 10
128.933
 20
-28.5
 30
0.0
 11
129.675
 21
-31.27
 31
0.0
  0
LINE
  5
143
100
AcDbEntity
  8
PV
390
0
  6
CONTINUOUS
 62
     7
100
AcDbLine
 10
128.19
 20
-31.27
 30
0.0
 11
128.933
 21
-28.5
 31
0.0
  0
MTEXT
  5
144
100
AcDbEntity
  8
PV
390
0
  6
CONTINUOUS
 62
     7
100
AcDbMText
 10
-23.298335
 20
-97.25
 30
0.0
 40
7.0
 41
0.0
 71
     2
 72
     1
  1
\A1;119.5
 11
0.0
 21
1.0
 31
0.0
 73
     1
 44
1.0
  0
LINE
  5
145
100
AcDbEntity
  8
PV
390
0
  6
CONTINUOUS
 62
     7
100
AcDbLine
 10
-39.21
 20
-37.5
 30
0.0
 11
-13.079
 21
-37.5
 31
0.0
  0
LINE
  5
146
100
AcDbEntity
  8
PV
390
0
  6
CONTINUOUS
 62
     7
100
AcDbLine
 10
-15.365
 20
-37.5
 30
0.0
 11
-15.365
 21
-157.0
 31
0.0
  0
LINE
  5
147
100
AcDbEntity
  8
PV
390
0
  6
CONTINUOUS
 62
     7
100
AcDbLine
 10
-15.365
 20
-157.0
 30
0.0
 11
-15.365
 21
-154.23
 31
0.0
  0
LINE
  5
148
100
AcDbEntity
  8
PV
390
0
  6
CONTINUOUS
 62
     7
100
AcDbLine
 10
-15.365
 20
-157.0
 30
0.0
 11
-16.108
 21
-154.23
 31
0.0
  0
LINE
  5
149
100
AcDbEntity
  8
PV
390
0
  6
CONTINUOUS
 62
     7
100
AcDbLine
 10
-14.623
 20
-154.23
 30
0.0
 11
-15.365
 21
-157.0
 31
0.0
  0
LINE
  5
14A
100
AcDbEntity
  8
PV
390
0
  6
CONTINUOUS
 62
     7
100
AcDbLine
 10
-15.365
 20
-37.5
 30
0.0
 11
-15.365
 21
-40.27
 31
0.0
  0
LINE
  5
14B
100
AcDbEntity
  8
PV
390
0
  6
CONTINUOUS
 62
     7
100
AcDbLine
 10
-15.365
 20
-37.5
 30
0.0
 11
-14.623
 21
-40.27
 31
0.0
  0
LINE
  5
14C
100
AcDbEntity
  8
PV
390
0
  6
CONTINUOUS
 62
     7
100
AcDbLine
 10
-16.108
 20
-40.27
 30
0.0
 11
-15.365
 21
-37.5
 31
0.0
  0
MTEXT
  5
14D
100
AcDbEntity
  8
PV
390
0
  6
CONTINUOUS
 62
     7
100
AcDbMText
 10
-23.298335
 20
-4.0
 30
0.0
 40
7.0
 41
0.0
 71
     2
 72
     1
  1
\W0.952;\A1;67
 11
0.0
 21
1.0
 31
0.0
 73
     1
 44
1.0
  0
LINE
  5
14E
100
AcDbEntity
  8
PV
390
0
  6
CONTINUOUS
 62
     7
100
AcDbLine
 10
-15.365
 20
29.5
 30
0.0
 11
-15.365
 21
-37.5
 31
0.0
  0
LINE
  5
14F
100
AcDbEntity
  8
PV
390
0
  6
CONTINUOUS
 62
     7
100
AcDbLine
 10
-15.365
 20
-37.5
 30
0.0
 11
-15.365
 21
-34.73
 31
0.0
  0
LINE
  5
150
100
AcDbEntity
  8
PV
390
0
  6
CONTINUOUS
 62
     7
100
AcDbLine
 10
-15.365
 20
-37.5
 30
0.0
 11
-16.108
 21
-34.73
 31
0.0
  0
LINE
  5
151
100
AcDbEntity
  8
PV
390
0
  6
CONTINUOUS
 62
     7
100
AcDbLine
 10
-14.623
 20
-34.73
 30
0.0
 11
-15.365
 21
-37.5
 31
0.0
  0
LINE
  5
152
100
AcDbEntity
  8
PV
390
0
  6
CONTINUOUS
 62
     7
100
AcDbLine
 10
-15.365
 20
29.5
 30
0.0
 11
-15.365
 21
26.73
 31
0.0
  0
LINE
  5
153
100
AcDbEntity
  8
PV
390
0
  6
CONTINUOUS
 62
     7
100
AcDbLine
 10
-15.365
 20
29.5
 30
0.0
 11
-14.623
 21
26.73
 31
0.0
  0
LINE
  5
154
100
AcDbEntity
  8
PV
390
0
  6
CONTINUOUS
 62
     7
100
AcDbLine
 10
-16.108
 20
26.73
 30
0.0
 11
-15.365
 21
29.5
 31
0.0
  0
MTEXT
  5
155
100
AcDbEntity
  8
PV
390
0
  6
CONTINUOUS
 62
     7
100
AcDbMText
 10
-71.506
 20
-131.306665
 30
0.0
 40
7.0
 41
0.0
 71
     2
 72
     1
  1
\T0.891;\W1.089;\A1;\U+220589
 73
     1
 44
1.0
  0
LINE
  5
156
100
AcDbEntity
  8
PV
390
0
  6
CONTINUOUS
 62
     7
100
AcDbLine
 10
-132.25
 20
-123.09
 30
0.0
 11
-132.25
 21
-142.526
 31
0.0
  0
LINE
  5
157
100
AcDbEntity
  8
PV
390
0
  6
CONTINUOUS
 62
     7
100
AcDbLine
 10
-43.25
 20
-123.04
 30
0.0
 11
-43.25
 21
-142.526
 31
0.0
  0
LINE
  5
158
100
AcDbEntity
  8
PV
390
0
  6
CONTINUOUS
 62
     7
100
AcDbLine
 10
-43.25
 20
-140.24
 30
0.0
 11
-132.25
 21
-140.24
 31
0.0
  0
LINE
  5
159
100
AcDbEntity
  8
PV
390
0
  6
CONTINUOUS
 62
     7
100
AcDbLine
 10
-132.25
 20
-140.24
 30
0.0
 11
-129.48
 21
-140.24
 31
0.0
  0
LINE
  5
15A
100
AcDbEntity
  8
PV
390
0
  6
CONTINUOUS
 62
     7
100
AcDbLine
 10
-132.25
 20
-140.24
 30
0.0
 11
-129.48
 21
-139.498
 31
0.0
  0
LINE
  5
15B
100
AcDbEntity
  8
PV
390
0
  6
CONTINUOUS
 62
     7
100
AcDbLine
 10
-129.48
 20
-140.982
 30
0.0
 11
-132.25
 21
-140.24
 31
0.0
  0
LINE
  5
15C
100
AcDbEntity
  8
PV
390
0
  6
CONTINUOUS
 62
     7
100
AcDbLine
 10
-43.25
 20
-140.24
 30
0.0
 11
-46.02
 21
-140.24
 31
0.0
  0
LINE
  5
15D
100
AcDbEntity
  8
PV
390
0
  6
CONTINUOUS
 62
     7
100
AcDbLine
 10
-43.25
 20
-140.24
 30
0.0
 11
-46.02
 21
-140.982
 31
0.0
  0
LINE
  5
15E
100
AcDbEntity
  8
PV
390
0
  6
CONTINUOUS
 62
     7
100
AcDbLine
 10
-46.02
 20
-139.498
 30
0.0
 11
-43.25
 21
-140.24
 31
0.0
  0
LINE
  5
15F
100
AcDbEntity
  8
PV
390
0
  6
CONTINUOUS
 62
     7
100
AcDbLine
 10
-55.277
 20
131.256
 30
0.0
 11
-120.223
 21
131.256
 31
0.0
  0
LINE
  5
160
100
AcDbEntity
  8
PV
390
0
  6
CONTINUOUS
 62
   254
100
AcDbLine
 10
-99.331
 20
136.251
 30
0.0
 11
-98.943
 21
136.251
 31
0.0
  0
LINE
  5
161
100
AcDbEntity
  8
PV
390
0
  6
CONTINUOUS
 62
     7
100
AcDbLine
 10
-89.245
 20
146.074
 30
0.0
 11
-89.245
 21
141.459
 31
0.0
  0
LINE
  5
162
100
AcDbEntity
  8
PV
390
0
  6
CONTINUOUS
 62
     7
100
AcDbLine
 10
-94.62
 20
144.839
 30
0.0
 11
-92.15
 21
144.839
 31
0.0
  0
LINE
  5
163
100
AcDbEntity
  8
PV
390
0
  6
CONTINUOUS
 62
     7
100
AcDbLine
 10
-94.62
 20
144.839
 30
0.0
 11
-94.62
 21
141.459
 31
0.0
  0
LINE
  5
164
100
AcDbEntity
  8
PV
390
0
  6
CONTINUOUS
 62
     7
100
AcDbLine
 10
-92.15
 20
144.839
 30
0.0
 11
-92.15
 21
141.459
 31
0.0
  0
LINE
  5
165
100
AcDbEntity
  8
PV
390
0
  6
CONTINUOUS
 62
     7
100
AcDbLine
 10
-94.62
 20
141.459
 30
0.0
 11
-92.15
 21
141.459
 31
0.0
  0
LINE
  5
166
100
AcDbEntity
  8
PV
390
0
  6
CONTINUOUS
 62
     7
100
AcDbLine
 10
-91.26
 20
146.074
 30
0.0
 11
-91.26
 21
141.459
 31
0.0
  0
LINE
  5
167
100
AcDbEntity
  8
PV
390
0
  6
CONTINUOUS
 62
     7
100
AcDbLine
 10
-91.26
 20
146.074
 30
0.0
 11
-89.245
 21
146.074
 31
0.0
  0
LINE
  5
168
100
AcDbEntity
  8
PV
390
0
  6
CONTINUOUS
 62
     7
100
AcDbLine
 10
-91.26
 20
141.459
 30
0.0
 11
-89.245
 21
141.459
 31
0.0
  0
LINE
  5
169
100
AcDbEntity
  8
PV
390
0
  6
CONTINUOUS
 62
     7
100
AcDbLine
 10
-86.937
 20
146.074
 30
0.0
 11
-86.937
 21
145.034
 31
0.0
  0
LINE
  5
16A
100
AcDbEntity
  8
PV
390
0
  6
CONTINUOUS
 62
     7
100
AcDbLine
 10
-80.729
 20
145.066
 30
0.0
 11
-80.729
 21
142.466
 31
0.0
  0
LINE
  5
16B
100
AcDbEntity
  8
PV
390
0
  6
CONTINUOUS
 62
     7
100
AcDbLine
 10
-86.937
 20
142.499
 30
0.0
 11
-86.937
 21
141.459
 31
0.0
  0
LINE
  5
16C
100
AcDbEntity
  8
PV
390
0
  6
CONTINUOUS
 62
     7
100
AcDbLine
 10
-86.937
 20
145.034
 30
0.0
 11
-86.937
 21
142.499
 31
0.0
  0
LINE
  5
16D
100
AcDbEntity
  8
PV
390
0
  6
CONTINUOUS
 62
   254
100
AcDbLine
 10
-102.492
 20
136.683
 30
0.0
 11
-101.182
 21
136.683
 31
0.0
  0
LINE
  5
16E
100
AcDbEntity
  8
PV
390
0
  6
CONTINUOUS
 62
   254
100
AcDbLine
 10
-109.332
 20
137.265
 30
0.0
 11
-108.749
 21
137.265
 31
0.0
  0
LINE
  5
16F
100
AcDbEntity
  8
PV
390
0
  6
CONTINUOUS
 62
   254
100
AcDbLine
 10
-109.332
 20
134.355
 30
0.0
 11
-108.749
 21
134.355
 31
0.0
  0
LINE
  5
170
100
AcDbEntity
  8
PV
390
0
  6
CONTINUOUS
 62
   254
100
AcDbLine
 10
-109.332
 20
137.265
 30
0.0
 11
-109.332
 21
134.355
 31
0.0
  0
LINE
  5
171
100
AcDbEntity
  8
PV
390
0
  6
CONTINUOUS
 62
   254
100
AcDbLine
 10
-108.749
 20
137.265
 30
0.0
 11
-108.749
 21
134.355
 31
0.0
  0
LINE
  5
172
100
AcDbEntity
  8
PV
390
0
  6
CONTINUOUS
 62
   254
100
AcDbLine
 10
-108.167
 20
137.265
 30
0.0
 11
-108.167
 21
136.392
 31
0.0
  0
LINE
  5
173
100
AcDbEntity
  8
PV
390
0
  6
CONTINUOUS
 62
   254
100
AcDbLine
 10
-107.585
 20
136.683
 30
0.0
 11
-107.585
 21
136.392
 31
0.0
  0
LINE
  5
174
100
AcDbEntity
  8
PV
390
0
  6
CONTINUOUS
 62
   254
100
AcDbLine
 10
-87.358
 20
137.265
 30
0.0
 11
-87.358
 21
136.683
 31
0.0
  0
LINE
  5
175
100
AcDbEntity
  8
PV
390
0
  6
CONTINUOUS
 62
   254
100
AcDbLine
 10
-107.585
 20
135.519
 30
0.0
 11
-106.783
 21
135.519
 31
0.0
  0
LINE
  5
176
100
AcDbEntity
  8
PV
390
0
  6
CONTINUOUS
 62
   254
100
AcDbLine
 10
-106.13
 20
136.683
 30
0.0
 11
-107.585
 21
136.683
 31
0.0
  0
LINE
  5
177
100
AcDbEntity
  8
PV
390
0
  6
CONTINUOUS
 62
   254
100
AcDbLine
 10
-106.13
 20
136.101
 30
0.0
 11
-107.585
 21
136.101
 31
0.0
  0
LINE
  5
178
100
AcDbEntity
  8
PV
390
0
  6
CONTINUOUS
 62
   254
100
AcDbLine
 10
-108.167
 20
134.355
 30
0.0
 11
-107.585
 21
134.355
 31
0.0
  0
LINE
  5
179
100
AcDbEntity
  8
PV
390
0
  6
CONTINUOUS
 62
   254
100
AcDbLine
 10
-108.167
 20
137.265
 30
0.0
 11
-106.13
 21
137.265
 31
0.0
  0
LINE
  5
17A
100
AcDbEntity
  8
PV
390
0
  6
CONTINUOUS
 62
   254
100
AcDbLine
 10
-107.585
 20
135.519
 30
0.0
 11
-107.585
 21
134.355
 31
0.0
  0
LINE
  5
17B
100
AcDbEntity
  8
PV
390
0
  6
CONTINUOUS
 62
   254
100
AcDbLine
 10
-105.968
 20
134.355
 30
0.0
 11
-105.257
 21
134.355
 31
0.0
  0
LINE
  5
17C
100
AcDbEntity
  8
PV
390
0
  6
CONTINUOUS
 62
   254
100
AcDbLine
 10
-104.82
 20
137.265
 30
0.0
 11
-104.238
 21
137.265
 31
0.0
  0
LINE
  5
17D
100
AcDbEntity
  8
PV
390
0
  6
CONTINUOUS
 62
   254
100
AcDbLine
 10
-104.82
 20
134.355
 30
0.0
 11
-104.238
 21
134.355
 31
0.0
  0
LINE
  5
17E
100
AcDbEntity
  8
PV
390
0
  6
CONTINUOUS
 62
   254
100
AcDbLine
 10
-104.82
 20
137.265
 30
0.0
 11
-104.82
 21
134.355
 31
0.0
  0
LINE
  5
17F
100
AcDbEntity
  8
PV
390
0
  6
CONTINUOUS
 62
   254
100
AcDbLine
 10
-104.238
 20
137.265
 30
0.0
 11
-104.238
 21
134.355
 31
0.0
  0
LINE
  5
180
100
AcDbEntity
  8
PV
390
0
  6
CONTINUOUS
 62
   254
100
AcDbLine
 10
-88.667
 20
137.265
 30
0.0
 11
-87.358
 21
137.265
 31
0.0
  0
LINE
  5
181
100
AcDbEntity
  8
PV
390
0
  6
CONTINUOUS
 62
   254
100
AcDbLine
 10
-88.667
 20
134.355
 30
0.0
 11
-87.358
 21
134.355
 31
0.0
  0
LINE
  5
182
100
AcDbEntity
  8
PV
390
0
  6
CONTINUOUS
 62
   254
100
AcDbLine
 10
-93.033
 20
137.265
 30
0.0
 11
-92.451
 21
137.265
 31
0.0
  0
LINE
  5
183
100
AcDbEntity
  8
PV
390
0
  6
CONTINUOUS
 62
   254
100
AcDbLine
 10
-93.033
 20
134.355
 30
0.0
 11
-92.451
 21
134.355
 31
0.0
  0
LINE
  5
184
100
AcDbEntity
  8
PV
390
0
  6
CONTINUOUS
 62
   254
100
AcDbLine
 10
-89.491
 20
135.519
 30
0.0
 11
-87.358
 21
135.519
 31
0.0
  0
LINE
  5
185
100
AcDbEntity
  8
PV
390
0
  6
CONTINUOUS
 62
   254
100
AcDbLine
 10
-89.491
 20
136.101
 30
0.0
 11
-87.358
 21
136.101
 31
0.0
  0
LINE
  5
186
100
AcDbEntity
  8
PV
390
0
  6
CONTINUOUS
 62
   254
100
AcDbLine
 10
-88.667
 20
134.937
 30
0.0
 11
-87.358
 21
134.937
 31
0.0
  0
LINE
  5
187
100
AcDbEntity
  8
PV
390
0
  6
CONTINUOUS
 62
   254
100
AcDbLine
 10
-88.667
 20
136.683
 30
0.0
 11
-87.358
 21
136.683
 31
0.0
  0
LINE
  5
188
100
AcDbEntity
  8
PV
390
0
  6
CONTINUOUS
 62
   254
100
AcDbLine
 10
-87.358
 20
136.101
 30
0.0
 11
-87.358
 21
135.519
 31
0.0
  0
LINE
  5
189
100
AcDbEntity
  8
PV
390
0
  6
CONTINUOUS
 62
   254
100
AcDbLine
 10
-87.358
 20
134.937
 30
0.0
 11
-87.358
 21
134.355
 31
0.0
  0
LINE
  5
18A
100
AcDbEntity
  8
PV
390
0
  6
CONTINUOUS
 62
   254
100
AcDbLine
 10
-93.033
 20
137.265
 30
0.0
 11
-93.033
 21
134.355
 31
0.0
  0
LINE
  5
18B
100
AcDbEntity
  8
PV
390
0
  6
CONTINUOUS
 62
   254
100
AcDbLine
 10
-92.451
 20
137.265
 30
0.0
 11
-92.451
 21
136.243
 31
0.0
  0
LINE
  5
18C
100
AcDbEntity
  8
PV
390
0
  6
CONTINUOUS
 62
   254
100
AcDbLine
 10
-105.257
 20
134.355
 30
0.0
 11
-106.073
 21
135.521
 31
0.0
  0
LINE
  5
18D
100
AcDbEntity
  8
PV
390
0
  6
CONTINUOUS
 62
   254
100
AcDbLine
 10
-105.968
 20
134.355
 30
0.0
 11
-106.783
 21
135.519
 31
0.0
  0
LINE
  5
18E
100
AcDbEntity
  8
PV
390
0
  6
CONTINUOUS
 62
   254
100
AcDbLine
 10
-89.977
 20
134.355
 30
0.0
 11
-91.174
 21
136.427
 31
0.0
  0
LINE
  5
18F
100
AcDbEntity
  8
PV
390
0
  6
CONTINUOUS
 62
   254
100
AcDbLine
 10
-89.977
 20
137.265
 30
0.0
 11
-91.174
 21
136.427
 31
0.0
  0
LINE
  5
190
100
AcDbEntity
  8
PV
390
0
  6
CONTINUOUS
 62
   254
100
AcDbLine
 10
-90.992
 20
137.265
 30
0.0
 11
-92.451
 21
136.243
 31
0.0
  0
LINE
  5
191
100
AcDbEntity
  8
PV
390
0
  6
CONTINUOUS
 62
   254
100
AcDbLine
 10
-90.649
 20
134.355
 30
0.0
 11
-91.652
 21
136.092
 31
0.0
  0
LINE
  5
192
100
AcDbEntity
  8
PV
390
0
  6
CONTINUOUS
 62
   254
100
AcDbLine
 10
-91.652
 20
136.092
 30
0.0
 11
-92.451
 21
135.533
 31
0.0
  0
LINE
  5
193
100
AcDbEntity
  8
PV
390
0
  6
CONTINUOUS
 62
   254
100
AcDbLine
 10
-92.451
 20
135.533
 30
0.0
 11
-92.451
 21
134.355
 31
0.0
  0
LINE
  5
194
100
AcDbEntity
  8
PV
390
0
  6
CONTINUOUS
 62
   254
100
AcDbLine
 10
-90.992
 20
137.265
 30
0.0
 11
-89.977
 21
137.265
 31
0.0
  0
LINE
  5
195
100
AcDbEntity
  8
PV
390
0
  6
CONTINUOUS
 62
   254
100
AcDbLine
 10
-90.649
 20
134.355
 30
0.0
 11
-89.977
 21
134.355
 31
0.0
  0
LINE
  5
196
100
AcDbEntity
  8
PV
390
0
  6
CONTINUOUS
 62
   254
100
AcDbLine
 10
-78.19
 20
134.355
 30
0.0
 11
-77.899
 21
134.355
 31
0.0
  0
LINE
  5
197
100
AcDbEntity
  8
PV
390
0
  6
CONTINUOUS
 62
   254
100
AcDbLine
 10
-78.19
 20
137.265
 30
0.0
 11
-77.899
 21
137.265
 31
0.0
  0
LINE
  5
198
100
AcDbEntity
  8
PV
390
0
  6
CONTINUOUS
 62
   254
100
AcDbLine
 10
-79.791
 20
134.358
 30
0.0
 11
-79.791
 21
134.937
 31
0.0
  0
LINE
  5
199
100
AcDbEntity
  8
PV
390
0
  6
CONTINUOUS
 62
   254
100
AcDbLine
 10
-78.19
 20
134.937
 30
0.0
 11
-77.899
 21
134.937
 31
0.0
  0
LINE
  5
19A
100
AcDbEntity
  8
PV
390
0
  6
CONTINUOUS
 62
   254
100
AcDbLine
 10
-78.19
 20
136.683
 30
0.0
 11
-77.899
 21
136.683
 31
0.0
  0
LINE
  5
19B
100
AcDbEntity
  8
PV
390
0
  6
CONTINUOUS
 62
   254
100
AcDbLine
 10
-99.436
 20
137.265
 30
0.0
 11
-98.854
 21
137.265
 31
0.0
  0
LINE
  5
19C
100
AcDbEntity
  8
PV
390
0
  6
CONTINUOUS
 62
   254
100
AcDbLine
 10
-99.436
 20
134.355
 30
0.0
 11
-98.854
 21
134.355
 31
0.0
  0
LINE
  5
19D
100
AcDbEntity
  8
PV
390
0
  6
CONTINUOUS
 62
   254
100
AcDbLine
 10
-99.436
 20
137.265
 30
0.0
 11
-99.436
 21
134.355
 31
0.0
  0
LINE
  5
19E
100
AcDbEntity
  8
PV
390
0
  6
CONTINUOUS
 62
   254
100
AcDbLine
 10
-98.854
 20
137.265
 30
0.0
 11
-98.854
 21
136.243
 31
0.0
  0
LINE
  5
19F
100
AcDbEntity
  8
PV
390
0
  6
CONTINUOUS
 62
   254
100
AcDbLine
 10
-96.38
 20
134.355
 30
0.0
 11
-97.577
 21
136.427
 31
0.0
  0
LINE
  5
1A0
100
AcDbEntity
  8
PV
390
0
  6
CONTINUOUS
 62
   254
100
AcDbLine
 10
-96.38
 20
137.265
 30
0.0
 11
-97.577
 21
136.427
 31
0.0
  0
LINE
  5
1A1
100
AcDbEntity
  8
PV
390
0
  6
CONTINUOUS
 62
   254
100
AcDbLine
 10
-97.395
 20
137.265
 30
0.0
 11
-98.854
 21
136.243
 31
0.0
  0
LINE
  5
1A2
100
AcDbEntity
  8
PV
390
0
  6
CONTINUOUS
 62
   254
100
AcDbLine
 10
-97.052
 20
134.355
 30
0.0
 11
-98.055
 21
136.092
 31
0.0
  0
LINE
  5
1A3
100
AcDbEntity
  8
PV
390
0
  6
CONTINUOUS
 62
   254
100
AcDbLine
 10
-98.055
 20
136.092
 30
0.0
 11
-98.854
 21
135.533
 31
0.0
  0
LINE
  5
1A4
100
AcDbEntity
  8
PV
390
0
  6
CONTINUOUS
 62
   254
100
AcDbLine
 10
-98.854
 20
135.533
 30
0.0
 11
-98.854
 21
134.355
 31
0.0
  0
LINE
  5
1A5
100
AcDbEntity
  8
PV
390
0
  6
CONTINUOUS
 62
   254
100
AcDbLine
 10
-97.395
 20
137.265
 30
0.0
 11
-96.38
 21
137.265
 31
0.0
  0
LINE
  5
1A6
100
AcDbEntity
  8
PV
390
0
  6
CONTINUOUS
 62
   254
100
AcDbLine
 10
-97.052
 20
134.355
 30
0.0
 11
-96.38
 21
134.355
 31
0.0
  0
LINE
  5
1A7
100
AcDbEntity
  8
PV
390
0
  6
CONTINUOUS
 62
   254
100
AcDbLine
 10
-101.182
 20
137.265
 30
0.0
 11
-101.182
 21
136.683
 31
0.0
  0
LINE
  5
1A8
100
AcDbEntity
  8
PV
390
0
  6
CONTINUOUS
 62
   254
100
AcDbLine
 10
-102.492
 20
137.265
 30
0.0
 11
-101.182
 21
137.265
 31
0.0
  0
LINE
  5
1A9
100
AcDbEntity
  8
PV
390
0
  6
CONTINUOUS
 62
   254
100
AcDbLine
 10
-102.492
 20
134.355
 30
0.0
 11
-101.182
 21
134.355
 31
0.0
  0
LINE
  5
1AA
100
AcDbEntity
  8
PV
390
0
  6
CONTINUOUS
 62
   254
100
AcDbLine
 10
-103.315
 20
135.519
 30
0.0
 11
-101.182
 21
135.519
 31
0.0
  0
LINE
  5
1AB
100
AcDbEntity
  8
PV
390
0
  6
CONTINUOUS
 62
   254
100
AcDbLine
 10
-103.315
 20
136.101
 30
0.0
 11
-101.182
 21
136.101
 31
0.0
  0
LINE
  5
1AC
100
AcDbEntity
  8
PV
390
0
  6
CONTINUOUS
 62
   254
100
AcDbLine
 10
-102.492
 20
134.937
 30
0.0
 11
-101.182
 21
134.937
 31
0.0
  0
LINE
  5
1AD
100
AcDbEntity
  8
PV
390
0
  6
CONTINUOUS
 62
   254
100
AcDbLine
 10
-101.182
 20
136.101
 30
0.0
 11
-101.182
 21
135.519
 31
0.0
  0
LINE
  5
1AE
100
AcDbEntity
  8
PV
390
0
  6
CONTINUOUS
 62
   254
100
AcDbLine
 10
-101.182
 20
134.937
 30
0.0
 11
-101.182
 21
134.355
 31
0.0
  0
LINE
  5
1AF
100
AcDbEntity
  8
PV
390
0
  6
CONTINUOUS
 62
   254
100
AcDbLine
 10
-81.246
 20
134.355
 30
0.0
 11
-79.79
 21
134.355
 31
0.0
  0
LINE
  5
1B0
100
AcDbEntity
  8
PV
390
0
  6
CONTINUOUS
 62
   254
100
AcDbLine
 10
-81.246
 20
137.265
 30
0.0
 11
-79.79
 21
137.265
 31
0.0
  0
LINE
  5
1B1
100
AcDbEntity
  8
PV
390
0
  6
CONTINUOUS
 62
   254
100
AcDbLine
 10
-81.246
 20
134.937
 30
0.0
 11
-79.79
 21
134.937
 31
0.0
  0
LINE
  5
1B2
100
AcDbEntity
  8
PV
390
0
  6
CONTINUOUS
 62
   254
100
AcDbLine
 10
-81.246
 20
136.683
 30
0.0
 11
-79.79
 21
136.683
 31
0.0
  0
LINE
  5
1B3
100
AcDbEntity
  8
PV
390
0
  6
CONTINUOUS
 62
   254
100
AcDbLine
 10
-79.791
 20
136.683
 30
0.0
 11
-79.791
 21
137.265
 31
0.0
  0
LINE
  5
1B4
100
AcDbEntity
  8
PV
390
0
  6
CONTINUOUS
 62
   254
100
AcDbLine
 10
-73.388
 20
134.355
 30
0.0
 11
-71.932
 21
134.355
 31
0.0
  0
LINE
  5
1B5
100
AcDbEntity
  8
PV
390
0
  6
CONTINUOUS
 62
   254
100
AcDbLine
 10
-86.918
 20
134.355
 30
0.0
 11
-86.339
 21
134.355
 31
0.0
  0
LINE
  5
1B6
100
AcDbEntity
  8
PV
390
0
  6
CONTINUOUS
 62
   254
100
AcDbLine
 10
-85.611
 20
137.265
 30
0.0
 11
-85.32
 21
137.265
 31
0.0
  0
LINE
  5
1B7
100
AcDbEntity
  8
PV
390
0
  6
CONTINUOUS
 62
   254
100
AcDbLine
 10
-86.921
 20
135.955
 30
0.0
 11
-86.921
 21
134.355
 31
0.0
  0
LINE
  5
1B8
100
AcDbEntity
  8
PV
390
0
  6
CONTINUOUS
 62
   254
100
AcDbLine
 10
-84.011
 20
135.955
 30
0.0
 11
-84.011
 21
134.355
 31
0.0
  0
LINE
  5
1B9
100
AcDbEntity
  8
PV
390
0
  6
CONTINUOUS
 62
   254
100
AcDbLine
 10
-85.611
 20
136.683
 30
0.0
 11
-85.32
 21
136.683
 31
0.0
  0
LINE
  5
1BA
100
AcDbEntity
  8
PV
390
0
  6
CONTINUOUS
 62
   254
100
AcDbLine
 10
-86.339
 20
135.955
 30
0.0
 11
-86.339
 21
134.355
 31
0.0
  0
LINE
  5
1BB
100
AcDbEntity
  8
PV
390
0
  6
CONTINUOUS
 62
   254
100
AcDbLine
 10
-84.593
 20
135.955
 30
0.0
 11
-84.593
 21
134.355
 31
0.0
  0
LINE
  5
1BC
100
AcDbEntity
  8
PV
390
0
  6
CONTINUOUS
 62
   254
100
AcDbLine
 10
-84.593
 20
134.355
 30
0.0
 11
-84.011
 21
134.355
 31
0.0
  0
LINE
  5
1BD
100
AcDbEntity
  8
PV
390
0
  6
CONTINUOUS
 62
   254
100
AcDbLine
 10
-95.07
 20
134.355
 30
0.0
 11
-94.779
 21
134.355
 31
0.0
  0
LINE
  5
1BE
100
AcDbEntity
  8
PV
390
0
  6
CONTINUOUS
 62
   254
100
AcDbLine
 10
-95.07
 20
137.265
 30
0.0
 11
-94.779
 21
137.265
 31
0.0
  0
LINE
  5
1BF
100
AcDbEntity
  8
PV
390
0
  6
CONTINUOUS
 62
   254
100
AcDbLine
 10
-95.07
 20
134.937
 30
0.0
 11
-94.779
 21
134.937
 31
0.0
  0
LINE
  5
1C0
100
AcDbEntity
  8
PV
390
0
  6
CONTINUOUS
 62
   254
100
AcDbLine
 10
-75.418
 20
133.918
 30
0.0
 11
-74.942
 21
134.485
 31
0.0
  0
LINE
  5
1C1
100
AcDbEntity
  8
PV
390
0
  6
CONTINUOUS
 62
   254
100
AcDbLine
 10
-75.641
 20
134.105
 30
0.0
 11
-75.394
 21
134.399
 31
0.0
  0
LINE
  5
1C2
100
AcDbEntity
  8
PV
390
0
  6
CONTINUOUS
 62
   254
100
AcDbLine
 10
-75.641
 20
134.105
 30
0.0
 11
-75.418
 21
133.918
 31
0.0
  0
LINE
  5
1C3
100
AcDbEntity
  8
PV
390
0
  6
CONTINUOUS
 62
   254
100
AcDbLine
 10
-74.552
 20
137.265
 30
0.0
 11
-74.552
 21
135.519
 31
0.0
  0
LINE
  5
1C4
100
AcDbEntity
  8
PV
390
0
  6
CONTINUOUS
 62
   254
100
AcDbLine
 10
-71.932
 20
134.937
 30
0.0
 11
-71.932
 21
134.355
 31
0.0
  0
LINE
  5
1C5
100
AcDbEntity
  8
PV
390
0
  6
CONTINUOUS
 62
   254
100
AcDbLine
 10
-73.97
 20
137.265
 30
0.0
 11
-73.97
 21
135.519
 31
0.0
  0
LINE
  5
1C6
100
AcDbEntity
  8
PV
390
0
  6
CONTINUOUS
 62
   254
100
AcDbLine
 10
-73.388
 20
134.937
 30
0.0
 11
-71.932
 21
134.937
 31
0.0
  0
LINE
  5
1C7
100
AcDbEntity
  8
PV
390
0
  6
CONTINUOUS
 62
   254
100
AcDbLine
 10
-69.022
 20
134.355
 30
0.0
 11
-67.421
 21
134.355
 31
0.0
  0
LINE
  5
1C8
100
AcDbEntity
  8
PV
390
0
  6
CONTINUOUS
 62
   254
100
AcDbLine
 10
-74.552
 20
137.265
 30
0.0
 11
-73.97
 21
137.265
 31
0.0
  0
LINE
  5
1C9
100
AcDbEntity
  8
PV
390
0
  6
CONTINUOUS
 62
   254
100
AcDbLine
 10
-72.223
 20
137.265
 30
0.0
 11
-69.313
 21
137.265
 31
0.0
  0
LINE
  5
1CA
100
AcDbEntity
  8
PV
390
0
  6
CONTINUOUS
 62
   254
100
AcDbLine
 10
-72.223
 20
137.265
 30
0.0
 11
-72.223
 21
136.683
 31
0.0
  0
LINE
  5
1CB
100
AcDbEntity
  8
PV
390
0
  6
CONTINUOUS
 62
   254
100
AcDbLine
 10
-69.313
 20
137.265
 30
0.0
 11
-69.313
 21
136.683
 31
0.0
  0
LINE
  5
1CC
100
AcDbEntity
  8
PV
390
0
  6
CONTINUOUS
 62
   254
100
AcDbLine
 10
-72.223
 20
136.683
 30
0.0
 11
-71.059
 21
136.683
 31
0.0
  0
LINE
  5
1CD
100
AcDbEntity
  8
PV
390
0
  6
CONTINUOUS
 62
   254
100
AcDbLine
 10
-70.477
 20
136.683
 30
0.0
 11
-70.477
 21
134.355
 31
0.0
  0
LINE
  5
1CE
100
AcDbEntity
  8
PV
390
0
  6
CONTINUOUS
 62
   254
100
AcDbLine
 10
-71.059
 20
136.683
 30
0.0
 11
-71.059
 21
134.355
 31
0.0
  0
LINE
  5
1CF
100
AcDbEntity
  8
PV
390
0
  6
CONTINUOUS
 62
   254
100
AcDbLine
 10
-68.44
 20
136.683
 30
0.0
 11
-67.421
 21
136.683
 31
0.0
  0
LINE
  5
1D0
100
AcDbEntity
  8
PV
390
0
  6
CONTINUOUS
 62
   254
100
AcDbLine
 10
-69.022
 20
137.265
 30
0.0
 11
-67.421
 21
137.265
 31
0.0
  0
LINE
  5
1D1
100
AcDbEntity
  8
PV
390
0
  6
CONTINUOUS
 62
   254
100
AcDbLine
 10
-70.477
 20
136.683
 30
0.0
 11
-69.313
 21
136.683
 31
0.0
  0
LINE
  5
1D2
100
AcDbEntity
  8
PV
390
0
  6
CONTINUOUS
 62
   254
100
AcDbLine
 10
-71.059
 20
134.355
 30
0.0
 11
-70.477
 21
134.355
 31
0.0
  0
LINE
  5
1D3
100
AcDbEntity
  8
PV
390
0
  6
CONTINUOUS
 62
   254
100
AcDbLine
 10
-69.022
 20
137.265
 30
0.0
 11
-69.022
 21
135.81
 31
0.0
  0
LINE
  5
1D4
100
AcDbEntity
  8
PV
390
0
  6
CONTINUOUS
 62
   254
100
AcDbLine
 10
-68.44
 20
134.937
 30
0.0
 11
-67.421
 21
134.937
 31
0.0
  0
LINE
  5
1D5
100
AcDbEntity
  8
PV
390
0
  6
CONTINUOUS
 62
   254
100
AcDbLine
 10
-68.44
 20
136.683
 30
0.0
 11
-68.44
 21
135.81
 31
0.0
  0
LINE
  5
1D6
100
AcDbEntity
  8
PV
390
0
  6
CONTINUOUS
 62
   254
100
AcDbLine
 10
-108.167
 20
136.392
 30
0.0
 11
-108.167
 21
134.355
 31
0.0
  0
LINE
  5
1D7
100
AcDbEntity
  8
PV
390
0
  6
CONTINUOUS
 62
   254
100
AcDbLine
 10
-107.585
 20
136.392
 30
0.0
 11
-107.585
 21
136.101
 31
0.0
  0
LINE
  5
1D8
100
AcDbEntity
  8
PV
390
0
  6
CONTINUOUS
 62
   254
100
AcDbLine
 10
-69.022
 20
135.81
 30
0.0
 11
-69.022
 21
134.355
 31
0.0
  0
LINE
  5
1D9
100
AcDbEntity
  8
PV
390
0
  6
CONTINUOUS
 62
   254
100
AcDbLine
 10
-68.44
 20
135.81
 30
0.0
 11
-68.44
 21
134.937
 31
0.0
  0
LINE
  5
1DA
100
AcDbEntity
  8
PV
390
0
  6
CONTINUOUS
 62
   254
100
AcDbLine
 10
-95.07
 20
136.683
 30
0.0
 11
-94.779
 21
136.683
 31
0.0
  0
LINE
  5
1DB
100
AcDbEntity
  8
PV
390
0
  6
CONTINUOUS
 62
     7
100
AcDbLine
 10
-113.049
 20
115.952
 30
0.0
 11
-112.488
 21
115.952
 31
0.0
  0
LINE
  5
1DC
100
AcDbEntity
  8
PV
390
0
  6
CONTINUOUS
 62
     7
100
AcDbLine
 10
-112.111
 20
121.272
 30
0.0
 11
-111.637
 21
121.272
 31
0.0
  0
LINE
  5
1DD
100
AcDbEntity
  8
PV
390
0
  6
CONTINUOUS
 62
     7
100
AcDbLine
 10
-109.431
 20
115.952
 30
0.0
 11
-108.493
 21
121.272
 31
0.0
  0
LINE
  5
1DE
100
AcDbEntity
  8
PV
390
0
  6
CONTINUOUS
 62
     7
100
AcDbLine
 10
-109.799
 20
116.942
 30
0.0
 11
-109.035
 21
121.272
 31
0.0
  0
LINE
  5
1DF
100
AcDbEntity
  8
PV
390
0
  6
CONTINUOUS
 62
     7
100
AcDbLine
 10
-112.488
 20
115.952
 30
0.0
 11
-111.754
 21
120.115
 31
0.0
  0
LINE
  5
1E0
100
AcDbEntity
  8
PV
390
0
  6
CONTINUOUS
 62
     7
100
AcDbLine
 10
-113.049
 20
115.952
 30
0.0
 11
-112.111
 21
121.272
 31
0.0
  0
LINE
  5
1E1
100
AcDbEntity
  8
PV
390
0
  6
CONTINUOUS
 62
     7
100
AcDbLine
 10
-111.754
 20
120.115
 30
0.0
 11
-109.987
 21
115.952
 31
0.0
  0
LINE
  5
1E2
100
AcDbEntity
  8
PV
390
0
  6
CONTINUOUS
 62
     7
100
AcDbLine
 10
-111.637
 20
121.272
 30
0.0
 11
-109.799
 21
116.942
 31
0.0
  0
LINE
  5
1E3
100
AcDbEntity
  8
PV
390
0
  6
CONTINUOUS
 62
     7
100
AcDbLine
 10
-109.987
 20
115.952
 30
0.0
 11
-109.431
 21
115.952
 31
0.0
  0
LINE
  5
1E4
100
AcDbEntity
  8
PV
390
0
  6
CONTINUOUS
 62
     7
100
AcDbLine
 10
-109.035
 20
121.272
 30
0.0
 11
-108.493
 21
121.272
 31
0.0
  0
LINE
  5
1E5
100
AcDbEntity
  8
PV
390
0
  6
CONTINUOUS
 62
     7
100
AcDbLine
 10
-103.69
 20
118.612
 30
0.0
 11
-102.079
 21
118.612
 31
0.0
  0
LINE
  5
1E6
100
AcDbEntity
  8
PV
390
0
  6
CONTINUOUS
 62
     7
100
AcDbLine
 10
-102.722
 20
119.378
 30
0.0
 11
-102.195
 21
119.57
 31
0.0
  0
LINE
  5
1E7
100
AcDbEntity
  8
PV
390
0
  6
CONTINUOUS
 62
     7
100
AcDbLine
 10
-103.784
 20
118.08
 30
0.0
 11
-103.69
 21
118.612
 31
0.0
  0
LINE
  5
1E8
100
AcDbEntity
  8
PV
390
0
  6
CONTINUOUS
 62
     7
100
AcDbLine
 10
-103.784
 20
118.08
 30
0.0
 11
-102.725
 21
118.08
 31
0.0
  0
LINE
  5
1E9
100
AcDbEntity
  8
PV
390
0
  6
CONTINUOUS
 62
     7
100
AcDbLine
 10
-119.392
 20
115.952
 30
0.0
 11
-118.826
 21
115.952
 31
0.0
  0
LINE
  5
1EA
100
AcDbEntity
  8
PV
390
0
  6
CONTINUOUS
 62
     7
100
AcDbLine
 10
-117.455
 20
121.272
 30
0.0
 11
-116.875
 21
121.272
 31
0.0
  0
LINE
  5
1EB
100
AcDbEntity
  8
PV
390
0
  6
CONTINUOUS
 62
     7
100
AcDbLine
 10
-119.392
 20
115.952
 30
0.0
 11
-117.455
 21
121.272
 31
0.0
  0
LINE
  5
1EC
100
AcDbEntity
  8
PV
390
0
  6
CONTINUOUS
 62
     7
100
AcDbLine
 10
-118.826
 20
115.952
 30
0.0
 11
-118.415
 21
117.081
 31
0.0
  0
LINE
  5
1ED
100
AcDbEntity
  8
PV
390
0
  6
CONTINUOUS
 62
     7
100
AcDbLine
 10
-116.875
 20
121.272
 30
0.0
 11
-115.45
 21
115.952
 31
0.0
  0
LINE
  5
1EE
100
AcDbEntity
  8
PV
390
0
  6
CONTINUOUS
 62
     7
100
AcDbLine
 10
-117.199
 20
120.422
 30
0.0
 11
-116.452
 21
117.635
 31
0.0
  0
LINE
  5
1EF
100
AcDbEntity
  8
PV
390
0
  6
CONTINUOUS
 62
     7
100
AcDbLine
 10
-116.001
 20
115.952
 30
0.0
 11
-115.45
 21
115.952
 31
0.0
  0
LINE
  5
1F0
100
AcDbEntity
  8
PV
390
0
  6
CONTINUOUS
 62
     7
100
AcDbLine
 10
-118.415
 20
117.081
 30
0.0
 11
-116.303
 21
117.081
 31
0.0
  0
LINE
  5
1F1
100
AcDbEntity
  8
PV
390
0
  6
CONTINUOUS
 62
     7
100
AcDbLine
 10
-118.213
 20
117.635
 30
0.0
 11
-116.452
 21
117.635
 31
0.0
  0
LINE
  5
1F2
100
AcDbEntity
  8
PV
390
0
  6
CONTINUOUS
 62
     7
100
AcDbLine
 10
-118.213
 20
117.635
 30
0.0
 11
-117.199
 21
120.422
 31
0.0
  0
LINE
  5
1F3
100
AcDbEntity
  8
PV
390
0
  6
CONTINUOUS
 62
     7
100
AcDbLine
 10
-116.303
 20
117.081
 30
0.0
 11
-116.001
 21
115.952
 31
0.0
  0
LINE
  5
1F4
100
AcDbEntity
  8
PV
390
0
  6
CONTINUOUS
 62
     7
100
AcDbLine
 10
-100.104
 20
115.952
 30
0.0
 11
-97.222
 21
115.952
 31
0.0
  0
LINE
  5
1F5
100
AcDbEntity
  8
PV
390
0
  6
CONTINUOUS
 62
     7
100
AcDbLine
 10
-99.166
 20
121.272
 30
0.0
 11
-98.612
 21
121.272
 31
0.0
  0
LINE
  5
1F6
100
AcDbEntity
  8
PV
390
0
  6
CONTINUOUS
 62
     7
100
AcDbLine
 10
-97.222
 20
115.952
 30
0.0
 11
-97.122
 21
116.518
 31
0.0
  0
LINE
  5
1F7
100
AcDbEntity
  8
PV
390
0
  6
CONTINUOUS
 62
     7
100
AcDbLine
 10
-100.104
 20
115.952
 30
0.0
 11
-99.166
 21
121.272
 31
0.0
  0
LINE
  5
1F8
100
AcDbEntity
  8
PV
390
0
  6
CONTINUOUS
 62
     7
100
AcDbLine
 10
-99.45
 20
116.518
 30
0.0
 11
-98.612
 21
121.272
 31
0.0
  0
LINE
  5
1F9
100
AcDbEntity
  8
PV
390
0
  6
CONTINUOUS
 62
     7
100
AcDbLine
 10
-99.45
 20
116.518
 30
0.0
 11
-97.122
 21
116.518
 31
0.0
  0
LINE
  5
1FA
100
AcDbEntity
  8
PV
390
0
  6
CONTINUOUS
 62
     7
100
AcDbLine
 10
-93.786
 20
121.272
 30
0.0
 11
-91.297
 21
121.272
 31
0.0
  0
LINE
  5
1FB
100
AcDbEntity
  8
PV
390
0
  6
CONTINUOUS
 62
     7
100
AcDbLine
 10
-94.724
 20
115.952
 30
0.0
 11
-92.235
 21
115.952
 31
0.0
  0
LINE
  5
1FC
100
AcDbEntity
  8
PV
390
0
  6
CONTINUOUS
 62
     7
100
AcDbLine
 10
-94.724
 20
115.952
 30
0.0
 11
-93.786
 21
121.272
 31
0.0
  0
LINE
  5
1FD
100
AcDbEntity
  8
PV
390
0
  6
CONTINUOUS
 62
     7
100
AcDbLine
 10
-92.235
 20
115.952
 30
0.0
 11
-92.14
 21
116.494
 31
0.0
  0
LINE
  5
1FE
100
AcDbEntity
  8
PV
390
0
  6
CONTINUOUS
 62
     7
100
AcDbLine
 10
-93.759
 20
118.325
 30
0.0
 11
-91.817
 21
118.325
 31
0.0
  0
LINE
  5
1FF
100
AcDbEntity
  8
PV
390
0
  6
CONTINUOUS
 62
     7
100
AcDbLine
 10
-93.662
 20
118.874
 30
0.0
 11
-91.72
 21
118.874
 31
0.0
  0
LINE
  5
200
100
AcDbEntity
  8
PV
390
0
  6
CONTINUOUS
 62
     7
100
AcDbLine
 10
-93.342
 20
120.687
 30
0.0
 11
-91.4
 21
120.687
 31
0.0
  0
LINE
  5
201
100
AcDbEntity
  8
PV
390
0
  6
CONTINUOUS
 62
     7
100
AcDbLine
 10
-94.081
 20
116.494
 30
0.0
 11
-92.14
 21
116.494
 31
0.0
  0
LINE
  5
202
100
AcDbEntity
  8
PV
390
0
  6
CONTINUOUS
 62
     7
100
AcDbLine
 10
-94.081
 20
116.494
 30
0.0
 11
-93.759
 21
118.325
 31
0.0
  0
LINE
  5
203
100
AcDbEntity
  8
PV
390
0
  6
CONTINUOUS
 62
     7
100
AcDbLine
 10
-91.817
 20
118.325
 30
0.0
 11
-91.72
 21
118.874
 31
0.0
  0
LINE
  5
204
100
AcDbEntity
  8
PV
390
0
  6
CONTINUOUS
 62
     7
100
AcDbLine
 10
-91.4
 20
120.687
 30
0.0
 11
-91.297
 21
121.272
 31
0.0
  0
LINE
  5
205
100
AcDbEntity
  8
PV
390
0
  6
CONTINUOUS
 62
     7
100
AcDbLine
 10
-93.662
 20
118.874
 30
0.0
 11
-93.342
 21
120.687
 31
0.0
  0
LINE
  5
206
100
AcDbEntity
  8
PV
390
0
  6
CONTINUOUS
 62
     7
100
AcDbLine
 10
-81.172
 20
115.952
 30
0.0
 11
-80.606
 21
115.952
 31
0.0
  0
LINE
  5
207
100
AcDbEntity
  8
PV
390
0
  6
CONTINUOUS
 62
     7
100
AcDbLine
 10
-79.235
 20
121.272
 30
0.0
 11
-78.655
 21
121.272
 31
0.0
  0
LINE
  5
208
100
AcDbEntity
  8
PV
390
0
  6
CONTINUOUS
 62
     7
100
AcDbLine
 10
-81.172
 20
115.952
 30
0.0
 11
-79.235
 21
121.272
 31
0.0
  0
LINE
  5
209
100
AcDbEntity
  8
PV
390
0
  6
CONTINUOUS
 62
     7
100
AcDbLine
 10
-80.606
 20
115.952
 30
0.0
 11
-80.195
 21
117.081
 31
0.0
  0
LINE
  5
20A
100
AcDbEntity
  8
PV
390
0
  6
CONTINUOUS
 62
     7
100
AcDbLine
 10
-78.655
 20
121.272
 30
0.0
 11
-77.23
 21
115.952
 31
0.0
  0
LINE
  5
20B
100
AcDbEntity
  8
PV
390
0
  6
CONTINUOUS
 62
     7
100
AcDbLine
 10
-78.979
 20
120.422
 30
0.0
 11
-78.232
 21
117.635
 31
0.0
  0
LINE
  5
20C
100
AcDbEntity
  8
PV
390
0
  6
CONTINUOUS
 62
     7
100
AcDbLine
 10
-77.781
 20
115.952
 30
0.0
 11
-77.23
 21
115.952
 31
0.0
  0
LINE
  5
20D
100
AcDbEntity
  8
PV
390
0
  6
CONTINUOUS
 62
     7
100
AcDbLine
 10
-80.195
 20
117.081
 30
0.0
 11
-78.083
 21
117.081
 31
0.0
  0
LINE
  5
20E
100
AcDbEntity
  8
PV
390
0
  6
CONTINUOUS
 62
     7
100
AcDbLine
 10
-79.993
 20
117.635
 30
0.0
 11
-78.232
 21
117.635
 31
0.0
  0
LINE
  5
20F
100
AcDbEntity
  8
PV
390
0
  6
CONTINUOUS
 62
     7
100
AcDbLine
 10
-79.993
 20
117.635
 30
0.0
 11
-78.979
 21
120.422
 31
0.0
  0
LINE
  5
210
100
AcDbEntity
  8
PV
390
0
  6
CONTINUOUS
 62
     7
100
AcDbLine
 10
-78.083
 20
117.081
 30
0.0
 11
-77.781
 21
115.952
 31
0.0
  0
LINE
  5
211
100
AcDbEntity
  8
PV
390
0
  6
CONTINUOUS
 62
     7
100
AcDbLine
 10
-75.184
 20
115.952
 30
0.0
 11
-72.302
 21
115.952
 31
0.0
  0
LINE
  5
212
100
AcDbEntity
  8
PV
390
0
  6
CONTINUOUS
 62
     7
100
AcDbLine
 10
-74.246
 20
121.272
 30
0.0
 11
-73.692
 21
121.272
 31
0.0
  0
LINE
  5
213
100
AcDbEntity
  8
PV
390
0
  6
CONTINUOUS
 62
     7
100
AcDbLine
 10
-63.966
 20
121.272
 30
0.0
 11
-61.477
 21
121.272
 31
0.0
  0
LINE
  5
214
100
AcDbEntity
  8
PV
390
0
  6
CONTINUOUS
 62
     7
100
AcDbLine
 10
-64.904
 20
115.952
 30
0.0
 11
-62.415
 21
115.952
 31
0.0
  0
LINE
  5
215
100
AcDbEntity
  8
PV
390
0
  6
CONTINUOUS
 62
     7
100
AcDbLine
 10
-72.302
 20
115.952
 30
0.0
 11
-72.202
 21
116.518
 31
0.0
  0
LINE
  5
216
100
AcDbEntity
  8
PV
390
0
  6
CONTINUOUS
 62
     7
100
AcDbLine
 10
-75.184
 20
115.952
 30
0.0
 11
-74.246
 21
121.272
 31
0.0
  0
LINE
  5
217
100
AcDbEntity
  8
PV
390
0
  6
CONTINUOUS
 62
     7
100
AcDbLine
 10
-74.53
 20
116.518
 30
0.0
 11
-73.692
 21
121.272
 31
0.0
  0
LINE
  5
218
100
AcDbEntity
  8
PV
390
0
  6
CONTINUOUS
 62
     7
100
AcDbLine
 10
-74.53
 20
116.518
 30
0.0
 11
-72.202
 21
116.518
 31
0.0
  0
LINE
  5
219
100
AcDbEntity
  8
PV
390
0
  6
CONTINUOUS
 62
     7
100
AcDbLine
 10
-64.904
 20
115.952
 30
0.0
 11
-63.966
 21
121.272
 31
0.0
  0
LINE
  5
21A
100
AcDbEntity
  8
PV
390
0
  6
CONTINUOUS
 62
     7
100
AcDbLine
 10
-62.415
 20
115.952
 30
0.0
 11
-62.32
 21
116.494
 31
0.0
  0
LINE
  5
21B
100
AcDbEntity
  8
PV
390
0
  6
CONTINUOUS
 62
     7
100
AcDbLine
 10
-63.939
 20
118.325
 30
0.0
 11
-61.997
 21
118.325
 31
0.0
  0
LINE
  5
21C
100
AcDbEntity
  8
PV
390
0
  6
CONTINUOUS
 62
     7
100
AcDbLine
 10
-63.842
 20
118.874
 30
0.0
 11
-61.9
 21
118.874
 31
0.0
  0
LINE
  5
21D
100
AcDbEntity
  8
PV
390
0
  6
CONTINUOUS
 62
     7
100
AcDbLine
 10
-63.522
 20
120.687
 30
0.0
 11
-61.58
 21
120.687
 31
0.0
  0
LINE
  5
21E
100
AcDbEntity
  8
PV
390
0
  6
CONTINUOUS
 62
     7
100
AcDbLine
 10
-64.261
 20
116.494
 30
0.0
 11
-62.32
 21
116.494
 31
0.0
  0
LINE
  5
21F
100
AcDbEntity
  8
PV
390
0
  6
CONTINUOUS
 62
     7
100
AcDbLine
 10
-64.261
 20
116.494
 30
0.0
 11
-63.939
 21
118.325
 31
0.0
  0
LINE
  5
220
100
AcDbEntity
  8
PV
390
0
  6
CONTINUOUS
 62
     7
100
AcDbLine
 10
-61.997
 20
118.325
 30
0.0
 11
-61.9
 21
118.874
 31
0.0
  0
LINE
  5
221
100
AcDbEntity
  8
PV
390
0
  6
CONTINUOUS
 62
     7
100
AcDbLine
 10
-61.58
 20
120.687
 30
0.0
 11
-61.477
 21
121.272
 31
0.0
  0
LINE
  5
222
100
AcDbEntity
  8
PV
390
0
  6
CONTINUOUS
 62
     7
100
AcDbLine
 10
-63.842
 20
118.874
 30
0.0
 11
-63.522
 21
120.687
 31
0.0
  0
LINE
  5
223
100
AcDbEntity
  8
PV
390
0
  6
CONTINUOUS
 62
     7
100
AcDbLine
 10
-69.306
 20
115.952
 30
0.0
 11
-68.629
 21
115.952
 31
0.0
  0
LINE
  5
224
100
AcDbEntity
  8
PV
390
0
  6
CONTINUOUS
 62
     7
100
AcDbLine
 10
-70.244
 20
121.272
 30
0.0
 11
-69.69
 21
121.272
 31
0.0
  0
LINE
  5
225
100
AcDbEntity
  8
PV
390
0
  6
CONTINUOUS
 62
     7
100
AcDbLine
 10
-68.629
 20
115.952
 30
0.0
 11
-66.693
 21
121.272
 31
0.0
  0
LINE
  5
226
100
AcDbEntity
  8
PV
390
0
  6
CONTINUOUS
 62
     7
100
AcDbLine
 10
-68.9
 20
116.789
 30
0.0
 11
-67.268
 21
121.272
 31
0.0
  0
LINE
  5
227
100
AcDbEntity
  8
PV
390
0
  6
CONTINUOUS
 62
     7
100
AcDbLine
 10
-69.69
 20
121.272
 30
0.0
 11
-68.9
 21
116.789
 31
0.0
  0
LINE
  5
228
100
AcDbEntity
  8
PV
390
0
  6
CONTINUOUS
 62
     7
100
AcDbLine
 10
-70.244
 20
121.272
 30
0.0
 11
-69.306
 21
115.952
 31
0.0
  0
LINE
  5
229
100
AcDbEntity
  8
PV
390
0
  6
CONTINUOUS
 62
     7
100
AcDbLine
 10
-67.268
 20
121.272
 30
0.0
 11
-66.693
 21
121.272
 31
0.0
  0
LINE
  5
22A
100
AcDbEntity
  8
PV
390
0
  6
CONTINUOUS
 62
     7
100
AcDbLine
 10
-85.056
 20
115.952
 30
0.0
 11
-84.379
 21
115.952
 31
0.0
  0
LINE
  5
22B
100
AcDbEntity
  8
PV
390
0
  6
CONTINUOUS
 62
     7
100
AcDbLine
 10
-85.994
 20
121.272
 30
0.0
 11
-85.44
 21
121.272
 31
0.0
  0
LINE
  5
22C
100
AcDbEntity
  8
PV
390
0
  6
CONTINUOUS
 62
     7
100
AcDbLine
 10
-84.379
 20
115.952
 30
0.0
 11
-82.443
 21
121.272
 31
0.0
  0
LINE
  5
22D
100
AcDbEntity
  8
PV
390
0
  6
CONTINUOUS
 62
     7
100
AcDbLine
 10
-84.65
 20
116.789
 30
0.0
 11
-83.018
 21
121.272
 31
0.0
  0
LINE
  5
22E
100
AcDbEntity
  8
PV
390
0
  6
CONTINUOUS
 62
     7
100
AcDbLine
 10
-85.44
 20
121.272
 30
0.0
 11
-84.65
 21
116.789
 31
0.0
  0
LINE
  5
22F
100
AcDbEntity
  8
PV
390
0
  6
CONTINUOUS
 62
     7
100
AcDbLine
 10
-85.994
 20
121.272
 30
0.0
 11
-85.056
 21
115.952
 31
0.0
  0
LINE
  5
230
100
AcDbEntity
  8
PV
390
0
  6
CONTINUOUS
 62
     7
100
AcDbLine
 10
-83.018
 20
121.272
 30
0.0
 11
-82.443
 21
121.272
 31
0.0
  0
LINE
  5
231
100
AcDbEntity
  8
PV
390
0
  6
CONTINUOUS
 62
     7
100
AcDbLine
 10
-59.803
 20
116.994
 30
0.0
 11
-59.361
 21
117.249
 31
0.0
  0
LINE
  5
232
100
AcDbEntity
  8
PV
390
0
  6
CONTINUOUS
 62
     7
100
AcDbLine
 10
-56.436
 20
120.287
 30
0.0
 11
-56.878
 21
120.032
 31
0.0
  0
LINE
  5
233
100
AcDbEntity
  8
PV
390
0
  6
CONTINUOUS
 62
     7
100
AcDbLine
 10
-58.421
 20
118.414
 30
0.0
 11
-57.862
 21
118.33
 31
0.0
  0
LINE
  5
234
100
AcDbEntity
  8
PV
390
0
  6
CONTINUOUS
 62
     7
100
AcDbLine
 10
-58.368
 20
118.946
 30
0.0
 11
-57.819
 21
118.868
 31
0.0
  0
CIRCLE
  5
235
100
AcDbEntity
  8
PV
390
0
  6
CONTINUOUS
 62
     7
100
AcDbCircle
 10
-87.75
 20
113.006
 30
0.0
 40
37.5
  0
ARC
  5
236
100
AcDbEntity
  8
PV
390
0
  6
CONTINUOUS
 62
     7
100
AcDbCircle
 10
-93.385
 20
144.839
 30
0.0
 40
1.235
100
AcDbArc
 50
0.0
 51
180.000005
  0
ARC
  5
237
100
AcDbEntity
  8
PV
390
0
  6
CONTINUOUS
 62
     7
100
AcDbCircle
 10
-93.385
 20
144.839
 30
0.0
 40
1.235
100
AcDbArc
 50
179.999991
 51
0.00001
  0
ARC
  5
238
100
AcDbEntity
  8
PV
390
0
  6
CONTINUOUS
 62
     7
100
AcDbCircle
 10
-86.937
 20
143.766
 30
0.0
 40
2.308
100
AcDbArc
 50
90.000003
 51
270.000001
  0
ARC
  5
239
100
AcDbEntity
  8
PV
390
0
  6
CONTINUOUS
 62
     7
100
AcDbCircle
 10
-86.937
 20
143.766
 30
0.0
 40
1.268
100
AcDbArc
 50
90.000003
 51
270.000001
  0
ARC
  5
23A
100
AcDbEntity
  8
PV
390
0
  6
CONTINUOUS
 62
     7
100
AcDbCircle
 10
-86.937
 20
143.766
 30
0.0
 40
1.268
100
AcDbArc
 50
269.999997
 51
90.000003
  0
ARC
  5
23B
100
AcDbEntity
  8
PV
390
0
  6
CONTINUOUS
 62
     7
100
AcDbCircle
 10
-82.712
 20
143.766
 30
0.0
 40
2.308
100
AcDbArc
 50
34.225552
 51
325.774451
  0
ARC
  5
23C
100
AcDbEntity
  8
PV
390
0
  6
CONTINUOUS
 62
     7
100
AcDbCircle
 10
-80.729
 20
143.766
 30
0.0
 40
1.3
100
AcDbArc
 50
90.000003
 51
270.000001
  0
ARC
  5
23D
100
AcDbEntity
  8
PV
390
0
  6
CONTINUOUS
 62
     7
100
AcDbCircle
 10
-80.729
 20
143.766
 30
0.0
 40
1.3
100
AcDbArc
 50
269.999997
 51
90.000003
  0
ARC
  5
23E
100
AcDbEntity
  8
PV
390
0
  6
CONTINUOUS
 62
   254
100
AcDbCircle
 10
-106.13
 20
136.392
 30
0.0
 40
0.873
100
AcDbArc
 50
273.721836
 51
359.999996
  0
ARC
  5
23F
100
AcDbEntity
  8
PV
390
0
  6
CONTINUOUS
 62
   254
100
AcDbCircle
 10
-106.13
 20
136.392
 30
0.0
 40
0.291
100
AcDbArc
 50
270.000011
 51
359.999996
  0
ARC
  5
240
100
AcDbEntity
  8
PV
390
0
  6
CONTINUOUS
 62
   254
100
AcDbCircle
 10
-88.667
 20
135.81
 30
0.0
 40
1.455
100
AcDbArc
 50
89.999975
 51
270.000001
  0
ARC
  5
241
100
AcDbEntity
  8
PV
390
0
  6
CONTINUOUS
 62
   254
100
AcDbCircle
 10
-88.667
 20
135.81
 30
0.0
 40
0.873
100
AcDbArc
 50
89.999975
 51
160.528775
  0
ARC
  5
242
100
AcDbEntity
  8
PV
390
0
  6
CONTINUOUS
 62
   254
100
AcDbCircle
 10
-88.667
 20
135.81
 30
0.0
 40
0.873
100
AcDbArc
 50
199.471211
 51
270.000011
  0
ARC
  5
243
100
AcDbEntity
  8
PV
390
0
  6
CONTINUOUS
 62
   254
100
AcDbCircle
 10
-78.19
 20
135.81
 30
0.0
 40
1.455
100
AcDbArc
 50
89.999975
 51
179.99995
  0
ARC
  5
244
100
AcDbEntity
  8
PV
390
0
  6
CONTINUOUS
 62
   254
100
AcDbCircle
 10
-77.899
 20
135.81
 30
0.0
 40
1.455
100
AcDbArc
 50
270.000011
 51
359.999996
  0
ARC
  5
245
100
AcDbEntity
  8
PV
390
0
  6
CONTINUOUS
 62
   254
100
AcDbCircle
 10
-78.19
 20
135.81
 30
0.0
 40
0.873
100
AcDbArc
 50
89.999975
 51
179.99995
  0
ARC
  5
246
100
AcDbEntity
  8
PV
390
0
  6
CONTINUOUS
 62
   254
100
AcDbCircle
 10
-77.899
 20
135.81
 30
0.0
 40
0.873
100
AcDbArc
 50
270.000011
 51
359.999996
  0
ARC
  5
247
100
AcDbEntity
  8
PV
390
0
  6
CONTINUOUS
 62
   254
100
AcDbCircle
 10
-102.492
 20
135.81
 30
0.0
 40
1.455
100
AcDbArc
 50
89.999975
 51
270.000001
  0
ARC
  5
248
100
AcDbEntity
  8
PV
390
0
  6
CONTINUOUS
 62
   254
100
AcDbCircle
 10
-102.492
 20
135.81
 30
0.0
 40
0.873
100
AcDbArc
 50
89.999975
 51
160.528775
  0
ARC
  5
249
100
AcDbEntity
  8
PV
390
0
  6
CONTINUOUS
 62
   254
100
AcDbCircle
 10
-102.492
 20
135.81
 30
0.0
 40
0.873
100
AcDbArc
 50
199.471211
 51
270.000011
  0
ARC
  5
24A
100
AcDbEntity
  8
PV
390
0
  6
CONTINUOUS
 62
   254
100
AcDbCircle
 10
-85.611
 20
135.955
 30
0.0
 40
1.31
100
AcDbArc
 50
89.999975
 51
179.99995
  0
ARC
  5
24B
100
AcDbEntity
  8
PV
390
0
  6
CONTINUOUS
 62
   254
100
AcDbCircle
 10
-85.32
 20
135.955
 30
0.0
 40
1.31
100
AcDbArc
 50
359.999996
 51
89.999975
  0
ARC
  5
24C
100
AcDbEntity
  8
PV
390
0
  6
CONTINUOUS
 62
   254
100
AcDbCircle
 10
-85.611
 20
135.955
 30
0.0
 40
0.728
100
AcDbArc
 50
89.999975
 51
179.99995
  0
ARC
  5
24D
100
AcDbEntity
  8
PV
390
0
  6
CONTINUOUS
 62
   254
100
AcDbCircle
 10
-85.32
 20
135.955
 30
0.0
 40
0.728
100
AcDbArc
 50
359.999996
 51
89.999975
  0
ARC
  5
24E
100
AcDbEntity
  8
PV
390
0
  6
CONTINUOUS
 62
   254
100
AcDbCircle
 10
-95.07
 20
135.81
 30
0.0
 40
1.455
100
AcDbArc
 50
89.999975
 51
179.99995
  0
ARC
  5
24F
100
AcDbEntity
  8
PV
390
0
  6
CONTINUOUS
 62
   254
100
AcDbCircle
 10
-94.779
 20
135.81
 30
0.0
 40
1.455
100
AcDbArc
 50
270.000011
 51
359.999996
  0
ARC
  5
250
100
AcDbEntity
  8
PV
390
0
  6
CONTINUOUS
 62
   254
100
AcDbCircle
 10
-95.07
 20
135.81
 30
0.0
 40
0.873
100
AcDbArc
 50
89.999975
 51
179.99995
  0
ARC
  5
251
100
AcDbEntity
  8
PV
390
0
  6
CONTINUOUS
 62
   254
100
AcDbCircle
 10
-94.779
 20
135.81
 30
0.0
 40
0.873
100
AcDbArc
 50
270.000011
 51
359.999996
  0
ARC
  5
252
100
AcDbEntity
  8
PV
390
0
  6
CONTINUOUS
 62
   254
100
AcDbCircle
 10
-75.221
 20
134.718
 30
0.0
 40
0.364
100
AcDbArc
 50
319.999919
 51
241.536827
  0
CIRCLE
  5
253
100
AcDbEntity
  8
PV
390
0
  6
CONTINUOUS
 62
   254
100
AcDbCircle
 10
-76.152
 20
134.718
 30
0.0
 40
0.364
  0
ARC
  5
254
100
AcDbEntity
  8
PV
390
0
  6
CONTINUOUS
 62
   254
100
AcDbCircle
 10
-73.388
 20
135.519
 30
0.0
 40
1.164
100
AcDbArc
 50
179.999978
 51
270.000001
  0
ARC
  5
255
100
AcDbEntity
  8
PV
390
0
  6
CONTINUOUS
 62
   254
100
AcDbCircle
 10
-73.388
 20
135.519
 30
0.0
 40
0.582
100
AcDbArc
 50
179.999978
 51
270.000001
  0
ARC
  5
256
100
AcDbEntity
  8
PV
390
0
  6
CONTINUOUS
 62
   254
100
AcDbCircle
 10
-67.421
 20
135.81
 30
0.0
 40
1.455
100
AcDbArc
 50
270.000011
 51
359.999996
  0
ARC
  5
257
100
AcDbEntity
  8
PV
390
0
  6
CONTINUOUS
 62
   254
100
AcDbCircle
 10
-67.421
 20
135.81
 30
0.0
 40
0.873
100
AcDbArc
 50
270.000011
 51
359.999996
  0
ARC
  5
258
100
AcDbEntity
  8
PV
390
0
  6
CONTINUOUS
 62
   254
100
AcDbCircle
 10
-81.246
 20
135.81
 30
0.0
 40
1.455
100
AcDbArc
 50
89.999975
 51
270.000001
  0
ARC
  5
259
100
AcDbEntity
  8
PV
390
0
  6
CONTINUOUS
 62
   254
100
AcDbCircle
 10
-81.246
 20
135.81
 30
0.0
 40
0.873
100
AcDbArc
 50
89.999975
 51
270.000001
  0
ARC
  5
25A
100
AcDbEntity
  8
PV
390
0
  6
CONTINUOUS
 62
   254
100
AcDbCircle
 10
-106.13
 20
136.392
 30
0.0
 40
0.291
100
AcDbArc
 50
359.999996
 51
89.999975
  0
ARC
  5
25B
100
AcDbEntity
  8
PV
390
0
  6
CONTINUOUS
 62
   254
100
AcDbCircle
 10
-106.13
 20
136.392
 30
0.0
 40
0.873
100
AcDbArc
 50
359.999996
 51
89.999975
  0
ARC
  5
25C
100
AcDbEntity
  8
PV
390
0
  6
CONTINUOUS
 62
   254
100
AcDbCircle
 10
-94.779
 20
135.81
 30
0.0
 40
1.455
100
AcDbArc
 50
359.999996
 51
89.999975
  0
ARC
  5
25D
100
AcDbEntity
  8
PV
390
0
  6
CONTINUOUS
 62
   254
100
AcDbCircle
 10
-94.779
 20
135.81
 30
0.0
 40
0.873
100
AcDbArc
 50
359.999996
 51
89.999975
  0
ARC
  5
25E
100
AcDbEntity
  8
PV
390
0
  6
CONTINUOUS
 62
   254
100
AcDbCircle
 10
-95.07
 20
135.81
 30
0.0
 40
0.873
100
AcDbArc
 50
179.999978
 51
270.000001
  0
ARC
  5
25F
100
AcDbEntity
  8
PV
390
0
  6
CONTINUOUS
 62
   254
100
AcDbCircle
 10
-95.07
 20
135.81
 30
0.0
 40
1.455
100
AcDbArc
 50
179.999978
 51
270.000001
  0
ARC
  5
260
100
AcDbEntity
  8
PV
390
0
  6
CONTINUOUS
 62
   254
100
AcDbCircle
 10
-78.19
 20
135.81
 30
0.0
 40
1.455
100
AcDbArc
 50
179.999978
 51
270.000001
  0
ARC
  5
261
100
AcDbEntity
  8
PV
390
0
  6
CONTINUOUS
 62
   254
100
AcDbCircle
 10
-78.19
 20
135.81
 30
0.0
 40
0.873
100
AcDbArc
 50
179.999978
 51
270.000001
  0
ARC
  5
262
100
AcDbEntity
  8
PV
390
0
  6
CONTINUOUS
 62
   254
100
AcDbCircle
 10
-77.899
 20
135.81
 30
0.0
 40
0.873
100
AcDbArc
 50
359.999996
 51
89.999975
  0
ARC
  5
263
100
AcDbEntity
  8
PV
390
0
  6
CONTINUOUS
 62
   254
100
AcDbCircle
 10
-77.899
 20
135.81
 30
0.0
 40
1.455
100
AcDbArc
 50
359.999996
 51
89.999975
  0
ARC
  5
264
100
AcDbEntity
  8
PV
390
0
  6
CONTINUOUS
 62
   254
100
AcDbCircle
 10
-67.421
 20
135.81
 30
0.0
 40
0.873
100
AcDbArc
 50
359.999996
 51
90.00003
  0
ARC
  5
265
100
AcDbEntity
  8
PV
390
0
  6
CONTINUOUS
 62
   254
100
AcDbCircle
 10
-67.421
 20
135.81
 30
0.0
 40
1.455
100
AcDbArc
 50
359.999996
 51
90.00003
  0
CIRCLE
  5
266
100
AcDbEntity
  8
PV
390
0
  6
CONTINUOUS
 62
     7
100
AcDbCircle
 10
-87.75
 20
113.006
 30
0.0
 40
37.25
  0
LWPOLYLINE
  5
267
100
AcDbEntity
  8
PV
390
0
  6
CONTINUOUS
 62
     7
100
AcDbPolyline
 90
      113
 70
     0
 10
-103.935
 20
121.232
 10
-104.035
 20
121.247
 10
-104.135
 20
121.257
 10
-104.236
 20
121.262
 10
-104.337
 20
121.261
 10
-104.439
 20
121.256
 10
-104.54
 20
121.246
 10
-104.641
 20
121.231
 10
-104.741
 20
121.211
 10
-104.841
 20
121.186
 10
-104.94
 20
121.156
 10
-105.038
 20
121.121
 10
-105.135
 20
121.081
 10
-105.23
 20
121.037
 10
-105.324
 20
120.988
 10
-105.416
 20
120.934
 10
-105.506
 20
120.877
 10
-105.593
 20
120.814
 10
-105.679
 20
120.748
 10
-105.762
 20
120.678
 10
-105.843
 20
120.603
 10
-105.921
 20
120.525
 10
-105.996
 20
120.443
 10
-106.068
 20
120.358
 10
-106.136
 20
120.269
 10
-106.202
 20
120.177
 10
-106.264
 20
120.083
 10
-106.322
 20
119.985
 10
-106.377
 20
119.885
 10
-106.428
 20
119.782
 10
-106.475
 20
119.677
 10
-106.518
 20
119.571
 10
-106.557
 20
119.462
 10
-106.592
 20
119.352
 10
-106.623
 20
119.24
 10
-106.65
 20
119.127
 10
-106.672
 20
119.013
 10
-106.69
 20
118.898
 10
-106.704
 20
118.783
 10
-106.713
 20
118.668
 10
-106.718
 20
118.552
 10
-106.718
 20
118.437
 10
-106.714
 20
118.321
 10
-106.706
 20
118.207
 10
-106.693
 20
118.093
 10
-106.676
 20
117.98
 10
-106.654
 20
117.868
 10
-106.628
 20
117.758
 10
-106.598
 20
117.65
 10
-106.564
 20
117.543
 10
-106.526
 20
117.438
 10
-106.483
 20
117.336
 10
-106.437
 20
117.235
 10
-106.386
 20
117.138
 10
-106.332
 20
117.043
 10
-106.275
 20
116.952
 10
-106.213
 20
116.863
 10
-106.148
 20
116.778
 10
-106.08
 20
116.696
 10
-106.009
 20
116.618
 10
-105.935
 20
116.544
 10
-105.857
 20
116.474
 10
-105.777
 20
116.407
 10
-105.694
 20
116.345
 10
-105.609
 20
116.288
 10
-105.522
 20
116.234
 10
-105.432
 20
116.185
 10
-105.34
 20
116.141
 10
-105.247
 20
116.102
 10
-105.152
 20
116.067
 10
-105.056
 20
116.037
 10
-104.958
 20
116.012
 10
-104.859
 20
115.992
 10
-104.759
 20
115.977
 10
-104.659
 20
115.967
 10
-104.558
 20
115.962
 10
-104.457
 20
115.963
 10
-104.356
 20
115.968
 10
-104.255
 20
115.978
 10
-104.154
 20
115.993
 10
-104.053
 20
116.013
 10
-103.953
 20
116.038
 10
-103.854
 20
116.068
 10
-103.756
 20
116.103
 10
-103.66
 20
116.143
 10
-103.564
 20
116.187
 10
-103.471
 20
116.236
 10
-103.379
 20
116.29
 10
-103.289
 20
116.347
 10
-103.201
 20
116.41
 10
-103.115
 20
116.476
 10
-103.032
 20
116.546
 10
-102.951
 20
116.621
 10
-102.874
 20
116.699
 10
-102.799
 20
116.781
 10
-102.727
 20
116.866
 10
-102.658
 20
116.955
 10
-102.593
 20
117.047
 10
-102.531
 20
117.141
 10
-102.472
 20
117.239
 10
-102.417
 20
117.339
 10
-102.366
 20
117.442
 10
-102.319
 20
117.547
 10
-102.276
 20
117.653
 10
-102.237
 20
117.762
 10
-102.202
 20
117.872
 10
-102.171
 20
117.984
 10
-102.145
 20
118.097
 10
-102.122
 20
118.211
 10
-102.104
 20
118.326
 10
-102.091
 20
118.441
 10
-102.081
 20
118.556
 10
-102.079
 20
118.612
  0
LWPOLYLINE
  5
268
100
AcDbEntity
  8
PV
390
0
  6
CONTINUOUS
 62
     7
100
AcDbPolyline
 90
       26
 70
     0
 10
-102.195
 20
119.57
 10
-102.196
 20
119.574
 10
-102.23
 20
119.681
 10
-102.269
 20
119.786
 10
-102.311
 20
119.888
 10
-102.358
 20
119.989
 10
-102.408
 20
120.086
 10
-102.462
 20
120.181
 10
-102.52
 20
120.272
 10
-102.581
 20
120.361
 10
-102.646
 20
120.446
 10
-102.714
 20
120.528
 10
-102.785
 20
120.606
 10
-102.86
 20
120.68
 10
-102.937
 20
120.75
 10
-103.017
 20
120.817
 10
-103.1
 20
120.879
 10
-103.185
 20
120.936
 10
-103.273
 20
120.99
 10
-103.362
 20
121.039
 10
-103.454
 20
121.083
 10
-103.547
 20
121.122
 10
-103.642
 20
121.157
 10
-103.739
 20
121.187
 10
-103.836
 20
121.212
 10
-103.935
 20
121.232
  0
LWPOLYLINE
  5
269
100
AcDbEntity
  8
PV
390
0
  6
CONTINUOUS
 62
     7
100
AcDbPolyline
 90
       94
 70
     0
 10
-59.803
 20
116.995
 10
-59.802
 20
116.99
 10
-59.781
 20
116.926
 10
-59.758
 20
116.863
 10
-59.732
 20
116.802
 10
-59.704
 20
116.741
 10
-59.673
 20
116.683
 10
-59.639
 20
116.625
 10
-59.604
 20
116.569
 10
-59.566
 20
116.515
 10
-59.526
 20
116.463
 10
-59.483
 20
116.412
 10
-59.439
 20
116.364
 10
-59.393
 20
116.317
 10
-59.345
 20
116.273
 10
-59.295
 20
116.231
 10
-59.243
 20
116.191
 10
-59.189
 20
116.154
 10
-59.135
 20
116.119
 10
-59.078
 20
116.087
 10
-59.021
 20
116.057
 10
-58.962
 20
116.03
 10
-58.902
 20
116.005
 10
-58.842
 20
115.984
 10
-58.78
 20
115.965
 10
-58.718
 20
115.949
 10
-58.655
 20
115.936
 10
-58.592
 20
115.926
 10
-58.528
 20
115.918
 10
-58.464
 20
115.914
 10
-58.4
 20
115.913
 10
-58.336
 20
115.914
 10
-58.272
 20
115.918
 10
-58.208
 20
115.926
 10
-58.144
 20
115.936
 10
-58.081
 20
115.949
 10
-58.019
 20
115.965
 10
-57.958
 20
115.984
 10
-57.897
 20
116.005
 10
-57.837
 20
116.03
 10
-57.778
 20
116.057
 10
-57.721
 20
116.087
 10
-57.665
 20
116.119
 10
-57.61
 20
116.154
 10
-57.556
 20
116.191
 10
-57.505
 20
116.231
 10
-57.455
 20
116.273
 10
-57.407
 20
116.317
 10
-57.36
 20
116.364
 10
-57.316
 20
116.412
 10
-57.274
 20
116.463
 10
-57.233
 20
116.515
 10
-57.196
 20
116.569
 10
-57.16
 20
116.625
 10
-57.127
 20
116.683
 10
-57.096
 20
116.741
 10
-57.067
 20
116.802
 10
-57.042
 20
116.863
 10
-57.018
 20
116.926
 10
-56.998
 20
116.99
 10
-56.98
 20
117.054
 10
-56.965
 20
117.119
 10
-56.952
 20
117.185
 10
-56.942
 20
117.252
 10
-56.935
 20
117.318
 10
-56.931
 20
117.385
 10
-56.93
 20
117.453
 10
-56.931
 20
117.52
 10
-56.935
 20
117.587
 10
-56.942
 20
117.654
 10
-56.952
 20
117.72
 10
-56.965
 20
117.786
 10
-56.98
 20
117.851
 10
-56.998
 20
117.916
 10
-57.018
 20
117.979
 10
-57.042
 20
118.042
 10
-57.067
 20
118.103
 10
-57.096
 20
118.164
 10
-57.127
 20
118.223
 10
-57.16
 20
118.28
 10
-57.196
 20
118.336
 10
-57.233
 20
118.39
 10
-57.274
 20
118.442
 10
-57.316
 20
118.493
 10
-57.36
 20
118.542
 10
-57.407
 20
118.588
 10
-57.455
 20
118.632
 10
-57.505
 20
118.674
 10
-57.556
 20
118.714
 10
-57.61
 20
118.751
 10
-57.665
 20
118.786
 10
-57.721
 20
118.819
 10
-57.778
 20
118.848
 10
-57.817
 20
118.867
  0
LWPOLYLINE
  5
26A
100
AcDbEntity
  8
PV
390
0
  6
CONTINUOUS
 62
     7
100
AcDbPolyline
 90
       94
 70
     0
 10
-56.436
 20
120.286
 10
-56.438
 20
120.292
 10
-56.458
 20
120.355
 10
-56.482
 20
120.418
 10
-56.507
 20
120.479
 10
-56.536
 20
120.54
 10
-56.567
 20
120.599
 10
-56.6
 20
120.656
 10
-56.635
 20
120.712
 10
-56.673
 20
120.766
 10
-56.714
 20
120.819
 10
-56.756
 20
120.869
 10
-56.8
 20
120.918
 10
-56.847
 20
120.964
 10
-56.895
 20
121.008
 10
-56.945
 20
121.05
 10
-56.996
 20
121.09
 10
-57.05
 20
121.127
 10
-57.105
 20
121.162
 10
-57.161
 20
121.195
 10
-57.218
 20
121.224
 10
-57.277
 20
121.251
 10
-57.337
 20
121.276
 10
-57.398
 20
121.297
 10
-57.459
 20
121.316
 10
-57.521
 20
121.332
 10
-57.584
 20
121.345
 10
-57.648
 20
121.355
 10
-57.712
 20
121.363
 10
-57.776
 20
121.367
 10
-57.84
 20
121.369
 10
-57.904
 20
121.367
 10
-57.968
 20
121.363
 10
-58.032
 20
121.355
 10
-58.095
 20
121.345
 10
-58.158
 20
121.332
 10
-58.22
 20
121.316
 10
-58.282
 20
121.297
 10
-58.342
 20
121.276
 10
-58.402
 20
121.251
 10
-58.461
 20
121.224
 10
-58.518
 20
121.195
 10
-58.575
 20
121.162
 10
-58.629
 20
121.127
 10
-58.683
 20
121.09
 10
-58.735
 20
121.05
 10
-58.785
 20
121.008
 10
-58.833
 20
120.964
 10
-58.879
 20
120.918
 10
-58.923
 20
120.869
 10
-58.966
 20
120.819
 10
-59.006
 20
120.766
 10
-59.044
 20
120.712
 10
-59.079
 20
120.656
 10
-59.113
 20
120.599
 10
-59.144
 20
120.54
 10
-59.172
 20
120.479
 10
-59.198
 20
120.418
 10
-59.221
 20
120.355
 10
-59.242
 20
120.292
 10
-59.26
 20
120.227
 10
-59.275
 20
120.162
 10
-59.287
 20
120.096
 10
-59.297
 20
120.03
 10
-59.304
 20
119.963
 10
-59.308
 20
119.896
 10
-59.31
 20
119.829
 10
-59.308
 20
119.761
 10
-59.304
 20
119.694
 10
-59.297
 20
119.628
 10
-59.287
 20
119.561
 10
-59.275
 20
119.495
 10
-59.26
 20
119.43
 10
-59.242
 20
119.366
 10
-59.221
 20
119.302
 10
-59.198
 20
119.239
 10
-59.172
 20
119.178
 10
-59.144
 20
119.118
 10
-59.113
 20
119.059
 10
-59.079
 20
119.001
 10
-59.044
 20
118.945
 10
-59.006
 20
118.891
 10
-58.966
 20
118.839
 10
-58.923
 20
118.788
 10
-58.879
 20
118.74
 10
-58.833
 20
118.693
 10
-58.785
 20
118.649
 10
-58.735
 20
118.607
 10
-58.683
 20
118.567
 10
-58.629
 20
118.53
 10
-58.575
 20
118.495
 10
-58.518
 20
118.463
 10
-58.461
 20
118.433
 10
-58.422
 20
118.415
  0
MTEXT
  5
26B
100
AcDbEntity
  8
PV
390
0
  6
CONTINUOUS
 62
     7
100
AcDbMText
 10
-86.644
 20
103.645
 30
0.0
 40
3.2
 41
0.0
 71
     2
 72
     1
  1
\W0.925;\A1;HIGH VACUUM VALVES
 73
     1
 44
1.0
  0
MTEXT
  5
26C
100
AcDbEntity
  8
PV
390
0
  6
CONTINUOUS
 62
     7
100
AcDbMText
 10
-87.413
 20
95.472
 30
0.0
 40
3.2
 41
0.0
 71
     2
 72
     1
  1
\W0.930;\A1;METAL BELLOWS
 73
     1
 44
1.0
  0
MTEXT
  5
26D
100
AcDbEntity
  8
PV
390
0
  6
CONTINUOUS
 62
     7
100
AcDbMText
 10
-87.894
 20
85.103
 30
0.0
 40
1.5
 41
0.0
 71
     2
 72
     1
  1
\W0.980;\A1;MADE IN JAPAN
 73
     1
 44
1.0
  0
SOLID
  5
26E
100
AcDbEntity
  8
PV
390
0
  6
CONTINUOUS
 62
     7
100
AcDbTrace
 10
-91.26
 20
141.459
 30
0.0
 11
-89.245
 21
141.459
 31
0.0
 12
-91.26
 22
146.074
 32
0.0
 13
-89.245
 23
146.074
 33
0.0
  0
SOLID
  5
26F
100
AcDbEntity
  8
PV
390
0
  6
CONTINUOUS
 62
     7
100
AcDbTrace
 10
-109.332
 20
134.355
 30
0.0
 11
-108.749
 21
134.355
 31
0.0
 12
-109.332
 22
137.265
 32
0.0
 13
-108.749
 23
137.265
 33
0.0
  0
SOLID
  5
270
100
AcDbEntity
  8
PV
390
0
  6
CONTINUOUS
 62
     7
100
AcDbTrace
 10
-104.82
 20
134.355
 30
0.0
 11
-104.238
 21
134.355
 31
0.0
 12
-104.82
 22
137.265
 32
0.0
 13
-104.238
 23
137.265
 33
0.0
  0
MTEXT
  5
271
100
AcDbEntity
  8
PV
390
0
  6
CONTINUOUS
 62
     7
100
AcDbMText
 10
-24.918335
 20
113.006
 30
0.0
 40
7.0
 41
0.0
 71
     2
 72
     1
  1
\T0.850;\W1.140;\A1;□92
 11
0.0
 21
1.0
 31
0.0
 73
     1
 44
1.0
  0
LINE
  5
272
100
AcDbEntity
  8
PV
390
0
  6
CONTINUOUS
 62
     7
100
AcDbLine
 10
-45.148
 20
67.006
 30
0.0
 11
-14.699
 21
67.006
 31
0.0
  0
LINE
  5
273
100
AcDbEntity
  8
PV
390
0
  6
CONTINUOUS
 62
     7
100
AcDbLine
 10
-45.148
 20
159.006
 30
0.0
 11
-14.699
 21
159.006
 31
0.0
  0
LINE
  5
274
100
AcDbEntity
  8
PV
390
0
  6
CONTINUOUS
 62
     7
100
AcDbLine
 10
-16.985
 20
159.006
 30
0.0
 11
-16.985
 21
67.006
 31
0.0
  0
LINE
  5
275
100
AcDbEntity
  8
PV
390
0
  6
CONTINUOUS
 62
     7
100
AcDbLine
 10
-16.985
 20
67.006
 30
0.0
 11
-16.985
 21
69.776
 31
0.0
  0
LINE
  5
276
100
AcDbEntity
  8
PV
390
0
  6
CONTINUOUS
 62
     7
100
AcDbLine
 10
-16.985
 20
67.006
 30
0.0
 11
-17.728
 21
69.776
 31
0.0
  0
LINE
  5
277
100
AcDbEntity
  8
PV
390
0
  6
CONTINUOUS
 62
     7
100
AcDbLine
 10
-16.243
 20
69.776
 30
0.0
 11
-16.985
 21
67.006
 31
0.0
  0
LINE
  5
278
100
AcDbEntity
  8
PV
390
0
  6
CONTINUOUS
 62
     7
100
AcDbLine
 10
-16.985
 20
159.006
 30
0.0
 11
-16.985
 21
156.236
 31
0.0
  0
LINE
  5
279
100
AcDbEntity
  8
PV
390
0
  6
CONTINUOUS
 62
     7
100
AcDbLine
 10
-16.985
 20
159.006
 30
0.0
 11
-16.243
 21
156.236
 31
0.0
  0
LINE
  5
27A
100
AcDbEntity
  8
PV
390
0
  6
CONTINUOUS
 62
     7
100
AcDbLine
 10
-17.728
 20
156.236
 30
0.0
 11
-16.985
 21
159.006
 31
0.0
  0
ENDSEC
  0
SECTION
  2
OBJECTS
  0
DICTIONARY
  5
19
100
AcDbDictionary
280
     0
281
     1
  3
ACAD_GROUP
350
1A
  3
ACAD_MLINESTYLE
350
1B
  3
ACAD_LAYOUT
350
1E
  3
ACAD_PLOTSETTINGS
350
22
  3
ACAD_PLOTSTYLENAME
350
1F
  0
DICTIONARY
  5
1A
102
{ACAD_REACTORS
330
19
102
}
100
AcDbDictionary
280
     0
281
     1
  0
DICTIONARY
  5
1B
102
{ACAD_REACTORS
330
19
102
}
100
AcDbDictionary
280
     0
281
     1
  3
Standard
350
1C
  0
MLINESTYLE
  5
1C
102
{ACAD_REACTORS
330
1B
102
}
100
AcDbMlineStyle
  2
Standard
 70
     0
  3

 62
     0
 51
90.0
 52
90.0
 71
     2
 49
0.5
 62
   256
  6
ByLayer
 49
-0.5
 62
   256
  6
ByLayer
  0
ACDBDICTIONARYWDFLT
  5
1F
102
{ACAD_REACTORS
330
19
102
}
100
AcDbDictionary
281
     1
  3
Normal
350
1D
100
AcDbDictionaryWithDefault
340
1D
  0
ACDBPLACEHOLDER
  5
1D
102
{ACAD_REACTORS
330
1F
102
}
  0
LAYOUT
  5
20
102
{ACAD_REACTORS
330
1E
102
}
100
AcDbPlotSettings
  1

  2

  4

  6

 40
0.0
 41
0.0
 42
0.0
 43
0.0
 44
0.0
 45
0.0
 46
0.0
 47
0.0
 48
0.0
 49
0.0
140
0.0
141
0.0
142
1.0
143
1.0
 70
  1024
 72
     0
 73
     0
 74
     0
  7

 75
     0
147
1.0
148
0.0
149
0.0
100
AcDbLayout
  1
Model
 70
     0
 71
     0
 10
0.0
 20
0.0
 11
0.0
 21
0.0
 12
0.0
 22
0.0
 32
0.0
 14
0.0
 24
0.0
 34
0.0
 15
0.0
 25
0.0
 35
0.0
146
0.0
 13
0.0
 23
0.0
 33
0.0
 16
0.0
 26
0.0
 36
0.0
 17
0.0
 27
0.0
 37
0.0
 76
     0
330
A
331
0
345
0
346
0
  0
LAYOUT
  5
21
102
{ACAD_REACTORS
330
1E
102
}
100
AcDbPlotSettings
  1

  2

  4

  6

 40
0.0
 41
0.0
 42
0.0
 43
0.0
 44
0.0
 45
0.0
 46
0.0
 47
0.0
 48
0.0
 49
0.0
140
0.0
141
0.0
142
1.0
143
1.0
 70
     0
 72
     0
 73
     0
 74
     0
  7

 75
     0
147
1.0
148
0.0
149
0.0
100
AcDbLayout
  1
Layout1
 70
     0
 71
     0
 10
0.0
 20
0.0
 11
0.0
 21
0.0
 12
0.0
 22
0.0
 32
0.0
 14
0.0
 24
0.0
 34
0.0
 15
0.0
 25
0.0
 35
0.0
146
0.0
 13
0.0
 23
0.0
 33
0.0
 16
0.0
 26
0.0
 36
0.0
 17
0.0
 27
0.0
 37
0.0
 76
     0
330
B
331
0
345
0
346
0
  0
DICTIONARY
  5
1E
102
{ACAD_REACTORS
330
19
102
}
100
AcDbDictionary
280
     0
281
     1
  3
Layout1
350
21
  3
Model
350
20
  0
DICTIONARY
  5
22
102
{ACAD_REACTORS
330
19
102
}
100
AcDbDictionary
280
     0
281
     1
  0
ENDSEC
  0
EOF
