  0
SECTION
  2
HEADER
  9
$ACADVER
  1
AC1015
  9
$ACADMAINTVER
 70
    10
  9
$DWGCODEPAGE
  3
ANSI_932
  9
$INSBASE
 10
0.0
 20
0.0
 30
0.0
  9
$EXTMIN
 10
-95.26837485475363
 20
-183.9109040651297
 30
-0.0015258207003583
  9
$EXTMAX
 10
72.69219197531572
 20
171.2888565503693
 30
0.0000000349246037
  9
$LIMMIN
 10
-97.43066800000001
 20
-183.9
  9
$LIMMAX
 10
72.68699999999999
 20
173.431668
  9
$ORTHOMODE
 70
     0
  9
$REGENMODE
 70
     1
  9
$FILLMODE
 70
     1
  9
$QTEXTMODE
 70
     0
  9
$MIRRTEXT
 70
     1
  9
$LTSCALE
 40
0.2
  9
$ATTMODE
 70
     1
  9
$TEXTSIZE
 40
3.2
  9
$TRACEWID
 40
0.05
  9
$TEXTSTYLE
  7
MX_NOTE_STANDARD
  9
$CLAYER
  8
0
  9
$CELTYPE
  6
CONTINUOUS
  9
$CECOLOR
 62
   256
  9
$CELTSCALE
 40
1.0
  9
$DISPSILH
 70
     0
  9
$DIMSCALE
 40
1.0
  9
$DIMASZ
 40
2.5
  9
$DIMEXO
 40
2.54
  9
$DIMDLI
 40
3.75
  9
$DIMRND
 40
0.0
  9
$DIMDLE
 40
0.0
  9
$DIMEXE
 40
2.286
  9
$DIMTP
 40
0.0
  9
$DIMTM
 40
0.0
  9
$DIMTXT
 40
3.2
  9
$DIMCEN
 40
2.5
  9
$DIMTSZ
 40
0.0
  9
$DIMTOL
 70
     0
  9
$DIMLIM
 70
     0
  9
$DIMTIH
 70
     0
  9
$DIMTOH
 70
     0
  9
$DIMSE1
 70
     0
  9
$DIMSE2
 70
     0
  9
$DIMTAD
 70
     1
  9
$DIMZIN
 70
     8
  9
$DIMBLK
  1

  9
$DIMASO
 70
     1
  9
$DIMSHO
 70
     1
  9
$DIMPOST
  1

  9
$DIMAPOST
  1

  9
$DIMALT
 70
     0
  9
$DIMALTD
 70
     4
  9
$DIMALTF
 40
0.03937
  9
$DIMLFAC
 40
1.0
  9
$DIMTOFL
 70
     1
  9
$DIMTVP
 40
0.0
  9
$DIMTIX
 70
     0
  9
$DIMSOXD
 70
     0
  9
$DIMSAH
 70
     1
  9
$DIMBLK1
  1
OPEN30
  9
$DIMBLK2
  1
OPEN30
  9
$DIMSTYLE
  2
MXDIMSTYLE
  9
$DIMCLRD
 70
     0
  9
$DIMCLRE
 70
     0
  9
$DIMCLRT
 70
     0
  9
$DIMTFAC
 40
1.0
  9
$DIMGAP
 40
1.0
  9
$DIMJUST
 70
     0
  9
$DIMSD1
 70
     0
  9
$DIMSD2
 70
     0
  9
$DIMTOLJ
 70
     0
  9
$DIMTZIN
 70
     0
  9
$DIMALTZ
 70
     0
  9
$DIMALTTZ
 70
     0
  9
$DIMUPT
 70
     1
  9
$DIMDEC
 70
     2
  9
$DIMTDEC
 70
     2
  9
$DIMALTU
 70
     2
  9
$DIMALTTD
 70
     4
  9
$DIMTXSTY
  7
MX_NOTE_STANDARD
  9
$DIMAUNIT
 70
     0
  9
$DIMADEC
 70
     0
  9
$DIMALTRND
 40
0.0
  9
$DIMAZIN
 70
     0
  9
$DIMDSEP
 70
    46
  9
$DIMATFIT
 70
     3
  9
$DIMFRAC
 70
     0
  9
$DIMLDRBLK
  1
OPEN30
  9
$DIMLUNIT
 70
     2
  9
$DIMLWD
 70
    -2
  9
$DIMLWE
 70
    -2
  9
$DIMTMOVE
 70
     0
  9
$LUNITS
 70
     2
  9
$LUPREC
 70
     4
  9
$SKETCHINC
 40
0.1
  9
$FILLETRAD
 40
0.0
  9
$AUNITS
 70
     0
  9
$AUPREC
 70
     0
  9
$MENU
  1
acad
  9
$ELEVATION
 40
0.0
  9
$PELEVATION
 40
0.0
  9
$THICKNESS
 40
0.0
  9
$LIMCHECK
 70
     0
  9
$CHAMFERA
 40
0.0
  9
$CHAMFERB
 40
0.0
  9
$CHAMFERC
 40
0.0
  9
$CHAMFERD
 40
0.0
  9
$SKPOLY
 70
     0
  9
$TDCREATE
 40
2455288.610750983
  9
$TDUCREATE
 40
2455288.235750983
  9
$TDUPDATE
 40
2455288.622791736
  9
$TDUUPDATE
 40
2455288.247791735
  9
$TDINDWG
 40
0.0025975926
  9
$TDUSRTIMER
 40
0.0025975926
  9
$USRTIMER
 70
     1
  9
$ANGBASE
 50
0.0
  9
$ANGDIR
 70
     0
  9
$PDMODE
 70
     0
  9
$PDSIZE
 40
0.0
  9
$PLINEWID
 40
0.0
  9
$SPLFRAME
 70
     0
  9
$SPLINETYPE
 70
     6
  9
$SPLINESEGS
 70
     8
  9
$HANDSEED
  5
3B6
  9
$SURFTAB1
 70
     6
  9
$SURFTAB2
 70
     6
  9
$SURFTYPE
 70
     6
  9
$SURFU
 70
     6
  9
$SURFV
 70
     6
  9
$UCSBASE
  2

  9
$UCSNAME
  2

  9
$UCSORG
 10
0.0
 20
0.0
 30
0.0
  9
$UCSXDIR
 10
1.0
 20
0.0
 30
0.0
  9
$UCSYDIR
 10
0.0
 20
1.0
 30
0.0
  9
$UCSORTHOREF
  2

  9
$UCSORTHOVIEW
 70
     0
  9
$UCSORGTOP
 10
0.0
 20
0.0
 30
0.0
  9
$UCSORGBOTTOM
 10
0.0
 20
0.0
 30
0.0
  9
$UCSORGLEFT
 10
0.0
 20
0.0
 30
0.0
  9
$UCSORGRIGHT
 10
0.0
 20
0.0
 30
0.0
  9
$UCSORGFRONT
 10
0.0
 20
0.0
 30
0.0
  9
$UCSORGBACK
 10
0.0
 20
0.0
 30
0.0
  9
$PUCSBASE
  2

  9
$PUCSNAME
  2

  9
$PUCSORG
 10
0.0
 20
0.0
 30
0.0
  9
$PUCSXDIR
 10
1.0
 20
0.0
 30
0.0
  9
$PUCSYDIR
 10
0.0
 20
1.0
 30
0.0
  9
$PUCSORTHOREF
  2

  9
$PUCSORTHOVIEW
 70
     0
  9
$PUCSORGTOP
 10
0.0
 20
0.0
 30
0.0
  9
$PUCSORGBOTTOM
 10
0.0
 20
0.0
 30
0.0
  9
$PUCSORGLEFT
 10
0.0
 20
0.0
 30
0.0
  9
$PUCSORGRIGHT
 10
0.0
 20
0.0
 30
0.0
  9
$PUCSORGFRONT
 10
0.0
 20
0.0
 30
0.0
  9
$PUCSORGBACK
 10
0.0
 20
0.0
 30
0.0
  9
$USERI1
 70
     0
  9
$USERI2
 70
     0
  9
$USERI3
 70
     0
  9
$USERI4
 70
     0
  9
$USERI5
 70
     0
  9
$USERR1
 40
0.0
  9
$USERR2
 40
0.0
  9
$USERR3
 40
0.0
  9
$USERR4
 40
0.0
  9
$USERR5
 40
0.0
  9
$WORLDVIEW
 70
     1
  9
$SHADEDGE
 70
     3
  9
$SHADEDIF
 70
    70
  9
$TILEMODE
 70
     1
  9
$MAXACTVP
 70
    16
  9
$PINSBASE
 10
0.0
 20
0.0
 30
0.0
  9
$PLIMCHECK
 70
     0
  9
$PEXTMIN
 10
1.000000000000000E+20
 20
1.000000000000000E+20
 30
1.000000000000000E+20
  9
$PEXTMAX
 10
-1.000000000000000E+20
 20
-1.000000000000000E+20
 30
-1.000000000000000E+20
  9
$PLIMMIN
 10
0.0
 20
0.0
  9
$PLIMMAX
 10
12.0
 20
9.0
  9
$UNITMODE
 70
     0
  9
$VISRETAIN
 70
     0
  9
$PLINEGEN
 70
     1
  9
$PSLTSCALE
 70
     0
  9
$TREEDEPTH
 70
  3020
  9
$CMLSTYLE
  2
Standard
  9
$CMLJUST
 70
     0
  9
$CMLSCALE
 40
1.0
  9
$PROXYGRAPHICS
 70
     0
  9
$MEASUREMENT
 70
     1
  9
$CELWEIGHT
370
     0
  9
$ENDCAPS
280
     0
  9
$JOINSTYLE
280
     0
  9
$LWDISPLAY
290
     0
  9
$INSUNITS
 70
     0
  9
$HYPERLINKBASE
  1

  9
$STYLESHEET
  1

  9
$XEDIT
290
     1
  9
$CEPSNTYPE
380
     0
  9
$PSTYLEMODE
290
     1
  9
$FINGERPRINTGUID
  2

  9
$VERSIONGUID
  2
{B59C331F-60D4-44F8-9879-603AC52D240B}
  9
$EXTNAMES
290
     1
  9
$PSVPSCALE
 40
0.0
  9
$OLESTARTUP
290
     0
  0
ENDSEC
  0
SECTION
  2
CLASSES
  0
CLASS
  1
LWPOLYLINE
  2
AcDbPolyline
  3
AutoCAD 2000
 90
    32768
280
     0
281
     1
  0
CLASS
  1
IMAGE
  2
AcDbRasterImage
  3
ISM
 90
    32895
280
     0
281
     1
  0
CLASS
  1
OLE2FRAME
  2
AcDbOle2Frame
  3
AutoCAD 2000
 90
    32768
280
     0
281
     1
  0
CLASS
  1
HATCH
  2
AcDbHatch
  3
AutoCAD 2000
 90
    32768
280
     0
281
     1
  0
CLASS
  1
DICTIONARYVAR
  2
AcDbDictionaryVar
  3
AutoCAD 2000
 90
    32768
280
     0
281
     0
  0
CLASS
  1
RASTERVARIABLES
  2
AcDbRasterVariables
  3
ISM
 90
    32768
280
     0
281
     0
  0
CLASS
  1
IMAGEDEF
  2
AcDbRasterImageDef
  3
ISM
 90
    32768
280
     0
281
     0
  0
CLASS
  1
IMAGEDEF_REACTOR
  2
AcDbRasterImageDefReactor
  3
ISM
 90
    32769
280
     0
281
     0
  0
CLASS
  1
IDBUFFER
  2
AcDbIdBuffer
  3
AutoCAD 2000
 90
    32768
280
     0
281
     0
  0
CLASS
  1
SPATIAL_FILTER
  2
AcDbSpatialFilter
  3
AutoCAD 2000
 90
    32768
280
     0
281
     0
  0
CLASS
  1
XRECORD
  2
AcDbXrecord
  3
AutoCAD 2000
 90
    32768
280
     0
281
     0
  0
CLASS
  1
SORTENTSTABLE
  2
AcDbSortentsTable
  3
AutoCAD 2000
 90
    32768
280
     0
281
     0
  0
CLASS
  1
LAYER_INDEX
  2
AcDbLayerIndex
  3
AutoCAD 2000
 90
    32768
280
     0
281
     0
  0
CLASS
  1
SPATIAL_INDEX
  2
AcDbSpatialIndex
  3
AutoCAD 2000
 90
    32768
280
     0
281
     0
  0
CLASS
  1
OBJECT_PTR
  2
CAseDLPNTableRecord
  3
"ASE-LPNTableRecord"
 90
    32769
280
     0
281
     0
  0
CLASS
  1
LAYOUT
  2
AcDbLayout
  3
AutoCAD 2000
 90
        0
280
     0
281
     0
  0
CLASS
  1
PLOTSETTINGS
  2
AcDbPlotSettings
  3
AutoCAD 2000
 90
    32768
280
     0
281
     0
  0
CLASS
  1
ACDBDICTIONARYWDFLT
  2
AcDbDictionaryWithDefault
  3
AutoCAD 2000
 90
        0
280
     0
281
     0
  0
CLASS
  1
ACDBPLACEHOLDER
  2
AcDbPlaceHolder
  3
AutoCAD 2000
 90
        0
280
     0
281
     0
  0
ENDSEC
  0
SECTION
  2
TABLES
  0
TABLE
  2
VPORT
  5
7
330
0
100
AcDbSymbolTable
 70
     2
  0
VPORT
  5
3B5
330
7
100
AcDbSymbolTableRecord
100
AcDbViewportTableRecord
  2
*Active
 70
     0
 10
0.0
 20
0.0
 11
1.0
 21
1.0
 12
-12.37183399999975
 22
17.83617312071106
 13
0.0
 23
0.0
 14
1.0
 24
1.0
 15
0.0
 25
0.0
 16
0.0
 26
0.0
 36
1.0
 17
0.0
 27
0.0
 37
0.0
 40
407.0456622414221
 41
1.535714285714285
 42
50.0
 43
0.0
 44
0.0
 50
0.0
 51
0.0
 71
     0
 72
   100
 73
     1
 74
     1
 75
     0
 76
     0
 77
     0
 78
     0
281
     0
 65
     0
110
0.0
120
0.0
130
0.0
111
1.0
121
0.0
131
0.0
112
0.0
122
1.0
132
0.0
 79
     0
146
0.0
  0
ENDTAB
  0
TABLE
  2
LTYPE
  5
4
330
0
100
AcDbSymbolTable
 70
     4
  0
LTYPE
  5
11
330
4
100
AcDbSymbolTableRecord
100
AcDbLinetypeTableRecord
  2
BYBLOCK
 70
     0
  3

 72
    65
 73
     0
 40
0.0
  0
LTYPE
  5
12
330
4
100
AcDbSymbolTableRecord
100
AcDbLinetypeTableRecord
  2
BYLAYER
 70
     0
  3

 72
    65
 73
     0
 40
0.0
  0
LTYPE
  5
13
330
4
100
AcDbSymbolTableRecord
100
AcDbLinetypeTableRecord
  2
CONTINUOUS
 70
     0
  3
Solid line
 72
    65
 73
     0
 40
0.0
  0
LTYPE
  5
317
330
4
100
AcDbSymbolTableRecord
100
AcDbLinetypeTableRecord
  2
PHANTOM
 70
     0
  3
Phantom ______  __  __  ______  __  __  ______
 72
    65
 73
     6
 40
63.5
 49
31.75
 74
     0
 49
-6.349999999999998
 74
     0
 49
6.349999999999998
 74
     0
 49
-6.349999999999998
 74
     0
 49
6.349999999999998
 74
     0
 49
-6.349999999999998
 74
     0
  0
LTYPE
  5
35D
330
4
100
AcDbSymbolTableRecord
100
AcDbLinetypeTableRecord
  2
DASHED
 70
     0
  3
Dashed __ __ __ __ __ __ __ __ __ __ __ __ __ _
 72
    65
 73
     2
 40
19.05
 49
12.7
 74
     0
 49
-6.349999999999998
 74
     0
  0
LTYPE
  5
37B
330
4
100
AcDbSymbolTableRecord
100
AcDbLinetypeTableRecord
  2
CENTER
 70
     0
  3
Center ____ _ ____ _ ____ _ ____ _ ____ _ ____
 72
    65
 73
     4
 40
50.8
 49
31.75
 74
     0
 49
-6.349999999999998
 74
     0
 49
6.349999999999998
 74
     0
 49
-6.349999999999998
 74
     0
  0
ENDTAB
  0
TABLE
  2
LAYER
  5
2
330
0
100
AcDbSymbolTable
 70
     4
  0
LAYER
  5
14
330
2
100
AcDbSymbolTableRecord
100
AcDbLayerTableRecord
  2
0
 70
     0
 62
     7
  6
CONTINUOUS
370
    -3
390
1D
  0
LAYER
  5
23
330
2
100
AcDbSymbolTableRecord
100
AcDbLayerTableRecord
  2
DEFPOINTS
 70
     0
 62
     7
  6
CONTINUOUS
290
     0
370
    -3
390
1D
  0
LAYER
  5
24
330
2
100
AcDbSymbolTableRecord
100
AcDbLayerTableRecord
  2
PV
 70
     0
 62
     7
  6
CONTINUOUS
370
    -3
390
1D
  0
LAYER
  5
25
330
2
100
AcDbSymbolTableRecord
100
AcDbLayerTableRecord
  2
WV
 70
     0
 62
     7
  6
CONTINUOUS
370
    -3
390
1D
  0
ENDTAB
  0
TABLE
  2
STYLE
  5
3
330
0
100
AcDbSymbolTable
 70
     2
  0
STYLE
  5
17
330
3
100
AcDbSymbolTableRecord
100
AcDbTextStyleTableRecord
  2
MX_NOTE_STANDARD
 70
     0
 40
0.0
 41
1.0
 50
0.0
 71
     0
 42
3.2
  3
txt.shx
  4
extfont.shx
  0
STYLE
  5
3AB
330
3
100
AcDbSymbolTableRecord
100
AcDbTextStyleTableRecord
  2
Standard
 70
     0
 40
0.0
 41
1.0
 50
0.0
 71
     0
 42
0.2
  3

  4

  0
ENDTAB
  0
TABLE
  2
VIEW
  5
5
330
0
100
AcDbSymbolTable
 70
     0
  0
ENDTAB
  0
TABLE
  2
UCS
  5
6
330
0
100
AcDbSymbolTable
 70
     0
  0
ENDTAB
  0
TABLE
  2
APPID
  5
8
330
0
100
AcDbSymbolTable
 70
     1
  0
APPID
  5
16
330
8
100
AcDbSymbolTableRecord
100
AcDbRegAppTableRecord
  2
ACAD
 70
     0
  0
ENDTAB
  0
TABLE
  2
DIMSTYLE
  5
9
330
0
100
AcDbSymbolTable
 70
     1
100
AcDbDimStyleTable
 71
     0
  0
DIMSTYLE
105
18
330
9
100
AcDbSymbolTableRecord
100
AcDbDimStyleTableRecord
  2
MXDIMSTYLE
 70
     0
 41
2.5
 42
2.54
 43
3.75
 44
2.286
 73
     0
 74
     0
 77
     1
 78
     8
140
3.2
141
2.5
143
0.03937
147
1.0
171
     4
172
     1
173
     1
271
     2
272
     2
274
     4
283
     0
288
     1
340
17
341
26
343
26
344
26
  0
ENDTAB
  0
TABLE
  2
BLOCK_RECORD
  5
1
330
0
100
AcDbSymbolTable
 70
     1
  0
BLOCK_RECORD
  5
A
330
1
100
AcDbSymbolTableRecord
100
AcDbBlockTableRecord
  2
*MODEL_SPACE
340
20
  0
BLOCK_RECORD
  5
B
330
1
100
AcDbSymbolTableRecord
100
AcDbBlockTableRecord
  2
*PAPER_SPACE
340
21
  0
BLOCK_RECORD
  5
26
330
1
100
AcDbSymbolTableRecord
100
AcDbBlockTableRecord
  2
_OPEN30
340
0
  0
ENDTAB
  0
ENDSEC
  0
SECTION
  2
BLOCKS
  0
BLOCK
  5
D
330
A
100
AcDbEntity
  8
0
100
AcDbBlockBegin
  2
*MODEL_SPACE
 70
     0
 10
0.0
 20
0.0
 30
0.0
  3
*MODEL_SPACE
  1

  0
ENDBLK
  5
E
330
A
100
AcDbEntity
  8
0
100
AcDbBlockEnd
  0
BLOCK
  5
F
330
B
100
AcDbEntity
 67
     1
  8
0
100
AcDbBlockBegin
  2
*PAPER_SPACE
 70
     0
 10
0.0
 20
0.0
 30
0.0
  3
*PAPER_SPACE
  1

  0
ENDBLK
  5
10
330
B
100
AcDbEntity
 67
     1
  8
0
100
AcDbBlockEnd
  0
BLOCK
  5
27
330
26
100
AcDbEntity
  8
0
  6
ByBlock
 62
     0
370
    -2
100
AcDbBlockBegin
  2
_OPEN30
 70
     2
 10
0.0
 20
0.0
 30
0.0
  3
_OPEN30
  1

  0
LINE
  5
28
330
26
100
AcDbEntity
  8
0
  6
ByBlock
 62
     0
370
    -2
100
AcDbLine
 10
-1.0
 20
0.267949
 30
0.0
 11
0.0
 21
0.0
 31
0.0
  0
LINE
  5
29
330
26
100
AcDbEntity
  8
0
  6
ByBlock
 62
     0
370
    -2
100
AcDbLine
 10
0.0
 20
0.0
 30
0.0
 11
-1.0
 21
-0.267949
 31
0.0
  0
LINE
  5
2A
330
26
100
AcDbEntity
  8
0
  6
ByBlock
 62
     0
370
    -2
100
AcDbLine
 10
0.0
 20
0.0
 30
0.0
 11
-1.0
 21
0.0
 31
0.0
  0
ENDBLK
  5
2B
330
26
100
AcDbEntity
  8
0
  6
ByBlock
 62
     0
370
    -2
100
AcDbBlockEnd
  0
ENDSEC
  0
SECTION
  2
ENTITIES
  0
LINE
  5
2C
330
A
100
AcDbEntity
  8
0
  6
Continuous
 62
     7
100
AcDbLine
 10
59.80399999999999
 20
9.5
 30
0.0
 11
59.80399999999999
 21
55.140364
 31
0.0
  0
LINE
  5
2D
330
A
100
AcDbEntity
  8
PV
  6
Continuous
 62
     7
100
AcDbLine
 10
-62.22999999999998
 20
162.422
 30
0.0
 11
-65.0
 21
163.165
 31
0.0
  0
LINE
  5
2E
330
A
100
AcDbEntity
  8
PV
  6
Continuous
 62
     7
100
AcDbLine
 10
-65.0
 20
163.165
 30
0.0
 11
-62.22999999999998
 21
163.907
 31
0.0
  0
LINE
  5
2F
330
A
100
AcDbEntity
  8
PV
  6
Continuous
 62
     7
100
AcDbLine
 10
-65.0
 20
163.165
 30
0.0
 11
-62.22999999999998
 21
163.165
 31
0.0
  0
LINE
  5
30
330
A
100
AcDbEntity
  8
PV
  6
Continuous
 62
     7
100
AcDbLine
 10
37.72999999999999
 20
163.907
 30
0.0
 11
40.49999999999999
 21
163.165
 31
0.0
  0
LINE
  5
31
330
A
100
AcDbEntity
  8
PV
  6
Continuous
 62
     7
100
AcDbLine
 10
40.49999999999999
 20
163.165
 30
0.0
 11
37.72999999999999
 21
162.422
 31
0.0
  0
LINE
  5
32
330
A
100
AcDbEntity
  8
PV
  6
Continuous
 62
     7
100
AcDbLine
 10
40.49999999999999
 20
163.165
 30
0.0
 11
37.72999999999999
 21
163.165
 31
0.0
  0
LINE
  5
33
330
A
100
AcDbEntity
  8
PV
  6
Continuous
 62
     7
100
AcDbLine
 10
-65.0
 20
163.165
 30
0.0
 11
40.49999999999999
 21
163.165
 31
0.0
  0
LINE
  5
34
330
A
100
AcDbEntity
  8
PV
  6
Continuous
 62
     7
100
AcDbLine
 10
-65.0
 20
143.0459999999999
 30
0.0
 11
-65.0
 21
165.4509999999999
 31
0.0
  0
LINE
  5
35
330
A
100
AcDbEntity
  8
PV
  6
Continuous
 62
     7
100
AcDbLine
 10
40.49999999999999
 20
149.733
 30
0.0
 11
40.49999999999999
 21
165.4509999999999
 31
0.0
  0
MTEXT
  5
36
330
A
100
AcDbEntity
  8
PV
  6
Continuous
 62
     7
100
AcDbMText
 10
-12.25
 20
171.265001
 30
0.0
 40
6.5
 41
0.0
 71
     2
 72
     1
  1
\A1;105.5
 73
     1
 44
1.0
  0
POINT
  5
37
330
A
100
AcDbEntity
  8
PV
  6
Continuous
 62
     7
100
AcDbPoint
 10
-65.0
 20
140.5059999999999
 30
0.0
  0
POINT
  5
38
330
A
100
AcDbEntity
  8
PV
  6
Continuous
 62
     7
100
AcDbPoint
 10
40.49999999999999
 20
147.1929999999999
 30
0.0
  0
POINT
  5
39
330
A
100
AcDbEntity
  8
PV
  6
Continuous
 62
     7
100
AcDbPoint
 10
40.49999999999999
 20
163.165
 30
0.0
  0
LINE
  5
3A
330
A
100
AcDbEntity
  8
PV
  6
Continuous
 62
     7
100
AcDbLine
 10
35.22999999999999
 20
-111.2689999999999
 30
0.0
 11
38.0
 21
-112.012
 31
0.0
  0
LINE
  5
3B
330
A
100
AcDbEntity
  8
PV
  6
Continuous
 62
     7
100
AcDbLine
 10
38.0
 20
-112.012
 30
0.0
 11
35.22999999999999
 21
-112.7539999999999
 31
0.0
  0
LINE
  5
3C
330
A
100
AcDbEntity
  8
PV
  6
Continuous
 62
     7
100
AcDbLine
 10
38.0
 20
-112.012
 30
0.0
 11
35.22999999999999
 21
-112.012
 31
0.0
  0
LINE
  5
3D
330
A
100
AcDbEntity
  8
PV
  6
Continuous
 62
     7
100
AcDbLine
 10
-35.22999999999999
 20
-112.7539999999999
 30
0.0
 11
-38.0
 21
-112.012
 31
0.0
  0
LINE
  5
3E
330
A
100
AcDbEntity
  8
PV
  6
Continuous
 62
     7
100
AcDbLine
 10
-38.0
 20
-112.012
 30
0.0
 11
-35.22999999999999
 21
-111.2689999999999
 31
0.0
  0
LINE
  5
3F
330
A
100
AcDbEntity
  8
PV
  6
Continuous
 62
     7
100
AcDbLine
 10
-38.0
 20
-112.012
 30
0.0
 11
-35.22999999999999
 21
-112.012
 31
0.0
  0
LINE
  5
40
330
A
100
AcDbEntity
  8
PV
  6
Continuous
 62
     7
100
AcDbLine
 10
38.0
 20
-112.012
 30
0.0
 11
-38.0
 21
-112.012
 31
0.0
  0
MTEXT
  5
41
330
A
100
AcDbEntity
  8
PV
  6
Continuous
 62
     7
100
AcDbMText
 10
12.052
 20
-103.9119989999999
 30
0.0
 40
6.5
 41
0.0
 71
     2
 72
     1
  1
\T0.912;\W1.064;\A1;\U+220576
 73
     1
 44
1.0
  0
POINT
  5
42
330
A
100
AcDbEntity
  8
PV
  6
Continuous
 62
     7
100
AcDbPoint
 10
38.0
 20
-113.5
 30
0.0
  0
POINT
  5
43
330
A
100
AcDbEntity
  8
PV
  6
Continuous
 62
     7
100
AcDbPoint
 10
-38.0
 20
-109.85
 30
0.0
  0
POINT
  5
44
330
A
100
AcDbEntity
  8
PV
  6
Continuous
 62
     7
100
AcDbPoint
 10
-38.0
 20
-112.012
 30
0.0
  0
LINE
  5
45
330
A
100
AcDbEntity
  8
PV
  6
Continuous
 62
     7
100
AcDbLine
 10
59.062
 20
-31.77
 30
0.0
 11
59.80399999999999
 21
-29.0
 31
0.0
  0
LINE
  5
46
330
A
100
AcDbEntity
  8
PV
  6
Continuous
 62
     7
100
AcDbLine
 10
59.80399999999999
 20
-29.0
 30
0.0
 11
60.546
 21
-31.77
 31
0.0
  0
LINE
  5
47
330
A
100
AcDbEntity
  8
PV
  6
Continuous
 62
     7
100
AcDbLine
 10
59.80399999999999
 20
-29.0
 30
0.0
 11
59.80399999999999
 21
-31.77
 31
0.0
  0
LINE
  5
48
330
A
100
AcDbEntity
  8
PV
  6
Continuous
 62
     7
100
AcDbLine
 10
60.546
 20
-150.7299999999998
 30
0.0
 11
59.80399999999999
 21
-153.5
 31
0.0
  0
LINE
  5
49
330
A
100
AcDbEntity
  8
PV
  6
Continuous
 62
     7
100
AcDbLine
 10
59.80399999999999
 20
-153.5
 30
0.0
 11
59.062
 21
-150.7299999999998
 31
0.0
  0
LINE
  5
4A
330
A
100
AcDbEntity
  8
PV
  6
Continuous
 62
     7
100
AcDbLine
 10
59.80399999999999
 20
-153.5
 30
0.0
 11
59.80399999999999
 21
-150.7299999999998
 31
0.0
  0
LINE
  5
4B
330
A
100
AcDbEntity
  8
PV
  6
Continuous
 62
     7
100
AcDbLine
 10
59.80399999999999
 20
-29.0
 30
0.0
 11
59.80399999999999
 21
-153.5
 31
0.0
  0
LINE
  5
4C
330
A
100
AcDbEntity
  8
PV
  6
Continuous
 62
     7
100
AcDbLine
 10
41.993
 20
-29.0
 30
0.0
 11
62.09
 21
-29.0
 31
0.0
  0
MTEXT
  5
4D
330
A
100
AcDbEntity
  8
PV
  6
Continuous
 62
     7
100
AcDbMText
 10
51.70399899999999
 20
-91.25
 30
0.0
 40
6.5
 41
0.0
 71
     2
 72
     1
  1
\A1;124.5
 11
0.0
 21
1.0
 31
0.0
 73
     1
 44
1.0
  0
POINT
  5
4E
330
A
100
AcDbEntity
  8
PV
  6
Continuous
 62
     7
100
AcDbPoint
 10
39.453
 20
-29.0
 30
0.0
  0
POINT
  5
4F
330
A
100
AcDbEntity
  8
PV
  6
Continuous
 62
     7
100
AcDbPoint
 10
27.5
 20
-153.5
 30
0.0
  0
POINT
  5
50
330
A
100
AcDbEntity
  8
PV
  6
Continuous
 62
     7
100
AcDbPoint
 10
59.80399999999999
 20
-153.5
 30
0.0
  0
LINE
  5
51
330
A
100
AcDbEntity
  8
PV
  6
Continuous
 62
     7
100
AcDbLine
 10
69.65899999999999
 20
6.73
 30
0.0
 11
70.40100000000002
 21
9.5
 31
0.0
  0
LINE
  5
52
330
A
100
AcDbEntity
  8
PV
  6
Continuous
 62
     7
100
AcDbLine
 10
70.40100000000002
 20
9.5
 30
0.0
 11
71.143
 21
6.73
 31
0.0
  0
LINE
  5
53
330
A
100
AcDbEntity
  8
PV
  6
Continuous
 62
     7
100
AcDbLine
 10
70.40100000000002
 20
9.5
 30
0.0
 11
70.40100000000002
 21
6.73
 31
0.0
  0
LINE
  5
54
330
A
100
AcDbEntity
  8
PV
  6
Continuous
 62
     7
100
AcDbLine
 10
71.143
 20
-150.7299999999998
 30
0.0
 11
70.40100000000002
 21
-153.5
 31
0.0
  0
LINE
  5
55
330
A
100
AcDbEntity
  8
PV
  6
Continuous
 62
     7
100
AcDbLine
 10
70.40100000000002
 20
-153.5
 30
0.0
 11
69.65899999999999
 21
-150.7299999999998
 31
0.0
  0
LINE
  5
56
330
A
100
AcDbEntity
  8
PV
  6
Continuous
 62
     7
100
AcDbLine
 10
70.40100000000002
 20
-153.5
 30
0.0
 11
70.40100000000002
 21
-150.7299999999998
 31
0.0
  0
LINE
  5
57
330
A
100
AcDbEntity
  8
PV
  6
Continuous
 62
     7
100
AcDbLine
 10
70.40100000000002
 20
9.5
 30
0.0
 11
70.40100000000002
 21
-153.5
 31
0.0
  0
LINE
  5
58
330
A
100
AcDbEntity
  8
PV
  6
Continuous
 62
     7
100
AcDbLine
 10
28.04
 20
9.5
 30
0.0
 11
72.68699999999999
 21
9.5
 31
0.0
  0
LINE
  5
59
330
A
100
AcDbEntity
  8
PV
  6
Continuous
 62
     7
100
AcDbLine
 10
30.04
 20
-153.5
 30
0.0
 11
72.68699999999999
 21
-153.5
 31
0.0
  0
MTEXT
  5
5A
330
A
100
AcDbEntity
  8
PV
  6
Continuous
 62
     7
100
AcDbMText
 10
62.30099899999999
 20
-71.25
 30
0.0
 40
6.5
 41
0.0
 71
     2
 72
     1
  1
\A1;163～178
 11
0.0
 21
1.0
 31
0.0
 73
     1
 44
1.0
  0
POINT
  5
5B
330
A
100
AcDbEntity
  8
PV
  6
Continuous
 62
     7
100
AcDbPoint
 10
25.5
 20
9.5
 30
0.0
  0
POINT
  5
5C
330
A
100
AcDbEntity
  8
PV
  6
Continuous
 62
     7
100
AcDbPoint
 10
27.5
 20
-153.5
 30
0.0
  0
POINT
  5
5D
330
A
100
AcDbEntity
  8
PV
  6
Continuous
 62
     7
100
AcDbPoint
 10
70.40100000000002
 20
-153.5
 30
0.0
  0
LINE
  5
5E
330
A
100
AcDbEntity
  8
PV
  6
Continuous
 62
     7
100
AcDbLine
 10
61.776
 20
150.736
 30
0.0
 11
62.519
 21
153.506
 31
0.0
  0
LINE
  5
5F
330
A
100
AcDbEntity
  8
PV
  6
Continuous
 62
     7
100
AcDbLine
 10
62.519
 20
153.506
 30
0.0
 11
63.261
 21
150.736
 31
0.0
  0
LINE
  5
60
330
A
100
AcDbEntity
  8
PV
  6
Continuous
 62
     7
100
AcDbLine
 10
62.519
 20
153.506
 30
0.0
 11
62.519
 21
150.736
 31
0.0
  0
LINE
  5
61
330
A
100
AcDbEntity
  8
PV
  6
Continuous
 62
     7
100
AcDbLine
 10
63.261
 20
75.27600000000003
 30
0.0
 11
62.519
 21
72.506
 31
0.0
  0
LINE
  5
62
330
A
100
AcDbEntity
  8
PV
  6
Continuous
 62
     7
100
AcDbLine
 10
62.519
 20
72.506
 30
0.0
 11
61.776
 21
75.27600000000003
 31
0.0
  0
LINE
  5
63
330
A
100
AcDbEntity
  8
PV
  6
Continuous
 62
     7
100
AcDbLine
 10
62.519
 20
72.506
 30
0.0
 11
62.519
 21
75.27600000000003
 31
0.0
  0
LINE
  5
64
330
A
100
AcDbEntity
  8
PV
  6
Continuous
 62
     7
100
AcDbLine
 10
62.519
 20
153.506
 30
0.0
 11
62.519
 21
72.506
 31
0.0
  0
LINE
  5
65
330
A
100
AcDbEntity
  8
PV
  6
Continuous
 62
     7
100
AcDbLine
 10
36.72699999999998
 20
153.506
 30
0.0
 11
64.80500000000001
 21
153.506
 31
0.0
  0
LINE
  5
66
330
A
100
AcDbEntity
  8
PV
  6
Continuous
 62
     7
100
AcDbLine
 10
36.72699999999998
 20
72.506
 30
0.0
 11
64.80500000000001
 21
72.506
 31
0.0
  0
MTEXT
  5
67
330
A
100
AcDbEntity
  8
PV
  6
Continuous
 62
     7
100
AcDbMText
 10
54.419
 20
113.148
 30
0.0
 40
6.5
 41
0.0
 71
     2
 72
     1
  1
\A1;□81
 11
0.0
 21
1.0
 31
0.0
 73
     1
 44
1.0
  0
POINT
  5
68
330
A
100
AcDbEntity
  8
PV
  6
Continuous
 62
     7
100
AcDbPoint
 10
34.18699999999999
 20
153.506
 30
0.0
  0
POINT
  5
69
330
A
100
AcDbEntity
  8
PV
  6
Continuous
 62
     7
100
AcDbPoint
 10
34.18699999999999
 20
72.506
 30
0.0
  0
POINT
  5
6A
330
A
100
AcDbEntity
  8
PV
  6
Continuous
 62
     7
100
AcDbPoint
 10
62.519
 20
72.506
 30
0.0
  0
LINE
  5
6B
330
A
100
AcDbEntity
  8
PV
  6
Continuous
 62
     7
100
AcDbLine
 10
47.21
 20
-19.508
 30
0.0
 11
44.43999999999999
 21
-20.24999999999999
 31
0.0
  0
LINE
  5
6C
330
A
100
AcDbEntity
  8
PV
  6
Continuous
 62
     7
100
AcDbLine
 10
44.43999999999999
 20
-20.24999999999999
 30
0.0
 11
46.468
 21
-18.222
 31
0.0
  0
LINE
  5
6D
330
A
100
AcDbEntity
  8
PV
  6
Continuous
 62
     7
100
AcDbLine
 10
44.43999999999999
 20
-20.24999999999999
 30
0.0
 11
46.839
 21
-18.86499999999998
 31
0.0
  0
LINE
  5
6E
330
A
100
AcDbEntity
  8
PV
  6
Continuous
 62
     7
100
AcDbLine
 10
43.698
 20
-19.26999999999998
 30
0.0
 11
44.43999999999999
 21
-16.5
 31
0.0
  0
LINE
  5
6F
330
A
100
AcDbEntity
  8
PV
  6
Continuous
 62
     7
100
AcDbLine
 10
44.43999999999999
 20
-16.5
 30
0.0
 11
45.18199999999999
 21
-19.26999999999998
 31
0.0
  0
LINE
  5
70
330
A
100
AcDbEntity
  8
PV
  6
Continuous
 62
     7
100
AcDbLine
 10
44.43999999999999
 20
-16.5
 30
0.0
 11
44.43999999999999
 21
-19.26999999999998
 31
0.0
  0
LINE
  5
71
330
A
100
AcDbEntity
  8
PV
  6
Continuous
 62
     7
100
AcDbLine
 10
45.18199999999999
 20
-21.23
 30
0.0
 11
44.43999999999999
 21
-24.0
 31
0.0
  0
LINE
  5
72
330
A
100
AcDbEntity
  8
PV
  6
Continuous
 62
     7
100
AcDbLine
 10
44.43999999999999
 20
-24.0
 30
0.0
 11
43.698
 21
-21.23
 31
0.0
  0
LINE
  5
73
330
A
100
AcDbEntity
  8
PV
  6
Continuous
 62
     7
100
AcDbLine
 10
44.43999999999999
 20
-24.0
 30
0.0
 11
44.43999999999999
 21
-21.23
 31
0.0
  0
LINE
  5
74
330
A
100
AcDbEntity
  8
PV
  6
Continuous
 62
     7
100
AcDbLine
 10
44.43999999999999
 20
-16.5
 30
0.0
 11
44.43999999999999
 21
-24.0
 31
0.0
  0
LINE
  5
75
330
A
100
AcDbEntity
  8
PV
  6
Continuous
 62
     7
100
AcDbLine
 10
28.54
 20
-24.0
 30
0.0
 11
46.726
 21
-24.0
 31
0.0
  0
LINE
  5
76
330
A
100
AcDbEntity
  8
PV
  6
Continuous
 62
     7
100
AcDbLine
 10
44.43999999999999
 20
-20.24999999999999
 30
0.0
 11
51.981
 21
-15.89599999999999
 31
0.0
  0
LINE
  5
77
330
A
100
AcDbEntity
  8
PV
  6
Continuous
 62
     7
100
AcDbLine
 10
51.981
 20
-15.89599999999999
 30
0.0
 11
51.981
 21
49.409453
 31
0.0
  0
MTEXT
  5
78
330
A
100
AcDbEntity
  8
PV
  6
Continuous
 62
     7
100
AcDbMText
 10
45.46732399999998
 20
31.238438
 30
0.0
 40
5.5
 41
0.0
 71
     2
 72
     1
  1
\A1;7.5～22.5
 11
0.0
 21
1.0
 31
0.0
 73
     1
 44
1.0
  0
POINT
  5
79
330
A
100
AcDbEntity
  8
PV
  6
Continuous
 62
     7
100
AcDbPoint
 10
30.0
 20
-16.5
 30
0.0
  0
POINT
  5
7A
330
A
100
AcDbEntity
  8
PV
  6
Continuous
 62
     7
100
AcDbPoint
 10
26.0
 20
-24.0
 30
0.0
  0
POINT
  5
7B
330
A
100
AcDbEntity
  8
PV
  6
Continuous
 62
     7
100
AcDbPoint
 10
44.43999999999999
 20
-24.0
 30
0.0
  0
POINT
  5
7C
330
A
100
AcDbEntity
  8
PV
  6
Continuous
 62
     7
100
AcDbPoint
 10
-4.0
 20
-24.0
 30
0.0
  0
POINT
  5
7D
330
A
100
AcDbEntity
  8
PV
  6
Continuous
 62
     7
100
AcDbPoint
 10
4.0
 20
-24.0
 30
0.0
  0
LINE
  5
7E
330
A
100
AcDbEntity
  8
PV
  6
Continuous
 62
     7
100
AcDbLine
 10
-27.23
 20
31.864
 30
0.0
 11
-30.0
 21
32.606
 31
0.0
  0
LINE
  5
7F
330
A
100
AcDbEntity
  8
PV
  6
Continuous
 62
     7
100
AcDbLine
 10
-30.0
 20
32.606
 30
0.0
 11
-27.23
 21
33.34799999999999
 31
0.0
  0
LINE
  5
80
330
A
100
AcDbEntity
  8
PV
  6
Continuous
 62
     7
100
AcDbLine
 10
-30.0
 20
32.606
 30
0.0
 11
-27.23
 21
32.606
 31
0.0
  0
LINE
  5
81
330
A
100
AcDbEntity
  8
PV
  6
Continuous
 62
     7
100
AcDbLine
 10
27.23
 20
33.34799999999999
 30
0.0
 11
30.0
 21
32.606
 31
0.0
  0
LINE
  5
82
330
A
100
AcDbEntity
  8
PV
  6
Continuous
 62
     7
100
AcDbLine
 10
30.0
 20
32.606
 30
0.0
 11
27.23
 21
31.864
 31
0.0
  0
LINE
  5
83
330
A
100
AcDbEntity
  8
PV
  6
Continuous
 62
     7
100
AcDbLine
 10
30.0
 20
32.606
 30
0.0
 11
27.23
 21
32.606
 31
0.0
  0
LINE
  5
84
330
A
100
AcDbEntity
  8
PV
  6
Continuous
 62
     7
100
AcDbLine
 10
-30.0
 20
32.606
 30
0.0
 11
30.0
 21
32.606
 31
0.0
  0
LINE
  5
85
330
A
100
AcDbEntity
  8
PV
  6
Continuous
 62
     7
100
AcDbLine
 10
-30.0
 20
-13.96
 30
0.0
 11
-30.0
 21
34.89199999999998
 31
0.0
  0
LINE
  5
86
330
A
100
AcDbEntity
  8
PV
  6
Continuous
 62
     7
100
AcDbLine
 10
30.0
 20
-13.96
 30
0.0
 11
30.0
 21
34.89199999999998
 31
0.0
  0
MTEXT
  5
87
330
A
100
AcDbEntity
  8
PV
  6
Continuous
 62
     7
100
AcDbMText
 10
0.0
 20
40.706001
 30
0.0
 40
6.5
 41
0.0
 71
     2
 72
     1
  1
\T1.016;\W1.008;\A1;\U+220560
 73
     1
 44
1.0
  0
POINT
  5
88
330
A
100
AcDbEntity
  8
PV
  6
Continuous
 62
     7
100
AcDbPoint
 10
-30.0
 20
-16.5
 30
0.0
  0
POINT
  5
89
330
A
100
AcDbEntity
  8
PV
  6
Continuous
 62
     7
100
AcDbPoint
 10
30.0
 20
-16.5
 30
0.0
  0
POINT
  5
8A
330
A
100
AcDbEntity
  8
PV
  6
Continuous
 62
     7
100
AcDbPoint
 10
30.0
 20
32.606
 30
0.0
  0
LINE
  5
8B
330
A
100
AcDbEntity
  8
PV
  6
Continuous
 62
     7
100
AcDbLine
 10
43.698
 20
6.73
 30
0.0
 11
44.43999999999999
 21
9.5
 31
0.0
  0
LINE
  5
8C
330
A
100
AcDbEntity
  8
PV
  6
Continuous
 62
     7
100
AcDbLine
 10
44.43999999999999
 20
9.5
 30
0.0
 11
45.18199999999999
 21
6.73
 31
0.0
  0
LINE
  5
8D
330
A
100
AcDbEntity
  8
PV
  6
Continuous
 62
     7
100
AcDbLine
 10
44.43999999999999
 20
9.5
 30
0.0
 11
44.43999999999999
 21
6.73
 31
0.0
  0
LINE
  5
8E
330
A
100
AcDbEntity
  8
PV
  6
Continuous
 62
     7
100
AcDbLine
 10
45.18199999999999
 20
-13.73
 30
0.0
 11
44.43999999999999
 21
-16.5
 31
0.0
  0
LINE
  5
8F
330
A
100
AcDbEntity
  8
PV
  6
Continuous
 62
     7
100
AcDbLine
 10
44.43999999999999
 20
-16.5
 30
0.0
 11
43.698
 21
-13.73
 31
0.0
  0
LINE
  5
90
330
A
100
AcDbEntity
  8
PV
  6
Continuous
 62
     7
100
AcDbLine
 10
44.43999999999999
 20
-16.5
 30
0.0
 11
44.43999999999999
 21
-13.73
 31
0.0
  0
LINE
  5
91
330
A
100
AcDbEntity
  8
PV
  6
Continuous
 62
     7
100
AcDbLine
 10
44.43999999999999
 20
9.5
 30
0.0
 11
44.43999999999999
 21
-16.5
 31
0.0
  0
LINE
  5
92
330
A
100
AcDbEntity
  8
PV
  6
Continuous
 62
     7
100
AcDbLine
 10
32.54
 20
-16.5
 30
0.0
 11
46.726
 21
-16.5
 31
0.0
  0
MTEXT
  5
93
330
A
100
AcDbEntity
  8
PV
  6
Continuous
 62
     7
100
AcDbMText
 10
36.339999
 20
-3.5
 30
0.0
 40
6.5
 41
0.0
 71
     2
 72
     1
  1
\W0.952;\A1;26
 11
0.0
 21
1.0
 31
0.0
 73
     1
 44
1.0
  0
POINT
  5
94
330
A
100
AcDbEntity
  8
PV
  6
Continuous
 62
     7
100
AcDbPoint
 10
25.5
 20
9.5
 30
0.0
  0
POINT
  5
95
330
A
100
AcDbEntity
  8
PV
  6
Continuous
 62
     7
100
AcDbPoint
 10
30.0
 20
-16.5
 30
0.0
  0
POINT
  5
96
330
A
100
AcDbEntity
  8
PV
  6
Continuous
 62
     7
100
AcDbPoint
 10
44.43999999999999
 20
-16.5
 30
0.0
  0
LINE
  5
97
330
A
100
AcDbEntity
  8
PV
  6
Continuous
 62
     7
100
AcDbLine
 10
60.546
 20
-26.23
 30
0.0
 11
59.80399999999999
 21
-29.0
 31
0.0
  0
LINE
  5
98
330
A
100
AcDbEntity
  8
PV
  6
Continuous
 62
     7
100
AcDbLine
 10
59.80399999999999
 20
-29.0
 30
0.0
 11
59.062
 21
-26.23
 31
0.0
  0
LINE
  5
99
330
A
100
AcDbEntity
  8
PV
  6
Continuous
 62
     7
100
AcDbLine
 10
59.80399999999999
 20
-29.0
 30
0.0
 11
59.80399999999999
 21
-26.23
 31
0.0
  0
LINE
  5
9A
330
A
100
AcDbEntity
  8
PV
  6
Continuous
 62
     7
100
AcDbLine
 10
59.062
 20
6.73
 30
0.0
 11
59.80399999999999
 21
9.5
 31
0.0
  0
LINE
  5
9B
330
A
100
AcDbEntity
  8
PV
  6
Continuous
 62
     7
100
AcDbLine
 10
59.80399999999999
 20
9.5
 30
0.0
 11
60.546
 21
6.73
 31
0.0
  0
LINE
  5
9C
330
A
100
AcDbEntity
  8
PV
  6
Continuous
 62
     7
100
AcDbLine
 10
59.80399999999999
 20
9.5
 30
0.0
 11
59.80399999999999
 21
6.73
 31
0.0
  0
LINE
  5
9D
330
A
100
AcDbEntity
  8
PV
  6
Continuous
 62
     7
100
AcDbLine
 10
59.80399999999999
 20
-29.0
 30
0.0
 11
59.80399999999999
 21
9.5
 31
0.0
  0
MTEXT
  5
9E
330
A
100
AcDbEntity
  8
PV
  6
Continuous
 62
     7
100
AcDbMText
 10
53.309226
 20
34.260564
 30
0.0
 40
5.5
 41
0.0
 71
     2
 72
     1
  1
\A1;38.5～53.5
 11
0.0
 21
1.0
 31
0.0
 73
     1
 44
1.0
  0
POINT
  5
9F
330
A
100
AcDbEntity
  8
PV
  6
Continuous
 62
     7
100
AcDbPoint
 10
59.80399999999999
 20
-29.0
 30
0.0
  0
POINT
  5
A0
330
A
100
AcDbEntity
  8
PV
  6
Continuous
 62
     7
100
AcDbPoint
 10
68.9
 20
9.5
 30
0.0
  0
POINT
  5
A1
330
A
100
AcDbEntity
  8
PV
  6
Continuous
 62
     7
100
AcDbPoint
 10
59.80399999999999
 20
9.5
 30
0.0
  0
LINE
  5
A2
330
A
100
AcDbEntity
  8
PV
  6
Continuous
 62
     7
100
AcDbLine
 10
26.072
 20
-9.882999999999999
 30
0.0
 11
26.096
 21
-9.853999999999999
 31
0.0
  0
LINE
  5
A3
330
A
100
AcDbEntity
  8
PV
  6
Continuous
 62
     7
100
AcDbLine
 10
26.096
 20
-9.853999999999999
 30
0.0
 11
26.12
 21
-9.823999999999999
 31
0.0
  0
LINE
  5
A4
330
A
100
AcDbEntity
  8
PV
  6
Continuous
 62
     7
100
AcDbLine
 10
26.12
 20
-9.823999999999999
 30
0.0
 11
26.144
 21
-9.792999999999999
 31
0.0
  0
LINE
  5
A5
330
A
100
AcDbEntity
  8
PV
  6
Continuous
 62
     7
100
AcDbLine
 10
26.144
 20
-9.792999999999999
 30
0.0
 11
26.16699999999999
 21
-9.762999999999999
 31
0.0
  0
LINE
  5
A6
330
A
100
AcDbEntity
  8
PV
  6
Continuous
 62
     7
100
AcDbLine
 10
26.16699999999999
 20
-9.762999999999999
 30
0.0
 11
26.19
 21
-9.731999999999999
 31
0.0
  0
LINE
  5
A7
330
A
100
AcDbEntity
  8
PV
  6
Continuous
 62
     7
100
AcDbLine
 10
26.19
 20
-9.731999999999999
 30
0.0
 11
26.21199999999999
 21
-9.699999999999999
 31
0.0
  0
LINE
  5
A8
330
A
100
AcDbEntity
  8
PV
  6
Continuous
 62
     7
100
AcDbLine
 10
26.21199999999999
 20
-9.699999999999999
 30
0.0
 11
26.234
 21
-9.669
 31
0.0
  0
LINE
  5
A9
330
A
100
AcDbEntity
  8
PV
  6
Continuous
 62
     7
100
AcDbLine
 10
26.234
 20
-9.669
 30
0.0
 11
26.256
 21
-9.637
 31
0.0
  0
LINE
  5
AA
330
A
100
AcDbEntity
  8
PV
  6
Continuous
 62
     7
100
AcDbLine
 10
26.256
 20
-9.637
 30
0.0
 11
26.27699999999999
 21
-9.605
 31
0.0
  0
LINE
  5
AB
330
A
100
AcDbEntity
  8
PV
  6
Continuous
 62
     7
100
AcDbLine
 10
26.27699999999999
 20
-9.605
 30
0.0
 11
26.298
 21
-9.572
 31
0.0
  0
LINE
  5
AC
330
A
100
AcDbEntity
  8
PV
  6
Continuous
 62
     7
100
AcDbLine
 10
26.298
 20
-9.572
 30
0.0
 11
26.318
 21
-9.539999999999999
 31
0.0
  0
LINE
  5
AD
330
A
100
AcDbEntity
  8
PV
  6
Continuous
 62
     7
100
AcDbLine
 10
26.318
 20
-9.539999999999999
 30
0.0
 11
26.339
 21
-9.506999999999999
 31
0.0
  0
LINE
  5
AE
330
A
100
AcDbEntity
  8
PV
  6
Continuous
 62
     7
100
AcDbLine
 10
26.339
 20
-9.506999999999999
 30
0.0
 11
26.358
 21
-9.474
 31
0.0
  0
LINE
  5
AF
330
A
100
AcDbEntity
  8
PV
  6
Continuous
 62
     7
100
AcDbLine
 10
26.358
 20
-9.474
 30
0.0
 11
26.378
 21
-9.441
 31
0.0
  0
LINE
  5
B0
330
A
100
AcDbEntity
  8
PV
  6
Continuous
 62
     7
100
AcDbLine
 10
26.378
 20
-9.441
 30
0.0
 11
26.39699999999999
 21
-9.407
 31
0.0
  0
LINE
  5
B1
330
A
100
AcDbEntity
  8
PV
  6
Continuous
 62
     7
100
AcDbLine
 10
26.39699999999999
 20
-9.407
 30
0.0
 11
26.416
 21
-9.374
 31
0.0
  0
LINE
  5
B2
330
A
100
AcDbEntity
  8
PV
  6
Continuous
 62
     7
100
AcDbLine
 10
26.416
 20
-9.374
 30
0.0
 11
26.434
 21
-9.339999999999999
 31
0.0
  0
LINE
  5
B3
330
A
100
AcDbEntity
  8
PV
  6
Continuous
 62
     7
100
AcDbLine
 10
26.434
 20
-9.339999999999999
 30
0.0
 11
26.453
 21
-9.306
 31
0.0
  0
LINE
  5
B4
330
A
100
AcDbEntity
  8
PV
  6
Continuous
 62
     7
100
AcDbLine
 10
26.453
 20
-9.306
 30
0.0
 11
26.47
 21
-9.272
 31
0.0
  0
LINE
  5
B5
330
A
100
AcDbEntity
  8
PV
  6
Continuous
 62
     7
100
AcDbLine
 10
26.47
 20
-9.272
 30
0.0
 11
26.488
 21
-9.237
 31
0.0
  0
LINE
  5
B6
330
A
100
AcDbEntity
  8
PV
  6
Continuous
 62
     7
100
AcDbLine
 10
26.488
 20
-9.237
 30
0.0
 11
26.505
 21
-9.202999999999999
 31
0.0
  0
LINE
  5
B7
330
A
100
AcDbEntity
  8
PV
  6
Continuous
 62
     7
100
AcDbLine
 10
26.505
 20
-9.202999999999999
 30
0.0
 11
26.522
 21
-9.167999999999999
 31
0.0
  0
LINE
  5
B8
330
A
100
AcDbEntity
  8
PV
  6
Continuous
 62
     7
100
AcDbLine
 10
26.522
 20
-9.167999999999999
 30
0.0
 11
26.539
 21
-9.134
 31
0.0
  0
LINE
  5
B9
330
A
100
AcDbEntity
  8
PV
  6
Continuous
 62
     7
100
AcDbLine
 10
26.539
 20
-9.134
 30
0.0
 11
26.55599999999999
 21
-9.099
 31
0.0
  0
LINE
  5
BA
330
A
100
AcDbEntity
  8
PV
  6
Continuous
 62
     7
100
AcDbLine
 10
26.55599999999999
 20
-9.099
 30
0.0
 11
26.572
 21
-9.064
 31
0.0
  0
LINE
  5
BB
330
A
100
AcDbEntity
  8
PV
  6
Continuous
 62
     7
100
AcDbLine
 10
26.572
 20
-9.064
 30
0.0
 11
26.588
 21
-9.028999999999999
 31
0.0
  0
LINE
  5
BC
330
A
100
AcDbEntity
  8
PV
  6
Continuous
 62
     7
100
AcDbLine
 10
26.588
 20
-9.028999999999999
 30
0.0
 11
26.604
 21
-8.993999999999997
 31
0.0
  0
LINE
  5
BD
330
A
100
AcDbEntity
  8
PV
  6
Continuous
 62
     7
100
AcDbLine
 10
26.604
 20
-8.993999999999997
 30
0.0
 11
26.619
 21
-8.958999999999997
 31
0.0
  0
LINE
  5
BE
330
A
100
AcDbEntity
  8
PV
  6
Continuous
 62
     7
100
AcDbLine
 10
26.619
 20
-8.958999999999997
 30
0.0
 11
26.634
 21
-8.923
 31
0.0
  0
LINE
  5
BF
330
A
100
AcDbEntity
  8
PV
  6
Continuous
 62
     7
100
AcDbLine
 10
26.634
 20
-8.923
 30
0.0
 11
26.649
 21
-8.887999999999998
 31
0.0
  0
LINE
  5
C0
330
A
100
AcDbEntity
  8
PV
  6
Continuous
 62
     7
100
AcDbLine
 10
26.649
 20
-8.887999999999998
 30
0.0
 11
26.664
 21
-8.852
 31
0.0
  0
LINE
  5
C1
330
A
100
AcDbEntity
  8
PV
  6
Continuous
 62
     7
100
AcDbLine
 10
26.664
 20
-8.852
 30
0.0
 11
26.679
 21
-8.817
 31
0.0
  0
LINE
  5
C2
330
A
100
AcDbEntity
  8
PV
  6
Continuous
 62
     7
100
AcDbLine
 10
26.679
 20
-8.817
 30
0.0
 11
26.693
 21
-8.781
 31
0.0
  0
LINE
  5
C3
330
A
100
AcDbEntity
  8
PV
  6
Continuous
 62
     7
100
AcDbLine
 10
26.693
 20
-8.781
 30
0.0
 11
26.707
 21
-8.744999999999999
 31
0.0
  0
LINE
  5
C4
330
A
100
AcDbEntity
  8
PV
  6
Continuous
 62
     7
100
AcDbLine
 10
26.707
 20
-8.744999999999999
 30
0.0
 11
26.721
 21
-8.708999999999999
 31
0.0
  0
LINE
  5
C5
330
A
100
AcDbEntity
  8
PV
  6
Continuous
 62
     7
100
AcDbLine
 10
26.721
 20
-8.708999999999999
 30
0.0
 11
26.734
 21
-8.673
 31
0.0
  0
LINE
  5
C6
330
A
100
AcDbEntity
  8
PV
  6
Continuous
 62
     7
100
AcDbLine
 10
26.734
 20
-8.673
 30
0.0
 11
26.748
 21
-8.637
 31
0.0
  0
LINE
  5
C7
330
A
100
AcDbEntity
  8
PV
  6
Continuous
 62
     7
100
AcDbLine
 10
26.748
 20
-8.637
 30
0.0
 11
26.76099999999999
 21
-8.601
 31
0.0
  0
LINE
  5
C8
330
A
100
AcDbEntity
  8
PV
  6
Continuous
 62
     7
100
AcDbLine
 10
26.76099999999999
 20
-8.601
 30
0.0
 11
26.774
 21
-8.564999999999999
 31
0.0
  0
LINE
  5
C9
330
A
100
AcDbEntity
  8
PV
  6
Continuous
 62
     7
100
AcDbLine
 10
26.774
 20
-8.564999999999999
 30
0.0
 11
26.787
 21
-8.527999999999996
 31
0.0
  0
LINE
  5
CA
330
A
100
AcDbEntity
  8
PV
  6
Continuous
 62
     7
100
AcDbLine
 10
26.787
 20
-8.527999999999996
 30
0.0
 11
26.79899999999999
 21
-8.492
 31
0.0
  0
LINE
  5
CB
330
A
100
AcDbEntity
  8
PV
  6
Continuous
 62
     7
100
AcDbLine
 10
26.79899999999999
 20
-8.492
 30
0.0
 11
26.811
 21
-8.455
 31
0.0
  0
LINE
  5
CC
330
A
100
AcDbEntity
  8
PV
  6
Continuous
 62
     7
100
AcDbLine
 10
26.811
 20
-8.455
 30
0.0
 11
26.823
 21
-8.419
 31
0.0
  0
LINE
  5
CD
330
A
100
AcDbEntity
  8
PV
  6
Continuous
 62
     7
100
AcDbLine
 10
26.823
 20
-8.419
 30
0.0
 11
26.835
 21
-8.381999999999999
 31
0.0
  0
LINE
  5
CE
330
A
100
AcDbEntity
  8
PV
  6
Continuous
 62
     7
100
AcDbLine
 10
26.835
 20
-8.381999999999999
 30
0.0
 11
26.84699999999999
 21
-8.346
 31
0.0
  0
LINE
  5
CF
330
A
100
AcDbEntity
  8
PV
  6
Continuous
 62
     7
100
AcDbLine
 10
26.84699999999999
 20
-8.346
 30
0.0
 11
26.859
 21
-8.308999999999999
 31
0.0
  0
LINE
  5
D0
330
A
100
AcDbEntity
  8
PV
  6
Continuous
 62
     7
100
AcDbLine
 10
26.859
 20
-8.308999999999999
 30
0.0
 11
26.87
 21
-8.272
 31
0.0
  0
LINE
  5
D1
330
A
100
AcDbEntity
  8
PV
  6
Continuous
 62
     7
100
AcDbLine
 10
26.87
 20
-8.272
 30
0.0
 11
26.881
 21
-8.234999999999999
 31
0.0
  0
LINE
  5
D2
330
A
100
AcDbEntity
  8
PV
  6
Continuous
 62
     7
100
AcDbLine
 10
26.881
 20
-8.234999999999999
 30
0.0
 11
26.892
 21
-8.198
 31
0.0
  0
LINE
  5
D3
330
A
100
AcDbEntity
  8
PV
  6
Continuous
 62
     7
100
AcDbLine
 10
26.892
 20
-8.198
 30
0.0
 11
26.903
 21
-8.162
 31
0.0
  0
LINE
  5
D4
330
A
100
AcDbEntity
  8
PV
  6
Continuous
 62
     7
100
AcDbLine
 10
26.903
 20
-8.162
 30
0.0
 11
26.913
 21
-8.125
 31
0.0
  0
LINE
  5
D5
330
A
100
AcDbEntity
  8
PV
  6
Continuous
 62
     7
100
AcDbLine
 10
26.913
 20
-8.125
 30
0.0
 11
26.924
 21
-8.086999999999997
 31
0.0
  0
LINE
  5
D6
330
A
100
AcDbEntity
  8
PV
  6
Continuous
 62
     7
100
AcDbLine
 10
26.924
 20
-8.086999999999997
 30
0.0
 11
26.934
 21
-8.05
 31
0.0
  0
LINE
  5
D7
330
A
100
AcDbEntity
  8
PV
  6
Continuous
 62
     7
100
AcDbLine
 10
26.934
 20
-8.05
 30
0.0
 11
26.944
 21
-8.012999999999998
 31
0.0
  0
LINE
  5
D8
330
A
100
AcDbEntity
  8
PV
  6
Continuous
 62
     7
100
AcDbLine
 10
26.944
 20
-8.012999999999998
 30
0.0
 11
26.954
 21
-7.975999999999999
 31
0.0
  0
LINE
  5
D9
330
A
100
AcDbEntity
  8
PV
  6
Continuous
 62
     7
100
AcDbLine
 10
26.954
 20
-7.975999999999999
 30
0.0
 11
26.963
 21
-7.939
 31
0.0
  0
LINE
  5
DA
330
A
100
AcDbEntity
  8
PV
  6
Continuous
 62
     7
100
AcDbLine
 10
26.963
 20
-7.939
 30
0.0
 11
26.973
 21
-7.900999999999998
 31
0.0
  0
LINE
  5
DB
330
A
100
AcDbEntity
  8
PV
  6
Continuous
 62
     7
100
AcDbLine
 10
26.973
 20
-7.900999999999998
 30
0.0
 11
26.98199999999999
 21
-7.863999999999998
 31
0.0
  0
LINE
  5
DC
330
A
100
AcDbEntity
  8
PV
  6
Continuous
 62
     7
100
AcDbLine
 10
26.98199999999999
 20
-7.863999999999998
 30
0.0
 11
26.991
 21
-7.827
 31
0.0
  0
LINE
  5
DD
330
A
100
AcDbEntity
  8
PV
  6
Continuous
 62
     7
100
AcDbLine
 10
26.991
 20
-7.827
 30
0.0
 11
27.0
 21
-7.788999999999998
 31
0.0
  0
LINE
  5
DE
330
A
100
AcDbEntity
  8
PV
  6
Continuous
 62
     7
100
AcDbLine
 10
27.0
 20
-7.788999999999998
 30
0.0
 11
27.009
 21
-7.752
 31
0.0
  0
LINE
  5
DF
330
A
100
AcDbEntity
  8
PV
  6
Continuous
 62
     7
100
AcDbLine
 10
27.009
 20
-7.752
 30
0.0
 11
27.017
 21
-7.713999999999998
 31
0.0
  0
LINE
  5
E0
330
A
100
AcDbEntity
  8
PV
  6
Continuous
 62
     7
100
AcDbLine
 10
27.017
 20
-7.713999999999998
 30
0.0
 11
27.026
 21
-7.677
 31
0.0
  0
LINE
  5
E1
330
A
100
AcDbEntity
  8
PV
  6
Continuous
 62
     7
100
AcDbLine
 10
27.026
 20
-7.677
 30
0.0
 11
27.034
 21
-7.638999999999998
 31
0.0
  0
LINE
  5
E2
330
A
100
AcDbEntity
  8
PV
  6
Continuous
 62
     7
100
AcDbLine
 10
27.034
 20
-7.638999999999998
 30
0.0
 11
27.042
 21
-7.602
 31
0.0
  0
LINE
  5
E3
330
A
100
AcDbEntity
  8
PV
  6
Continuous
 62
     7
100
AcDbLine
 10
27.042
 20
-7.602
 30
0.0
 11
27.05
 21
-7.564
 31
0.0
  0
LINE
  5
E4
330
A
100
AcDbEntity
  8
PV
  6
Continuous
 62
     7
100
AcDbLine
 10
27.05
 20
-7.564
 30
0.0
 11
27.058
 21
-7.525999999999998
 31
0.0
  0
LINE
  5
E5
330
A
100
AcDbEntity
  8
PV
  6
Continuous
 62
     7
100
AcDbLine
 10
27.058
 20
-7.525999999999998
 30
0.0
 11
27.065
 21
-7.487999999999998
 31
0.0
  0
LINE
  5
E6
330
A
100
AcDbEntity
  8
PV
  6
Continuous
 62
     7
100
AcDbLine
 10
27.065
 20
-7.487999999999998
 30
0.0
 11
27.073
 21
-7.451
 31
0.0
  0
LINE
  5
E7
330
A
100
AcDbEntity
  8
PV
  6
Continuous
 62
     7
100
AcDbLine
 10
27.073
 20
-7.451
 30
0.0
 11
27.08
 21
-7.412999999999998
 31
0.0
  0
LINE
  5
E8
330
A
100
AcDbEntity
  8
PV
  6
Continuous
 62
     7
100
AcDbLine
 10
27.08
 20
-7.412999999999998
 30
0.0
 11
27.087
 21
-7.375
 31
0.0
  0
LINE
  5
E9
330
A
100
AcDbEntity
  8
PV
  6
Continuous
 62
     7
100
AcDbLine
 10
27.087
 20
-7.375
 30
0.0
 11
27.094
 21
-7.337
 31
0.0
  0
LINE
  5
EA
330
A
100
AcDbEntity
  8
PV
  6
Continuous
 62
     7
100
AcDbLine
 10
27.094
 20
-7.337
 30
0.0
 11
27.101
 21
-7.298999999999998
 31
0.0
  0
LINE
  5
EB
330
A
100
AcDbEntity
  8
PV
  6
Continuous
 62
     7
100
AcDbLine
 10
27.101
 20
-7.298999999999998
 30
0.0
 11
27.108
 21
-7.262
 31
0.0
  0
LINE
  5
EC
330
A
100
AcDbEntity
  8
PV
  6
Continuous
 62
     7
100
AcDbLine
 10
27.108
 20
-7.262
 30
0.0
 11
27.114
 21
-7.224
 31
0.0
  0
LINE
  5
ED
330
A
100
AcDbEntity
  8
PV
  6
Continuous
 62
     7
100
AcDbLine
 10
27.114
 20
-7.224
 30
0.0
 11
27.12099999999999
 21
-7.185999999999999
 31
0.0
  0
LINE
  5
EE
330
A
100
AcDbEntity
  8
PV
  6
Continuous
 62
     7
100
AcDbLine
 10
27.12099999999999
 20
-7.185999999999999
 30
0.0
 11
27.12699999999999
 21
-7.147999999999998
 31
0.0
  0
LINE
  5
EF
330
A
100
AcDbEntity
  8
PV
  6
Continuous
 62
     7
100
AcDbLine
 10
27.12699999999999
 20
-7.147999999999998
 30
0.0
 11
27.133
 21
-7.11
 31
0.0
  0
LINE
  5
F0
330
A
100
AcDbEntity
  8
PV
  6
Continuous
 62
     7
100
AcDbLine
 10
27.133
 20
-7.11
 30
0.0
 11
27.139
 21
-7.072
 31
0.0
  0
LINE
  5
F1
330
A
100
AcDbEntity
  8
PV
  6
Continuous
 62
     7
100
AcDbLine
 10
27.139
 20
-7.072
 30
0.0
 11
27.145
 21
-7.033999999999998
 31
0.0
  0
LINE
  5
F2
330
A
100
AcDbEntity
  8
PV
  6
Continuous
 62
     7
100
AcDbLine
 10
27.145
 20
-7.033999999999998
 30
0.0
 11
27.14999999999999
 21
-6.996
 31
0.0
  0
LINE
  5
F3
330
A
100
AcDbEntity
  8
PV
  6
Continuous
 62
     7
100
AcDbLine
 10
27.14999999999999
 20
-6.996
 30
0.0
 11
27.156
 21
-6.957
 31
0.0
  0
LINE
  5
F4
330
A
100
AcDbEntity
  8
PV
  6
Continuous
 62
     7
100
AcDbLine
 10
27.156
 20
-6.957
 30
0.0
 11
27.16099999999999
 21
-6.918999999999998
 31
0.0
  0
LINE
  5
F5
330
A
100
AcDbEntity
  8
PV
  6
Continuous
 62
     7
100
AcDbLine
 10
27.16099999999999
 20
-6.918999999999998
 30
0.0
 11
27.166
 21
-6.881
 31
0.0
  0
LINE
  5
F6
330
A
100
AcDbEntity
  8
PV
  6
Continuous
 62
     7
100
AcDbLine
 10
27.166
 20
-6.881
 30
0.0
 11
27.171
 21
-6.842999999999999
 31
0.0
  0
LINE
  5
F7
330
A
100
AcDbEntity
  8
PV
  6
Continuous
 62
     7
100
AcDbLine
 10
27.171
 20
-6.842999999999999
 30
0.0
 11
27.176
 21
-6.804999999999998
 31
0.0
  0
LINE
  5
F8
330
A
100
AcDbEntity
  8
PV
  6
Continuous
 62
     7
100
AcDbLine
 10
27.176
 20
-6.804999999999998
 30
0.0
 11
27.17999999999999
 21
-6.767
 31
0.0
  0
LINE
  5
F9
330
A
100
AcDbEntity
  8
PV
  6
Continuous
 62
     7
100
AcDbLine
 10
27.17999999999999
 20
-6.767
 30
0.0
 11
27.185
 21
-6.727999999999998
 31
0.0
  0
LINE
  5
FA
330
A
100
AcDbEntity
  8
PV
  6
Continuous
 62
     7
100
AcDbLine
 10
27.185
 20
-6.727999999999998
 30
0.0
 11
27.189
 21
-6.69
 31
0.0
  0
LINE
  5
FB
330
A
100
AcDbEntity
  8
PV
  6
Continuous
 62
     7
100
AcDbLine
 10
27.189
 20
-6.69
 30
0.0
 11
27.194
 21
-6.652
 31
0.0
  0
LINE
  5
FC
330
A
100
AcDbEntity
  8
PV
  6
Continuous
 62
     7
100
AcDbLine
 10
27.194
 20
-6.652
 30
0.0
 11
27.198
 21
-6.613999999999998
 31
0.0
  0
LINE
  5
FD
330
A
100
AcDbEntity
  8
PV
  6
Continuous
 62
     7
100
AcDbLine
 10
27.198
 20
-6.613999999999998
 30
0.0
 11
27.202
 21
-6.575
 31
0.0
  0
LINE
  5
FE
330
A
100
AcDbEntity
  8
PV
  6
Continuous
 62
     7
100
AcDbLine
 10
27.202
 20
-6.575
 30
0.0
 11
27.206
 21
-6.537
 31
0.0
  0
LINE
  5
FF
330
A
100
AcDbEntity
  8
PV
  6
Continuous
 62
     7
100
AcDbLine
 10
27.206
 20
-6.537
 30
0.0
 11
27.209
 21
-6.498999999999998
 31
0.0
  0
LINE
  5
100
330
A
100
AcDbEntity
  8
PV
  6
Continuous
 62
     7
100
AcDbLine
 10
27.209
 20
-6.498999999999998
 30
0.0
 11
27.213
 21
-6.461
 31
0.0
  0
LINE
  5
101
330
A
100
AcDbEntity
  8
PV
  6
Continuous
 62
     7
100
AcDbLine
 10
27.213
 20
-6.461
 30
0.0
 11
27.216
 21
-6.422
 31
0.0
  0
LINE
  5
102
330
A
100
AcDbEntity
  8
PV
  6
Continuous
 62
     7
100
AcDbLine
 10
27.216
 20
-6.422
 30
0.0
 11
27.219
 21
-6.383999999999998
 31
0.0
  0
LINE
  5
103
330
A
100
AcDbEntity
  8
PV
  6
Continuous
 62
     7
100
AcDbLine
 10
27.219
 20
-6.383999999999998
 30
0.0
 11
27.223
 21
-6.346
 31
0.0
  0
LINE
  5
104
330
A
100
AcDbEntity
  8
PV
  6
Continuous
 62
     7
100
AcDbLine
 10
27.223
 20
-6.346
 30
0.0
 11
27.22599999999999
 21
-6.307
 31
0.0
  0
LINE
  5
105
330
A
100
AcDbEntity
  8
PV
  6
Continuous
 62
     7
100
AcDbLine
 10
27.22599999999999
 20
-6.307
 30
0.0
 11
27.228
 21
-6.269
 31
0.0
  0
LINE
  5
106
330
A
100
AcDbEntity
  8
PV
  6
Continuous
 62
     7
100
AcDbLine
 10
27.228
 20
-6.269
 30
0.0
 11
27.231
 21
-6.23
 31
0.0
  0
LINE
  5
107
330
A
100
AcDbEntity
  8
PV
  6
Continuous
 62
     7
100
AcDbLine
 10
27.231
 20
-6.23
 30
0.0
 11
27.234
 21
-6.192
 31
0.0
  0
LINE
  5
108
330
A
100
AcDbEntity
  8
PV
  6
Continuous
 62
     7
100
AcDbLine
 10
27.234
 20
-6.192
 30
0.0
 11
27.236
 21
-6.153999999999999
 31
0.0
  0
LINE
  5
109
330
A
100
AcDbEntity
  8
PV
  6
Continuous
 62
     7
100
AcDbLine
 10
27.236
 20
-6.153999999999999
 30
0.0
 11
27.238
 21
-6.115
 31
0.0
  0
LINE
  5
10A
330
A
100
AcDbEntity
  8
PV
  6
Continuous
 62
     7
100
AcDbLine
 10
27.238
 20
-6.115
 30
0.0
 11
27.24
 21
-6.077
 31
0.0
  0
LINE
  5
10B
330
A
100
AcDbEntity
  8
PV
  6
Continuous
 62
     7
100
AcDbLine
 10
27.24
 20
-6.077
 30
0.0
 11
27.24199999999999
 21
-6.037999999999998
 31
0.0
  0
LINE
  5
10C
330
A
100
AcDbEntity
  8
PV
  6
Continuous
 62
     7
100
AcDbLine
 10
27.24199999999999
 20
-6.037999999999998
 30
0.0
 11
27.244
 21
-6.0
 31
0.0
  0
LINE
  5
10D
330
A
100
AcDbEntity
  8
PV
  6
Continuous
 62
     7
100
AcDbLine
 10
27.244
 20
-6.0
 30
0.0
 11
27.246
 21
-5.961
 31
0.0
  0
LINE
  5
10E
330
A
100
AcDbEntity
  8
PV
  6
Continuous
 62
     7
100
AcDbLine
 10
27.246
 20
-5.961
 30
0.0
 11
27.248
 21
-5.922999999999999
 31
0.0
  0
LINE
  5
10F
330
A
100
AcDbEntity
  8
PV
  6
Continuous
 62
     7
100
AcDbLine
 10
27.248
 20
-5.922999999999999
 30
0.0
 11
27.249
 21
-5.884999999999998
 31
0.0
  0
LINE
  5
110
330
A
100
AcDbEntity
  8
PV
  6
Continuous
 62
     7
100
AcDbLine
 10
27.249
 20
-5.884999999999998
 30
0.0
 11
27.25
 21
-5.846
 31
0.0
  0
LINE
  5
111
330
A
100
AcDbEntity
  8
PV
  6
Continuous
 62
     7
100
AcDbLine
 10
27.25
 20
-5.846
 30
0.0
 11
27.25099999999999
 21
-5.807999999999998
 31
0.0
  0
LINE
  5
112
330
A
100
AcDbEntity
  8
PV
  6
Continuous
 62
     7
100
AcDbLine
 10
27.25099999999999
 20
-5.807999999999998
 30
0.0
 11
27.253
 21
-5.769
 31
0.0
  0
LINE
  5
113
330
A
100
AcDbEntity
  8
PV
  6
Continuous
 62
     7
100
AcDbLine
 10
27.253
 20
-5.769
 30
0.0
 11
27.253
 21
-5.730999999999998
 31
0.0
  0
LINE
  5
114
330
A
100
AcDbEntity
  8
PV
  6
Continuous
 62
     7
100
AcDbLine
 10
27.253
 20
-5.730999999999998
 30
0.0
 11
27.254
 21
-5.692
 31
0.0
  0
LINE
  5
115
330
A
100
AcDbEntity
  8
PV
  6
Continuous
 62
     7
100
AcDbLine
 10
27.254
 20
-5.692
 30
0.0
 11
27.255
 21
-5.653999999999999
 31
0.0
  0
LINE
  5
116
330
A
100
AcDbEntity
  8
PV
  6
Continuous
 62
     7
100
AcDbLine
 10
27.255
 20
-5.653999999999999
 30
0.0
 11
27.255
 21
-5.615
 31
0.0
  0
LINE
  5
117
330
A
100
AcDbEntity
  8
PV
  6
Continuous
 62
     7
100
AcDbLine
 10
27.255
 20
-5.615
 30
0.0
 11
27.256
 21
-5.577
 31
0.0
  0
LINE
  5
118
330
A
100
AcDbEntity
  8
PV
  6
Continuous
 62
     7
100
AcDbLine
 10
27.256
 20
-5.577
 30
0.0
 11
27.256
 21
-5.537999999999998
 31
0.0
  0
LINE
  5
119
330
A
100
AcDbEntity
  8
PV
  6
Continuous
 62
     7
100
AcDbLine
 10
27.256
 20
-5.537999999999998
 30
0.0
 11
27.256
 21
-5.5
 31
0.0
  0
LINE
  5
11A
330
A
100
AcDbEntity
  8
PV
  6
Continuous
 62
     7
100
AcDbLine
 10
-27.256
 20
-5.5
 30
0.0
 11
-27.256
 21
-5.537999999999998
 31
0.0
  0
LINE
  5
11B
330
A
100
AcDbEntity
  8
PV
  6
Continuous
 62
     7
100
AcDbLine
 10
-27.256
 20
-5.537999999999998
 30
0.0
 11
-27.256
 21
-5.577
 31
0.0
  0
LINE
  5
11C
330
A
100
AcDbEntity
  8
PV
  6
Continuous
 62
     7
100
AcDbLine
 10
-27.256
 20
-5.577
 30
0.0
 11
-27.255
 21
-5.615
 31
0.0
  0
LINE
  5
11D
330
A
100
AcDbEntity
  8
PV
  6
Continuous
 62
     7
100
AcDbLine
 10
-27.255
 20
-5.615
 30
0.0
 11
-27.255
 21
-5.653999999999999
 31
0.0
  0
LINE
  5
11E
330
A
100
AcDbEntity
  8
PV
  6
Continuous
 62
     7
100
AcDbLine
 10
-27.255
 20
-5.653999999999999
 30
0.0
 11
-27.254
 21
-5.692
 31
0.0
  0
LINE
  5
11F
330
A
100
AcDbEntity
  8
PV
  6
Continuous
 62
     7
100
AcDbLine
 10
-27.254
 20
-5.692
 30
0.0
 11
-27.253
 21
-5.730999999999998
 31
0.0
  0
LINE
  5
120
330
A
100
AcDbEntity
  8
PV
  6
Continuous
 62
     7
100
AcDbLine
 10
-27.253
 20
-5.730999999999998
 30
0.0
 11
-27.252
 21
-5.769
 31
0.0
  0
LINE
  5
121
330
A
100
AcDbEntity
  8
PV
  6
Continuous
 62
     7
100
AcDbLine
 10
-27.252
 20
-5.769
 30
0.0
 11
-27.25099999999999
 21
-5.807999999999998
 31
0.0
  0
LINE
  5
122
330
A
100
AcDbEntity
  8
PV
  6
Continuous
 62
     7
100
AcDbLine
 10
-27.25099999999999
 20
-5.807999999999998
 30
0.0
 11
-27.25
 21
-5.846
 31
0.0
  0
LINE
  5
123
330
A
100
AcDbEntity
  8
PV
  6
Continuous
 62
     7
100
AcDbLine
 10
-27.25
 20
-5.846
 30
0.0
 11
-27.249
 21
-5.884999999999998
 31
0.0
  0
LINE
  5
124
330
A
100
AcDbEntity
  8
PV
  6
Continuous
 62
     7
100
AcDbLine
 10
-27.249
 20
-5.884999999999998
 30
0.0
 11
-27.248
 21
-5.922999999999999
 31
0.0
  0
LINE
  5
125
330
A
100
AcDbEntity
  8
PV
  6
Continuous
 62
     7
100
AcDbLine
 10
-27.248
 20
-5.922999999999999
 30
0.0
 11
-27.246
 21
-5.961
 31
0.0
  0
LINE
  5
126
330
A
100
AcDbEntity
  8
PV
  6
Continuous
 62
     7
100
AcDbLine
 10
-27.246
 20
-5.961
 30
0.0
 11
-27.244
 21
-6.0
 31
0.0
  0
LINE
  5
127
330
A
100
AcDbEntity
  8
PV
  6
Continuous
 62
     7
100
AcDbLine
 10
-27.244
 20
-6.0
 30
0.0
 11
-27.24199999999999
 21
-6.037999999999998
 31
0.0
  0
LINE
  5
128
330
A
100
AcDbEntity
  8
PV
  6
Continuous
 62
     7
100
AcDbLine
 10
-27.24199999999999
 20
-6.037999999999998
 30
0.0
 11
-27.24
 21
-6.077
 31
0.0
  0
LINE
  5
129
330
A
100
AcDbEntity
  8
PV
  6
Continuous
 62
     7
100
AcDbLine
 10
-27.24
 20
-6.077
 30
0.0
 11
-27.238
 21
-6.115
 31
0.0
  0
LINE
  5
12A
330
A
100
AcDbEntity
  8
PV
  6
Continuous
 62
     7
100
AcDbLine
 10
-27.238
 20
-6.115
 30
0.0
 11
-27.236
 21
-6.153999999999999
 31
0.0
  0
LINE
  5
12B
330
A
100
AcDbEntity
  8
PV
  6
Continuous
 62
     7
100
AcDbLine
 10
-27.236
 20
-6.153999999999999
 30
0.0
 11
-27.234
 21
-6.192
 31
0.0
  0
LINE
  5
12C
330
A
100
AcDbEntity
  8
PV
  6
Continuous
 62
     7
100
AcDbLine
 10
-27.234
 20
-6.192
 30
0.0
 11
-27.231
 21
-6.23
 31
0.0
  0
LINE
  5
12D
330
A
100
AcDbEntity
  8
PV
  6
Continuous
 62
     7
100
AcDbLine
 10
-27.231
 20
-6.23
 30
0.0
 11
-27.228
 21
-6.269
 31
0.0
  0
LINE
  5
12E
330
A
100
AcDbEntity
  8
PV
  6
Continuous
 62
     7
100
AcDbLine
 10
-27.228
 20
-6.269
 30
0.0
 11
-27.225
 21
-6.307
 31
0.0
  0
LINE
  5
12F
330
A
100
AcDbEntity
  8
PV
  6
Continuous
 62
     7
100
AcDbLine
 10
-27.225
 20
-6.307
 30
0.0
 11
-27.223
 21
-6.346
 31
0.0
  0
LINE
  5
130
330
A
100
AcDbEntity
  8
PV
  6
Continuous
 62
     7
100
AcDbLine
 10
-27.223
 20
-6.346
 30
0.0
 11
-27.219
 21
-6.383999999999998
 31
0.0
  0
LINE
  5
131
330
A
100
AcDbEntity
  8
PV
  6
Continuous
 62
     7
100
AcDbLine
 10
-27.219
 20
-6.383999999999998
 30
0.0
 11
-27.216
 21
-6.422
 31
0.0
  0
LINE
  5
132
330
A
100
AcDbEntity
  8
PV
  6
Continuous
 62
     7
100
AcDbLine
 10
-27.216
 20
-6.422
 30
0.0
 11
-27.213
 21
-6.461
 31
0.0
  0
LINE
  5
133
330
A
100
AcDbEntity
  8
PV
  6
Continuous
 62
     7
100
AcDbLine
 10
-27.213
 20
-6.461
 30
0.0
 11
-27.209
 21
-6.498999999999998
 31
0.0
  0
LINE
  5
134
330
A
100
AcDbEntity
  8
PV
  6
Continuous
 62
     7
100
AcDbLine
 10
-27.209
 20
-6.498999999999998
 30
0.0
 11
-27.206
 21
-6.537
 31
0.0
  0
LINE
  5
135
330
A
100
AcDbEntity
  8
PV
  6
Continuous
 62
     7
100
AcDbLine
 10
-27.206
 20
-6.537
 30
0.0
 11
-27.202
 21
-6.575
 31
0.0
  0
LINE
  5
136
330
A
100
AcDbEntity
  8
PV
  6
Continuous
 62
     7
100
AcDbLine
 10
-27.202
 20
-6.575
 30
0.0
 11
-27.198
 21
-6.613999999999998
 31
0.0
  0
LINE
  5
137
330
A
100
AcDbEntity
  8
PV
  6
Continuous
 62
     7
100
AcDbLine
 10
-27.198
 20
-6.613999999999998
 30
0.0
 11
-27.194
 21
-6.652
 31
0.0
  0
LINE
  5
138
330
A
100
AcDbEntity
  8
PV
  6
Continuous
 62
     7
100
AcDbLine
 10
-27.194
 20
-6.652
 30
0.0
 11
-27.189
 21
-6.69
 31
0.0
  0
LINE
  5
139
330
A
100
AcDbEntity
  8
PV
  6
Continuous
 62
     7
100
AcDbLine
 10
-27.189
 20
-6.69
 30
0.0
 11
-27.185
 21
-6.727999999999998
 31
0.0
  0
LINE
  5
13A
330
A
100
AcDbEntity
  8
PV
  6
Continuous
 62
     7
100
AcDbLine
 10
-27.185
 20
-6.727999999999998
 30
0.0
 11
-27.17999999999999
 21
-6.767
 31
0.0
  0
LINE
  5
13B
330
A
100
AcDbEntity
  8
PV
  6
Continuous
 62
     7
100
AcDbLine
 10
-27.17999999999999
 20
-6.767
 30
0.0
 11
-27.176
 21
-6.804999999999998
 31
0.0
  0
LINE
  5
13C
330
A
100
AcDbEntity
  8
PV
  6
Continuous
 62
     7
100
AcDbLine
 10
-27.176
 20
-6.804999999999998
 30
0.0
 11
-27.171
 21
-6.842999999999999
 31
0.0
  0
LINE
  5
13D
330
A
100
AcDbEntity
  8
PV
  6
Continuous
 62
     7
100
AcDbLine
 10
-27.171
 20
-6.842999999999999
 30
0.0
 11
-27.166
 21
-6.881
 31
0.0
  0
LINE
  5
13E
330
A
100
AcDbEntity
  8
PV
  6
Continuous
 62
     7
100
AcDbLine
 10
-27.166
 20
-6.881
 30
0.0
 11
-27.16099999999999
 21
-6.918999999999998
 31
0.0
  0
LINE
  5
13F
330
A
100
AcDbEntity
  8
PV
  6
Continuous
 62
     7
100
AcDbLine
 10
-27.16099999999999
 20
-6.918999999999998
 30
0.0
 11
-27.156
 21
-6.957
 31
0.0
  0
LINE
  5
140
330
A
100
AcDbEntity
  8
PV
  6
Continuous
 62
     7
100
AcDbLine
 10
-27.156
 20
-6.957
 30
0.0
 11
-27.14999999999999
 21
-6.996
 31
0.0
  0
LINE
  5
141
330
A
100
AcDbEntity
  8
PV
  6
Continuous
 62
     7
100
AcDbLine
 10
-27.14999999999999
 20
-6.996
 30
0.0
 11
-27.144
 21
-7.033999999999998
 31
0.0
  0
LINE
  5
142
330
A
100
AcDbEntity
  8
PV
  6
Continuous
 62
     7
100
AcDbLine
 10
-27.144
 20
-7.033999999999998
 30
0.0
 11
-27.139
 21
-7.072
 31
0.0
  0
LINE
  5
143
330
A
100
AcDbEntity
  8
PV
  6
Continuous
 62
     7
100
AcDbLine
 10
-27.139
 20
-7.072
 30
0.0
 11
-27.133
 21
-7.11
 31
0.0
  0
LINE
  5
144
330
A
100
AcDbEntity
  8
PV
  6
Continuous
 62
     7
100
AcDbLine
 10
-27.133
 20
-7.11
 30
0.0
 11
-27.12699999999999
 21
-7.147999999999998
 31
0.0
  0
LINE
  5
145
330
A
100
AcDbEntity
  8
PV
  6
Continuous
 62
     7
100
AcDbLine
 10
-27.12699999999999
 20
-7.147999999999998
 30
0.0
 11
-27.12099999999999
 21
-7.185999999999999
 31
0.0
  0
LINE
  5
146
330
A
100
AcDbEntity
  8
PV
  6
Continuous
 62
     7
100
AcDbLine
 10
-27.12099999999999
 20
-7.185999999999999
 30
0.0
 11
-27.114
 21
-7.224
 31
0.0
  0
LINE
  5
147
330
A
100
AcDbEntity
  8
PV
  6
Continuous
 62
     7
100
AcDbLine
 10
-27.114
 20
-7.224
 30
0.0
 11
-27.108
 21
-7.262
 31
0.0
  0
LINE
  5
148
330
A
100
AcDbEntity
  8
PV
  6
Continuous
 62
     7
100
AcDbLine
 10
-27.108
 20
-7.262
 30
0.0
 11
-27.101
 21
-7.298999999999998
 31
0.0
  0
LINE
  5
149
330
A
100
AcDbEntity
  8
PV
  6
Continuous
 62
     7
100
AcDbLine
 10
-27.101
 20
-7.298999999999998
 30
0.0
 11
-27.094
 21
-7.337
 31
0.0
  0
LINE
  5
14A
330
A
100
AcDbEntity
  8
PV
  6
Continuous
 62
     7
100
AcDbLine
 10
-27.094
 20
-7.337
 30
0.0
 11
-27.087
 21
-7.375
 31
0.0
  0
LINE
  5
14B
330
A
100
AcDbEntity
  8
PV
  6
Continuous
 62
     7
100
AcDbLine
 10
-27.087
 20
-7.375
 30
0.0
 11
-27.08
 21
-7.412999999999998
 31
0.0
  0
LINE
  5
14C
330
A
100
AcDbEntity
  8
PV
  6
Continuous
 62
     7
100
AcDbLine
 10
-27.08
 20
-7.412999999999998
 30
0.0
 11
-27.073
 21
-7.451
 31
0.0
  0
LINE
  5
14D
330
A
100
AcDbEntity
  8
PV
  6
Continuous
 62
     7
100
AcDbLine
 10
-27.073
 20
-7.451
 30
0.0
 11
-27.065
 21
-7.487999999999998
 31
0.0
  0
LINE
  5
14E
330
A
100
AcDbEntity
  8
PV
  6
Continuous
 62
     7
100
AcDbLine
 10
-27.065
 20
-7.487999999999998
 30
0.0
 11
-27.058
 21
-7.525999999999998
 31
0.0
  0
LINE
  5
14F
330
A
100
AcDbEntity
  8
PV
  6
Continuous
 62
     7
100
AcDbLine
 10
-27.058
 20
-7.525999999999998
 30
0.0
 11
-27.05
 21
-7.564
 31
0.0
  0
LINE
  5
150
330
A
100
AcDbEntity
  8
PV
  6
Continuous
 62
     7
100
AcDbLine
 10
-27.05
 20
-7.564
 30
0.0
 11
-27.042
 21
-7.602
 31
0.0
  0
LINE
  5
151
330
A
100
AcDbEntity
  8
PV
  6
Continuous
 62
     7
100
AcDbLine
 10
-27.042
 20
-7.602
 30
0.0
 11
-27.034
 21
-7.638999999999998
 31
0.0
  0
LINE
  5
152
330
A
100
AcDbEntity
  8
PV
  6
Continuous
 62
     7
100
AcDbLine
 10
-27.034
 20
-7.638999999999998
 30
0.0
 11
-27.026
 21
-7.677
 31
0.0
  0
LINE
  5
153
330
A
100
AcDbEntity
  8
PV
  6
Continuous
 62
     7
100
AcDbLine
 10
-27.026
 20
-7.677
 30
0.0
 11
-27.017
 21
-7.713999999999998
 31
0.0
  0
LINE
  5
154
330
A
100
AcDbEntity
  8
PV
  6
Continuous
 62
     7
100
AcDbLine
 10
-27.017
 20
-7.713999999999998
 30
0.0
 11
-27.009
 21
-7.752
 31
0.0
  0
LINE
  5
155
330
A
100
AcDbEntity
  8
PV
  6
Continuous
 62
     7
100
AcDbLine
 10
-27.009
 20
-7.752
 30
0.0
 11
-27.0
 21
-7.788999999999998
 31
0.0
  0
LINE
  5
156
330
A
100
AcDbEntity
  8
PV
  6
Continuous
 62
     7
100
AcDbLine
 10
-27.0
 20
-7.788999999999998
 30
0.0
 11
-26.991
 21
-7.827
 31
0.0
  0
LINE
  5
157
330
A
100
AcDbEntity
  8
PV
  6
Continuous
 62
     7
100
AcDbLine
 10
-26.991
 20
-7.827
 30
0.0
 11
-26.98199999999999
 21
-7.863999999999998
 31
0.0
  0
LINE
  5
158
330
A
100
AcDbEntity
  8
PV
  6
Continuous
 62
     7
100
AcDbLine
 10
-26.98199999999999
 20
-7.863999999999998
 30
0.0
 11
-26.973
 21
-7.900999999999998
 31
0.0
  0
LINE
  5
159
330
A
100
AcDbEntity
  8
PV
  6
Continuous
 62
     7
100
AcDbLine
 10
-26.973
 20
-7.900999999999998
 30
0.0
 11
-26.963
 21
-7.939
 31
0.0
  0
LINE
  5
15A
330
A
100
AcDbEntity
  8
PV
  6
Continuous
 62
     7
100
AcDbLine
 10
-26.963
 20
-7.939
 30
0.0
 11
-26.954
 21
-7.975999999999999
 31
0.0
  0
LINE
  5
15B
330
A
100
AcDbEntity
  8
PV
  6
Continuous
 62
     7
100
AcDbLine
 10
-26.954
 20
-7.975999999999999
 30
0.0
 11
-26.944
 21
-8.012999999999998
 31
0.0
  0
LINE
  5
15C
330
A
100
AcDbEntity
  8
PV
  6
Continuous
 62
     7
100
AcDbLine
 10
-26.944
 20
-8.012999999999998
 30
0.0
 11
-26.934
 21
-8.05
 31
0.0
  0
LINE
  5
15D
330
A
100
AcDbEntity
  8
PV
  6
Continuous
 62
     7
100
AcDbLine
 10
-26.934
 20
-8.05
 30
0.0
 11
-26.924
 21
-8.086999999999997
 31
0.0
  0
LINE
  5
15E
330
A
100
AcDbEntity
  8
PV
  6
Continuous
 62
     7
100
AcDbLine
 10
-26.924
 20
-8.086999999999997
 30
0.0
 11
-26.913
 21
-8.125
 31
0.0
  0
LINE
  5
15F
330
A
100
AcDbEntity
  8
PV
  6
Continuous
 62
     7
100
AcDbLine
 10
-26.913
 20
-8.125
 30
0.0
 11
-26.903
 21
-8.162
 31
0.0
  0
LINE
  5
160
330
A
100
AcDbEntity
  8
PV
  6
Continuous
 62
     7
100
AcDbLine
 10
-26.903
 20
-8.162
 30
0.0
 11
-26.892
 21
-8.198
 31
0.0
  0
LINE
  5
161
330
A
100
AcDbEntity
  8
PV
  6
Continuous
 62
     7
100
AcDbLine
 10
-26.892
 20
-8.198
 30
0.0
 11
-26.881
 21
-8.234999999999999
 31
0.0
  0
LINE
  5
162
330
A
100
AcDbEntity
  8
PV
  6
Continuous
 62
     7
100
AcDbLine
 10
-26.881
 20
-8.234999999999999
 30
0.0
 11
-26.87
 21
-8.272
 31
0.0
  0
LINE
  5
163
330
A
100
AcDbEntity
  8
PV
  6
Continuous
 62
     7
100
AcDbLine
 10
-26.87
 20
-8.272
 30
0.0
 11
-26.859
 21
-8.308999999999999
 31
0.0
  0
LINE
  5
164
330
A
100
AcDbEntity
  8
PV
  6
Continuous
 62
     7
100
AcDbLine
 10
-26.859
 20
-8.308999999999999
 30
0.0
 11
-26.84699999999999
 21
-8.346
 31
0.0
  0
LINE
  5
165
330
A
100
AcDbEntity
  8
PV
  6
Continuous
 62
     7
100
AcDbLine
 10
-26.84699999999999
 20
-8.346
 30
0.0
 11
-26.835
 21
-8.381999999999999
 31
0.0
  0
LINE
  5
166
330
A
100
AcDbEntity
  8
PV
  6
Continuous
 62
     7
100
AcDbLine
 10
-26.835
 20
-8.381999999999999
 30
0.0
 11
-26.823
 21
-8.419
 31
0.0
  0
LINE
  5
167
330
A
100
AcDbEntity
  8
PV
  6
Continuous
 62
     7
100
AcDbLine
 10
-26.823
 20
-8.419
 30
0.0
 11
-26.811
 21
-8.455
 31
0.0
  0
LINE
  5
168
330
A
100
AcDbEntity
  8
PV
  6
Continuous
 62
     7
100
AcDbLine
 10
-26.811
 20
-8.455
 30
0.0
 11
-26.79899999999999
 21
-8.492
 31
0.0
  0
LINE
  5
169
330
A
100
AcDbEntity
  8
PV
  6
Continuous
 62
     7
100
AcDbLine
 10
-26.79899999999999
 20
-8.492
 30
0.0
 11
-26.787
 21
-8.527999999999996
 31
0.0
  0
LINE
  5
16A
330
A
100
AcDbEntity
  8
PV
  6
Continuous
 62
     7
100
AcDbLine
 10
-26.787
 20
-8.527999999999996
 30
0.0
 11
-26.774
 21
-8.564999999999999
 31
0.0
  0
LINE
  5
16B
330
A
100
AcDbEntity
  8
PV
  6
Continuous
 62
     7
100
AcDbLine
 10
-26.774
 20
-8.564999999999999
 30
0.0
 11
-26.76099999999999
 21
-8.601
 31
0.0
  0
LINE
  5
16C
330
A
100
AcDbEntity
  8
PV
  6
Continuous
 62
     7
100
AcDbLine
 10
-26.76099999999999
 20
-8.601
 30
0.0
 11
-26.748
 21
-8.637
 31
0.0
  0
LINE
  5
16D
330
A
100
AcDbEntity
  8
PV
  6
Continuous
 62
     7
100
AcDbLine
 10
-26.748
 20
-8.637
 30
0.0
 11
-26.734
 21
-8.673
 31
0.0
  0
LINE
  5
16E
330
A
100
AcDbEntity
  8
PV
  6
Continuous
 62
     7
100
AcDbLine
 10
-26.734
 20
-8.673
 30
0.0
 11
-26.721
 21
-8.708999999999999
 31
0.0
  0
LINE
  5
16F
330
A
100
AcDbEntity
  8
PV
  6
Continuous
 62
     7
100
AcDbLine
 10
-26.721
 20
-8.708999999999999
 30
0.0
 11
-26.707
 21
-8.744999999999999
 31
0.0
  0
LINE
  5
170
330
A
100
AcDbEntity
  8
PV
  6
Continuous
 62
     7
100
AcDbLine
 10
-26.707
 20
-8.744999999999999
 30
0.0
 11
-26.693
 21
-8.781
 31
0.0
  0
LINE
  5
171
330
A
100
AcDbEntity
  8
PV
  6
Continuous
 62
     7
100
AcDbLine
 10
-26.693
 20
-8.781
 30
0.0
 11
-26.679
 21
-8.817
 31
0.0
  0
LINE
  5
172
330
A
100
AcDbEntity
  8
PV
  6
Continuous
 62
     7
100
AcDbLine
 10
-26.679
 20
-8.817
 30
0.0
 11
-26.664
 21
-8.852
 31
0.0
  0
LINE
  5
173
330
A
100
AcDbEntity
  8
PV
  6
Continuous
 62
     7
100
AcDbLine
 10
-26.664
 20
-8.852
 30
0.0
 11
-26.649
 21
-8.887999999999998
 31
0.0
  0
LINE
  5
174
330
A
100
AcDbEntity
  8
PV
  6
Continuous
 62
     7
100
AcDbLine
 10
-26.649
 20
-8.887999999999998
 30
0.0
 11
-26.634
 21
-8.923
 31
0.0
  0
LINE
  5
175
330
A
100
AcDbEntity
  8
PV
  6
Continuous
 62
     7
100
AcDbLine
 10
-26.634
 20
-8.923
 30
0.0
 11
-26.619
 21
-8.958999999999997
 31
0.0
  0
LINE
  5
176
330
A
100
AcDbEntity
  8
PV
  6
Continuous
 62
     7
100
AcDbLine
 10
-26.619
 20
-8.958999999999997
 30
0.0
 11
-26.604
 21
-8.993999999999997
 31
0.0
  0
LINE
  5
177
330
A
100
AcDbEntity
  8
PV
  6
Continuous
 62
     7
100
AcDbLine
 10
-26.604
 20
-8.993999999999997
 30
0.0
 11
-26.588
 21
-9.028999999999999
 31
0.0
  0
LINE
  5
178
330
A
100
AcDbEntity
  8
PV
  6
Continuous
 62
     7
100
AcDbLine
 10
-26.588
 20
-9.028999999999999
 30
0.0
 11
-26.572
 21
-9.064
 31
0.0
  0
LINE
  5
179
330
A
100
AcDbEntity
  8
PV
  6
Continuous
 62
     7
100
AcDbLine
 10
-26.572
 20
-9.064
 30
0.0
 11
-26.55599999999999
 21
-9.099
 31
0.0
  0
LINE
  5
17A
330
A
100
AcDbEntity
  8
PV
  6
Continuous
 62
     7
100
AcDbLine
 10
-26.55599999999999
 20
-9.099
 30
0.0
 11
-26.539
 21
-9.134
 31
0.0
  0
LINE
  5
17B
330
A
100
AcDbEntity
  8
PV
  6
Continuous
 62
     7
100
AcDbLine
 10
-26.539
 20
-9.134
 30
0.0
 11
-26.522
 21
-9.167999999999999
 31
0.0
  0
LINE
  5
17C
330
A
100
AcDbEntity
  8
PV
  6
Continuous
 62
     7
100
AcDbLine
 10
-26.522
 20
-9.167999999999999
 30
0.0
 11
-26.505
 21
-9.202999999999999
 31
0.0
  0
LINE
  5
17D
330
A
100
AcDbEntity
  8
PV
  6
Continuous
 62
     7
100
AcDbLine
 10
-26.505
 20
-9.202999999999999
 30
0.0
 11
-26.488
 21
-9.237
 31
0.0
  0
LINE
  5
17E
330
A
100
AcDbEntity
  8
PV
  6
Continuous
 62
     7
100
AcDbLine
 10
-26.488
 20
-9.237
 30
0.0
 11
-26.47
 21
-9.272
 31
0.0
  0
LINE
  5
17F
330
A
100
AcDbEntity
  8
PV
  6
Continuous
 62
     7
100
AcDbLine
 10
-26.47
 20
-9.272
 30
0.0
 11
-26.453
 21
-9.306
 31
0.0
  0
LINE
  5
180
330
A
100
AcDbEntity
  8
PV
  6
Continuous
 62
     7
100
AcDbLine
 10
-26.453
 20
-9.306
 30
0.0
 11
-26.434
 21
-9.339999999999999
 31
0.0
  0
LINE
  5
181
330
A
100
AcDbEntity
  8
PV
  6
Continuous
 62
     7
100
AcDbLine
 10
-26.434
 20
-9.339999999999999
 30
0.0
 11
-26.416
 21
-9.374
 31
0.0
  0
LINE
  5
182
330
A
100
AcDbEntity
  8
PV
  6
Continuous
 62
     7
100
AcDbLine
 10
-26.416
 20
-9.374
 30
0.0
 11
-26.39699999999999
 21
-9.407
 31
0.0
  0
LINE
  5
183
330
A
100
AcDbEntity
  8
PV
  6
Continuous
 62
     7
100
AcDbLine
 10
-26.39699999999999
 20
-9.407
 30
0.0
 11
-26.378
 21
-9.441
 31
0.0
  0
LINE
  5
184
330
A
100
AcDbEntity
  8
PV
  6
Continuous
 62
     7
100
AcDbLine
 10
-26.378
 20
-9.441
 30
0.0
 11
-26.358
 21
-9.474
 31
0.0
  0
LINE
  5
185
330
A
100
AcDbEntity
  8
PV
  6
Continuous
 62
     7
100
AcDbLine
 10
-26.358
 20
-9.474
 30
0.0
 11
-26.339
 21
-9.506999999999999
 31
0.0
  0
LINE
  5
186
330
A
100
AcDbEntity
  8
PV
  6
Continuous
 62
     7
100
AcDbLine
 10
-26.339
 20
-9.506999999999999
 30
0.0
 11
-26.318
 21
-9.539999999999999
 31
0.0
  0
LINE
  5
187
330
A
100
AcDbEntity
  8
PV
  6
Continuous
 62
     7
100
AcDbLine
 10
-26.318
 20
-9.539999999999999
 30
0.0
 11
-26.298
 21
-9.572
 31
0.0
  0
LINE
  5
188
330
A
100
AcDbEntity
  8
PV
  6
Continuous
 62
     7
100
AcDbLine
 10
-26.298
 20
-9.572
 30
0.0
 11
-26.27699999999999
 21
-9.605
 31
0.0
  0
LINE
  5
189
330
A
100
AcDbEntity
  8
PV
  6
Continuous
 62
     7
100
AcDbLine
 10
-26.27699999999999
 20
-9.605
 30
0.0
 11
-26.256
 21
-9.637
 31
0.0
  0
LINE
  5
18A
330
A
100
AcDbEntity
  8
PV
  6
Continuous
 62
     7
100
AcDbLine
 10
-26.256
 20
-9.637
 30
0.0
 11
-26.234
 21
-9.669
 31
0.0
  0
LINE
  5
18B
330
A
100
AcDbEntity
  8
PV
  6
Continuous
 62
     7
100
AcDbLine
 10
-26.234
 20
-9.669
 30
0.0
 11
-26.21199999999999
 21
-9.699999999999999
 31
0.0
  0
LINE
  5
18C
330
A
100
AcDbEntity
  8
PV
  6
Continuous
 62
     7
100
AcDbLine
 10
-26.21199999999999
 20
-9.699999999999999
 30
0.0
 11
-26.19
 21
-9.731999999999999
 31
0.0
  0
LINE
  5
18D
330
A
100
AcDbEntity
  8
PV
  6
Continuous
 62
     7
100
AcDbLine
 10
-26.19
 20
-9.731999999999999
 30
0.0
 11
-26.16699999999999
 21
-9.762999999999999
 31
0.0
  0
LINE
  5
18E
330
A
100
AcDbEntity
  8
PV
  6
Continuous
 62
     7
100
AcDbLine
 10
-26.16699999999999
 20
-9.762999999999999
 30
0.0
 11
-26.144
 21
-9.792999999999999
 31
0.0
  0
LINE
  5
18F
330
A
100
AcDbEntity
  8
PV
  6
Continuous
 62
     7
100
AcDbLine
 10
-26.144
 20
-9.792999999999999
 30
0.0
 11
-26.12
 21
-9.823999999999999
 31
0.0
  0
LINE
  5
190
330
A
100
AcDbEntity
  8
PV
  6
Continuous
 62
     7
100
AcDbLine
 10
-26.12
 20
-9.823999999999999
 30
0.0
 11
-26.096
 21
-9.853999999999999
 31
0.0
  0
LINE
  5
191
330
A
100
AcDbEntity
  8
PV
  6
Continuous
 62
     7
100
AcDbLine
 10
-26.096
 20
-9.853999999999999
 30
0.0
 11
-26.072
 21
-9.882999999999999
 31
0.0
  0
LINE
  5
192
330
A
100
AcDbEntity
  8
PV
  6
Continuous
 62
     7
100
AcDbLine
 10
-2.77
 20
-180.872
 30
0.0
 11
0.0
 21
-181.614
 31
0.0
  0
LINE
  5
193
330
A
100
AcDbEntity
  8
PV
  6
Continuous
 62
     7
100
AcDbLine
 10
0.0
 20
-181.614
 30
0.0
 11
-2.77
 21
-182.357
 31
0.0
  0
LINE
  5
194
330
A
100
AcDbEntity
  8
PV
  6
Continuous
 62
     7
100
AcDbLine
 10
0.0
 20
-181.614
 30
0.0
 11
-2.77
 21
-181.614
 31
0.0
  0
LINE
  5
195
330
A
100
AcDbEntity
  8
PV
  6
Continuous
 62
     7
100
AcDbLine
 10
-62.22999999999998
 20
-182.357
 30
0.0
 11
-65.0
 21
-181.614
 31
0.0
  0
LINE
  5
196
330
A
100
AcDbEntity
  8
PV
  6
Continuous
 62
     7
100
AcDbLine
 10
-65.0
 20
-181.614
 30
0.0
 11
-62.22999999999998
 21
-180.872
 31
0.0
  0
LINE
  5
197
330
A
100
AcDbEntity
  8
PV
  6
Continuous
 62
     7
100
AcDbLine
 10
-65.0
 20
-181.614
 30
0.0
 11
-62.22999999999998
 21
-181.614
 31
0.0
  0
LINE
  5
198
330
A
100
AcDbEntity
  8
PV
  6
Continuous
 62
     7
100
AcDbLine
 10
0.0
 20
-181.614
 30
0.0
 11
-65.0
 21
-181.614
 31
0.0
  0
LINE
  5
199
330
A
100
AcDbEntity
  8
PV
  6
Continuous
 62
     7
100
AcDbLine
 10
0.0
 20
-167.472
 30
0.0
 11
0.0
 21
-183.9
 31
0.0
  0
LINE
  5
19A
330
A
100
AcDbEntity
  8
PV
  6
Continuous
 62
     7
100
AcDbLine
 10
-65.0
 20
-120.8031979999999
 30
0.0
 11
-65.0
 21
-183.9
 31
0.0
  0
MTEXT
  5
19B
330
A
100
AcDbEntity
  8
PV
  6
Continuous
 62
     7
100
AcDbMText
 10
-31.314
 20
-173.513999
 30
0.0
 40
6.5
 41
0.0
 71
     2
 72
     1
  1
\W0.952;\A1;65
 73
     1
 44
1.0
  0
POINT
  5
19C
330
A
100
AcDbEntity
  8
PV
  6
Continuous
 62
     7
100
AcDbPoint
 10
0.0
 20
-159.932
 30
0.0
  0
POINT
  5
19D
330
A
100
AcDbEntity
  8
PV
  6
Continuous
 62
     7
100
AcDbPoint
 10
-65.0
 20
-116.0
 30
0.0
  0
POINT
  5
19E
330
A
100
AcDbEntity
  8
PV
  6
Continuous
 62
     7
100
AcDbPoint
 10
-65.0
 20
-181.614
 30
0.0
  0
LINE
  5
19F
330
A
100
AcDbEntity
  8
PV
  6
Continuous
 62
     7
100
AcDbLine
 10
-86.42100000000002
 20
-150.7299999999998
 30
0.0
 11
-87.164
 21
-153.5
 31
0.0
  0
LINE
  5
1A0
330
A
100
AcDbEntity
  8
PV
  6
Continuous
 62
     7
100
AcDbLine
 10
-87.164
 20
-153.5
 30
0.0
 11
-87.90600000000003
 21
-150.7299999999998
 31
0.0
  0
LINE
  5
1A1
330
A
100
AcDbEntity
  8
PV
  6
Continuous
 62
     7
100
AcDbLine
 10
-87.164
 20
-153.5
 30
0.0
 11
-87.164
 21
-150.7299999999998
 31
0.0
  0
LINE
  5
1A2
330
A
100
AcDbEntity
  8
PV
  6
Continuous
 62
     7
100
AcDbLine
 10
-87.90600000000003
 20
-91.27
 30
0.0
 11
-87.164
 21
-88.49999999999999
 31
0.0
  0
LINE
  5
1A3
330
A
100
AcDbEntity
  8
PV
  6
Continuous
 62
     7
100
AcDbLine
 10
-87.164
 20
-88.49999999999999
 30
0.0
 11
-86.42100000000002
 21
-91.27
 31
0.0
  0
LINE
  5
1A4
330
A
100
AcDbEntity
  8
PV
  6
Continuous
 62
     7
100
AcDbLine
 10
-87.164
 20
-88.49999999999999
 30
0.0
 11
-87.164
 21
-91.27
 31
0.0
  0
LINE
  5
1A5
330
A
100
AcDbEntity
  8
PV
  6
Continuous
 62
     7
100
AcDbLine
 10
-87.164
 20
-153.5
 30
0.0
 11
-87.164
 21
-88.49999999999999
 31
0.0
  0
LINE
  5
1A6
330
A
100
AcDbEntity
  8
PV
  6
Continuous
 62
     7
100
AcDbLine
 10
-30.04
 20
-153.5
 30
0.0
 11
-89.45
 21
-153.5
 31
0.0
  0
LINE
  5
1A7
330
A
100
AcDbEntity
  8
PV
  6
Continuous
 62
     7
100
AcDbLine
 10
-74.333
 20
-88.49999999999999
 30
0.0
 11
-89.45
 21
-88.49999999999999
 31
0.0
  0
MTEXT
  5
1A8
330
A
100
AcDbEntity
  8
PV
  6
Continuous
 62
     7
100
AcDbMText
 10
-95.264001
 20
-121.0
 30
0.0
 40
6.5
 41
0.0
 71
     2
 72
     1
  1
\W0.952;\A1;65
 11
0.0
 21
1.0
 31
0.0
 73
     1
 44
1.0
  0
POINT
  5
1A9
330
A
100
AcDbEntity
  8
PV
  6
Continuous
 62
     7
100
AcDbPoint
 10
-27.5
 20
-153.5
 30
0.0
  0
POINT
  5
1AA
330
A
100
AcDbEntity
  8
PV
  6
Continuous
 62
     7
100
AcDbPoint
 10
-71.79300000000002
 20
-88.49999999999999
 30
0.0
  0
POINT
  5
1AB
330
A
100
AcDbEntity
  8
PV
  6
Continuous
 62
     7
100
AcDbPoint
 10
-87.164
 20
-88.49999999999999
 30
0.0
  0
LINE
  5
1AC
330
A
100
AcDbEntity
  8
PV
  6
Continuous
 62
     7
100
AcDbLine
 10
-74.956
 20
-113.23
 30
0.0
 11
-75.698
 21
-116.0
 31
0.0
  0
LINE
  5
1AD
330
A
100
AcDbEntity
  8
PV
  6
Continuous
 62
     7
100
AcDbLine
 10
-75.698
 20
-116.0
 30
0.0
 11
-76.44
 21
-113.23
 31
0.0
  0
LINE
  5
1AE
330
A
100
AcDbEntity
  8
PV
  6
Continuous
 62
     7
100
AcDbLine
 10
-75.698
 20
-116.0
 30
0.0
 11
-75.698
 21
-113.23
 31
0.0
  0
LINE
  5
1AF
330
A
100
AcDbEntity
  8
PV
  6
Continuous
 62
     7
100
AcDbLine
 10
-76.44
 20
-63.77
 30
0.0
 11
-75.698
 21
-61.0
 31
0.0
  0
LINE
  5
1B0
330
A
100
AcDbEntity
  8
PV
  6
Continuous
 62
     7
100
AcDbLine
 10
-75.698
 20
-61.0
 30
0.0
 11
-74.956
 21
-63.77
 31
0.0
  0
LINE
  5
1B1
330
A
100
AcDbEntity
  8
PV
  6
Continuous
 62
     7
100
AcDbLine
 10
-75.698
 20
-61.0
 30
0.0
 11
-75.698
 21
-63.77
 31
0.0
  0
LINE
  5
1B2
330
A
100
AcDbEntity
  8
PV
  6
Continuous
 62
     7
100
AcDbLine
 10
-75.698
 20
-116.0
 30
0.0
 11
-75.698
 21
-61.0
 31
0.0
  0
LINE
  5
1B3
330
A
100
AcDbEntity
  8
PV
  6
Continuous
 62
     7
100
AcDbLine
 10
-67.54000000000001
 20
-116.0
 30
0.0
 11
-77.98399999999998
 21
-116.0
 31
0.0
  0
LINE
  5
1B4
330
A
100
AcDbEntity
  8
PV
  6
Continuous
 62
     7
100
AcDbLine
 10
-67.54000000000001
 20
-61.0
 30
0.0
 11
-77.98399999999998
 21
-61.0
 31
0.0
  0
MTEXT
  5
1B5
330
A
100
AcDbEntity
  8
PV
  6
Continuous
 62
     7
100
AcDbMText
 10
-83.798001
 20
-77.491
 30
0.0
 40
6.5
 41
0.0
 71
     2
 72
     1
  1
\T0.912;\W1.064;\A1;\U+220555
 11
0.0
 21
1.0
 31
0.0
 73
     1
 44
1.0
  0
POINT
  5
1B6
330
A
100
AcDbEntity
  8
PV
  6
Continuous
 62
     7
100
AcDbPoint
 10
-65.0
 20
-116.0
 30
0.0
  0
POINT
  5
1B7
330
A
100
AcDbEntity
  8
PV
  6
Continuous
 62
     7
100
AcDbPoint
 10
-65.0
 20
-61.0
 30
0.0
  0
POINT
  5
1B8
330
A
100
AcDbEntity
  8
PV
  6
Continuous
 62
     7
100
AcDbPoint
 10
-75.698
 20
-61.0
 30
0.0
  0
LINE
  5
1B9
330
A
100
AcDbEntity
  8
PV
  6
Continuous
 62
     7
100
AcDbLine
 10
24.73
 20
-164.4059999999998
 30
0.0
 11
27.5
 21
-165.149
 31
0.0
  0
LINE
  5
1BA
330
A
100
AcDbEntity
  8
PV
  6
Continuous
 62
     7
100
AcDbLine
 10
27.5
 20
-165.149
 30
0.0
 11
24.73
 21
-165.8909999999998
 31
0.0
  0
LINE
  5
1BB
330
A
100
AcDbEntity
  8
PV
  6
Continuous
 62
     7
100
AcDbLine
 10
27.5
 20
-165.149
 30
0.0
 11
24.73
 21
-165.149
 31
0.0
  0
LINE
  5
1BC
330
A
100
AcDbEntity
  8
PV
  6
Continuous
 62
     7
100
AcDbLine
 10
-24.73
 20
-165.8909999999998
 30
0.0
 11
-27.5
 21
-165.149
 31
0.0
  0
LINE
  5
1BD
330
A
100
AcDbEntity
  8
PV
  6
Continuous
 62
     7
100
AcDbLine
 10
-27.5
 20
-165.149
 30
0.0
 11
-24.73
 21
-164.4059999999998
 31
0.0
  0
LINE
  5
1BE
330
A
100
AcDbEntity
  8
PV
  6
Continuous
 62
     7
100
AcDbLine
 10
-27.5
 20
-165.149
 30
0.0
 11
-24.73
 21
-165.149
 31
0.0
  0
LINE
  5
1BF
330
A
100
AcDbEntity
  8
PV
  6
Continuous
 62
     7
100
AcDbLine
 10
27.5
 20
-165.149
 30
0.0
 11
-27.5
 21
-165.149
 31
0.0
  0
LINE
  5
1C0
330
A
100
AcDbEntity
  8
PV
  6
Continuous
 62
     7
100
AcDbLine
 10
27.5
 20
-156.04
 30
0.0
 11
27.5
 21
-167.435
 31
0.0
  0
LINE
  5
1C1
330
A
100
AcDbEntity
  8
PV
  6
Continuous
 62
     7
100
AcDbLine
 10
-27.5
 20
-156.04
 30
0.0
 11
-27.5
 21
-167.435
 31
0.0
  0
MTEXT
  5
1C2
330
A
100
AcDbEntity
  8
PV
  6
Continuous
 62
     7
100
AcDbMText
 10
11.329
 20
-157.048999
 30
0.0
 40
6.5
 41
0.0
 71
     2
 72
     1
  1
\T0.912;\W1.064;\A1;\U+220555
 73
     1
 44
1.0
  0
POINT
  5
1C3
330
A
100
AcDbEntity
  8
PV
  6
Continuous
 62
     7
100
AcDbPoint
 10
27.5
 20
-153.5
 30
0.0
  0
POINT
  5
1C4
330
A
100
AcDbEntity
  8
PV
  6
Continuous
 62
     7
100
AcDbPoint
 10
-27.5
 20
-153.5
 30
0.0
  0
POINT
  5
1C5
330
A
100
AcDbEntity
  8
PV
  6
Continuous
 62
     7
100
AcDbPoint
 10
-27.5
 20
-165.149
 30
0.0
  0
CIRCLE
  5
1C6
330
A
100
AcDbEntity
  8
PV
  6
Continuous
 62
     7
100
AcDbCircle
 10
-31.0
 20
144.006
 30
0.0
 40
5.633999999999998
  0
CIRCLE
  5
1C7
330
A
100
AcDbEntity
  8
PV
  6
Continuous
 62
     7
100
AcDbCircle
 10
-31.0
 20
144.006
 30
0.0
 40
6.5
  0
LINE
  5
1C8
330
A
100
AcDbEntity
  8
PV
  6
Continuous
 62
     7
100
AcDbLine
 10
-34.0
 20
142.274
 30
0.0
 11
-31.0
 21
140.542
 31
0.0
  0
LINE
  5
1C9
330
A
100
AcDbEntity
  8
PV
  6
Continuous
 62
     7
100
AcDbLine
 10
-31.0
 20
147.4709999999999
 30
0.0
 11
-28.0
 21
145.738
 31
0.0
  0
LINE
  5
1CA
330
A
100
AcDbEntity
  8
PV
  6
Continuous
 62
     7
100
AcDbLine
 10
-34.0
 20
145.738
 30
0.0
 11
-34.0
 21
142.274
 31
0.0
  0
LINE
  5
1CB
330
A
100
AcDbEntity
  8
PV
  6
Continuous
 62
     7
100
AcDbLine
 10
-28.0
 20
145.738
 30
0.0
 11
-28.0
 21
142.274
 31
0.0
  0
LINE
  5
1CC
330
A
100
AcDbEntity
  8
PV
  6
Continuous
 62
     7
100
AcDbLine
 10
-34.0
 20
145.738
 30
0.0
 11
-31.0
 21
147.4709999999999
 31
0.0
  0
LINE
  5
1CD
330
A
100
AcDbEntity
  8
PV
  6
Continuous
 62
     7
100
AcDbLine
 10
-31.0
 20
140.542
 30
0.0
 11
-28.0
 21
142.274
 31
0.0
  0
CIRCLE
  5
1CE
330
A
100
AcDbEntity
  8
PV
  6
Continuous
 62
     7
100
AcDbCircle
 10
31.0
 20
144.006
 30
0.0
 40
5.633999999999998
  0
CIRCLE
  5
1CF
330
A
100
AcDbEntity
  8
PV
  6
Continuous
 62
     7
100
AcDbCircle
 10
31.0
 20
144.006
 30
0.0
 40
6.5
  0
LINE
  5
1D0
330
A
100
AcDbEntity
  8
PV
  6
Continuous
 62
     7
100
AcDbLine
 10
28.0
 20
142.274
 30
0.0
 11
31.0
 21
140.542
 31
0.0
  0
LINE
  5
1D1
330
A
100
AcDbEntity
  8
PV
  6
Continuous
 62
     7
100
AcDbLine
 10
31.0
 20
147.4709999999999
 30
0.0
 11
34.0
 21
145.738
 31
0.0
  0
LINE
  5
1D2
330
A
100
AcDbEntity
  8
PV
  6
Continuous
 62
     7
100
AcDbLine
 10
28.0
 20
145.738
 30
0.0
 11
28.0
 21
142.274
 31
0.0
  0
LINE
  5
1D3
330
A
100
AcDbEntity
  8
PV
  6
Continuous
 62
     7
100
AcDbLine
 10
34.0
 20
145.738
 30
0.0
 11
34.0
 21
142.274
 31
0.0
  0
LINE
  5
1D4
330
A
100
AcDbEntity
  8
PV
  6
Continuous
 62
     7
100
AcDbLine
 10
28.0
 20
145.738
 30
0.0
 11
31.0
 21
147.4709999999999
 31
0.0
  0
LINE
  5
1D5
330
A
100
AcDbEntity
  8
PV
  6
Continuous
 62
     7
100
AcDbLine
 10
31.0
 20
140.542
 30
0.0
 11
34.0
 21
142.274
 31
0.0
  0
CIRCLE
  5
1D6
330
A
100
AcDbEntity
  8
PV
  6
Continuous
 62
     7
100
AcDbCircle
 10
31.0
 20
82.00599999999999
 30
0.0
 40
5.633999999999998
  0
CIRCLE
  5
1D7
330
A
100
AcDbEntity
  8
PV
  6
Continuous
 62
     7
100
AcDbCircle
 10
31.0
 20
82.00599999999999
 30
0.0
 40
6.5
  0
LINE
  5
1D8
330
A
100
AcDbEntity
  8
PV
  6
Continuous
 62
     7
100
AcDbLine
 10
28.0
 20
80.274
 30
0.0
 11
31.0
 21
78.542
 31
0.0
  0
LINE
  5
1D9
330
A
100
AcDbEntity
  8
PV
  6
Continuous
 62
     7
100
AcDbLine
 10
31.0
 20
85.471
 30
0.0
 11
34.0
 21
83.73800000000001
 31
0.0
  0
LINE
  5
1DA
330
A
100
AcDbEntity
  8
PV
  6
Continuous
 62
     7
100
AcDbLine
 10
28.0
 20
83.73800000000001
 30
0.0
 11
28.0
 21
80.274
 31
0.0
  0
LINE
  5
1DB
330
A
100
AcDbEntity
  8
PV
  6
Continuous
 62
     7
100
AcDbLine
 10
34.0
 20
83.73800000000001
 30
0.0
 11
34.0
 21
80.274
 31
0.0
  0
LINE
  5
1DC
330
A
100
AcDbEntity
  8
PV
  6
Continuous
 62
     7
100
AcDbLine
 10
28.0
 20
83.73800000000001
 30
0.0
 11
31.0
 21
85.471
 31
0.0
  0
LINE
  5
1DD
330
A
100
AcDbEntity
  8
PV
  6
Continuous
 62
     7
100
AcDbLine
 10
31.0
 20
78.542
 30
0.0
 11
34.0
 21
80.274
 31
0.0
  0
CIRCLE
  5
1DE
330
A
100
AcDbEntity
  8
PV
  6
Continuous
 62
     7
100
AcDbCircle
 10
-31.0
 20
82.00599999999999
 30
0.0
 40
5.633999999999998
  0
CIRCLE
  5
1DF
330
A
100
AcDbEntity
  8
PV
  6
Continuous
 62
     7
100
AcDbCircle
 10
-31.0
 20
82.00599999999999
 30
0.0
 40
6.5
  0
LINE
  5
1E0
330
A
100
AcDbEntity
  8
PV
  6
Continuous
 62
     7
100
AcDbLine
 10
-34.0
 20
80.274
 30
0.0
 11
-31.0
 21
78.542
 31
0.0
  0
LINE
  5
1E1
330
A
100
AcDbEntity
  8
PV
  6
Continuous
 62
     7
100
AcDbLine
 10
-31.0
 20
85.471
 30
0.0
 11
-28.0
 21
83.73800000000001
 31
0.0
  0
LINE
  5
1E2
330
A
100
AcDbEntity
  8
PV
  6
Continuous
 62
     7
100
AcDbLine
 10
-34.0
 20
83.73800000000001
 30
0.0
 11
-34.0
 21
80.274
 31
0.0
  0
LINE
  5
1E3
330
A
100
AcDbEntity
  8
PV
  6
Continuous
 62
     7
100
AcDbLine
 10
-28.0
 20
83.73800000000001
 30
0.0
 11
-28.0
 21
80.274
 31
0.0
  0
LINE
  5
1E4
330
A
100
AcDbEntity
  8
PV
  6
Continuous
 62
     7
100
AcDbLine
 10
-34.0
 20
83.73800000000001
 30
0.0
 11
-31.0
 21
85.471
 31
0.0
  0
LINE
  5
1E5
330
A
100
AcDbEntity
  8
PV
  6
Continuous
 62
     7
100
AcDbLine
 10
-31.0
 20
78.542
 30
0.0
 11
-28.0
 21
80.274
 31
0.0
  0
SOLID
  5
1E6
330
A
100
AcDbEntity
  8
PV
  6
Continuous
 62
     7
100
AcDbTrace
 10
-13.13099999999999
 20
126.3509999999999
 30
0.0
 11
-12.68299999999999
 21
126.3509999999999
 31
0.0
 12
-13.13099999999999
 22
128.59
 32
0.0
 13
-12.68299999999999
 23
128.59
 33
0.0
  0
SOLID
  5
1E7
330
A
100
AcDbEntity
  8
PV
  6
Continuous
 62
     7
100
AcDbTrace
 10
-16.60099999999999
 20
126.3509999999999
 30
0.0
 11
-16.15299999999999
 21
126.3509999999999
 31
0.0
 12
-16.60099999999999
 22
128.59
 32
0.0
 13
-16.15299999999999
 23
128.59
 33
0.0
  0
SOLID
  5
1E8
330
A
100
AcDbEntity
  8
PV
  6
Continuous
 62
     7
100
AcDbTrace
 10
-2.7
 20
131.8159999999999
 30
0.0
 11
-1.149999999999999
 21
131.8159999999999
 31
0.0
 12
-2.7
 22
135.366
 32
0.0
 13
-1.149999999999999
 23
135.366
 33
0.0
  0
MTEXT
  5
1E9
330
A
100
AcDbEntity
  8
PV
  6
Continuous
 62
     7
100
AcDbMText
 10
7.032124
 20
92.17281300000001
 30
0.0
 40
1.5
 41
0.0
 71
     2
 72
     1
  1
\W1.048;\A1;N
 11
0.9304177033247324
 21
0.3665008831366308
 31
0.0
 73
     1
 44
1.0
  0
MTEXT
  5
1EA
330
A
100
AcDbEntity
  8
PV
  6
Continuous
 62
     7
100
AcDbMText
 10
-2.629156
 20
91.31268799999999
 30
0.0
 40
1.5
 41
0.0
 71
     2
 72
     1
  1
\W0.905;\A1;E
 11
0.9969173391662904
 21
-0.0784590266929423
 31
0.0
 73
     1
 44
1.0
  0
MTEXT
  5
1EB
330
A
100
AcDbEntity
  8
PV
  6
Continuous
 62
     7
100
AcDbMText
 10
-4.058213999999998
 20
91.48771399999999
 30
0.0
 40
1.5
 41
0.0
 71
     2
 72
     1
  1
\W0.952;\A1;S
 11
0.9862855482320082
 21
-0.1650479243998155
 31
0.0
 73
     1
 44
1.0
  0
MTEXT
  5
1EC
330
A
100
AcDbEntity
  8
PV
  6
Continuous
 62
     7
100
AcDbMText
 10
-5.466215
 20
91.78711099999999
 30
0.0
 40
1.5
 41
0.0
 71
     2
 72
     1
  1
\W1.048;\A1;O
 11
0.9681476639056606
 21
-0.2503799130801276
 31
0.0
 73
     1
 44
1.0
  0
MTEXT
  5
1ED
330
A
100
AcDbEntity
  8
PV
  6
Continuous
 62
     7
100
AcDbMText
 10
-6.842645
 20
92.20798100000001
 30
0.0
 40
1.5
 41
0.0
 71
     2
 72
     1
  1
\W0.810;\A1;L
 11
0.9426413920776289
 21
-0.3338071388421013
 31
0.0
 73
     1
 44
1.0
  0
MTEXT
  5
1EE
330
A
100
AcDbEntity
  8
PV
  6
Continuous
 62
     7
100
AcDbMText
 10
-8.17698
 20
92.747471
 30
0.0
 40
1.5
 41
0.0
 71
     2
 72
     1
  1
\A1;C
 11
0.9099613158612768
 21
-0.4146931439462357
 31
0.0
 73
     1
 44
1.0
  0
MTEXT
  5
1EF
330
A
100
AcDbEntity
  8
PV
  6
Continuous
 62
     7
100
AcDbMText
 10
5.670988999999998
 20
91.704115
 30
0.0
 40
1.5
 41
0.0
 71
     2
 72
     1
  1
\W0.905;\A1;E
 11
0.9588198501244839
 21
0.2840149556049157
 31
0.0
 73
     1
 44
1.0
  0
MTEXT
  5
1F0
330
A
100
AcDbEntity
  8
PV
  6
Continuous
 62
     7
100
AcDbMText
 10
4.274473999999998
 20
91.355944
 30
0.0
 40
1.5
 41
0.0
 71
     2
 72
     1
  1
\A1;P
 11
0.9799247035488139
 21
0.1993679396863229
 31
0.0
 73
     1
 44
1.0
  0
MTEXT
  5
1F1
330
A
100
AcDbEntity
  8
PV
  6
Continuous
 62
     7
100
AcDbMText
 10
2.852097999999998
 20
91.131179
 30
0.0
 40
1.5
 41
0.0
 71
     2
 72
     1
  1
\W1.048;\A1;O
 11
0.9935718815697164
 21
0.113202986506601
 31
0.0
 73
     1
 44
1.0
  0
MTEXT
  5
1F2
330
A
100
AcDbEntity
  8
PV
  6
Continuous
 62
     7
100
AcDbMText
 10
-0.06
 20
100.731
 30
0.0
 40
2.0
 41
0.0
 71
     2
 72
     1
  1
\W0.930;\A1;METAL BELLOWS
 73
     1
 44
1.0
  0
MTEXT
  5
1F3
330
A
100
AcDbEntity
  8
PV
  6
Continuous
 62
     7
100
AcDbMText
 10
0.003
 20
105.793
 30
0.0
 40
2.0
 41
0.0
 71
     2
 72
     1
  1
\W0.925;\A1;HIGH VACUUM VALVES
 73
     1
 44
1.0
  0
LWPOLYLINE
  5
1F4
330
A
100
AcDbEntity
  8
PV
  6
Continuous
 62
     7
100
AcDbPolyline
 90
       94
 70
     0
 43
0.0
 10
22.36699999999999
 20
118.206
 10
22.366
 20
118.2099999999999
 10
22.351
 20
118.256
 10
22.335
 20
118.3
 10
22.31599999999999
 20
118.344
 10
22.296
 20
118.3869999999999
 10
22.274
 20
118.429
 10
22.25
 20
118.47
 10
22.225
 20
118.51
 10
22.198
 20
118.5489999999999
 10
22.169
 20
118.5859999999999
 10
22.139
 20
118.6229999999999
 10
22.107
 20
118.657
 10
22.074
 20
118.69
 10
22.039
 20
118.722
 10
22.004
 20
118.752
 10
21.96699999999999
 20
118.7799999999999
 10
21.929
 20
118.8069999999999
 10
21.89
 20
118.832
 10
21.849
 20
118.855
 10
21.808
 20
118.876
 10
21.766
 20
118.896
 10
21.724
 20
118.913
 10
21.68
 20
118.9289999999999
 10
21.636
 20
118.942
 10
21.59199999999999
 20
118.9529999999999
 10
21.54699999999999
 20
118.9629999999999
 10
21.50199999999999
 20
118.9699999999999
 10
21.45599999999999
 20
118.9749999999999
 10
21.41
 20
118.978
 10
21.36499999999998
 20
118.979
 10
21.319
 20
118.978
 10
21.273
 20
118.9749999999999
 10
21.22699999999999
 20
118.9699999999999
 10
21.18199999999998
 20
118.9629999999999
 10
21.13699999999999
 20
118.9529999999999
 10
21.093
 20
118.942
 10
21.049
 20
118.9289999999999
 10
21.00499999999998
 20
118.913
 10
20.963
 20
118.896
 10
20.92099999999998
 20
118.876
 10
20.88
 20
118.855
 10
20.84
 20
118.832
 10
20.8
 20
118.8069999999999
 10
20.76199999999999
 20
118.7799999999999
 10
20.725
 20
118.752
 10
20.69
 20
118.722
 10
20.655
 20
118.69
 10
20.622
 20
118.657
 10
20.59
 20
118.6229999999999
 10
20.56
 20
118.5859999999999
 10
20.53199999999999
 20
118.5489999999999
 10
20.504
 20
118.51
 10
20.47899999999998
 20
118.47
 10
20.455
 20
118.429
 10
20.43299999999999
 20
118.3869999999999
 10
20.413
 20
118.344
 10
20.394
 20
118.3
 10
20.378
 20
118.256
 10
20.363
 20
118.2099999999999
 10
20.35
 20
118.164
 10
20.339
 20
118.1179999999999
 10
20.32999999999999
 20
118.0699999999999
 10
20.324
 20
118.0229999999999
 10
20.319
 20
117.975
 10
20.316
 20
117.927
 10
20.315
 20
117.879
 10
20.316
 20
117.8309999999999
 10
20.319
 20
117.7839999999999
 10
20.324
 20
117.7359999999999
 10
20.32999999999999
 20
117.6879999999999
 10
20.339
 20
117.641
 10
20.35
 20
117.595
 10
20.363
 20
117.5489999999999
 10
20.378
 20
117.5029999999999
 10
20.394
 20
117.4579999999999
 10
20.413
 20
117.415
 10
20.43299999999999
 20
117.372
 10
20.455
 20
117.3289999999999
 10
20.47899999999998
 20
117.2879999999999
 10
20.504
 20
117.2479999999999
 10
20.53199999999999
 20
117.2099999999999
 10
20.56
 20
117.172
 10
20.59
 20
117.136
 10
20.622
 20
117.102
 10
20.655
 20
117.0679999999999
 10
20.69
 20
117.037
 10
20.725
 20
117.007
 10
20.76199999999999
 20
116.978
 10
20.8
 20
116.952
 10
20.84
 20
116.927
 10
20.88
 20
116.904
 10
20.92099999999998
 20
116.8819999999999
 10
20.949
 20
116.869
  0
LWPOLYLINE
  5
1F5
330
A
100
AcDbEntity
  8
PV
  6
Continuous
 62
     7
100
AcDbPolyline
 90
       94
 70
     0
 43
0.0
 10
19.96199999999999
 20
115.856
 10
19.963
 20
115.8509999999999
 10
19.97799999999998
 20
115.806
 10
19.99399999999998
 20
115.761
 10
20.013
 20
115.717
 10
20.033
 20
115.6739999999998
 10
20.055
 20
115.632
 10
20.079
 20
115.591
 10
20.104
 20
115.551
 10
20.132
 20
115.5129999999999
 10
20.16
 20
115.4749999999999
 10
20.19
 20
115.439
 10
20.222
 20
115.4039999999999
 10
20.255
 20
115.371
 10
20.28999999999999
 20
115.3399999999999
 10
20.325
 20
115.31
 10
20.362
 20
115.281
 10
20.4
 20
115.2549999999999
 10
20.44
 20
115.23
 10
20.48
 20
115.207
 10
20.521
 20
115.185
 10
20.563
 20
115.1659999999999
 10
20.605
 20
115.149
 10
20.649
 20
115.1329999999999
 10
20.693
 20
115.12
 10
20.737
 20
115.1079999999998
 10
20.78199999999998
 20
115.0989999999999
 10
20.82699999999998
 20
115.092
 10
20.873
 20
115.0859999999999
 10
20.919
 20
115.083
 10
20.965
 20
115.082
 10
21.01
 20
115.083
 10
21.05599999999998
 20
115.0859999999999
 10
21.10199999999998
 20
115.092
 10
21.147
 20
115.0989999999999
 10
21.19199999999998
 20
115.1079999999998
 10
21.236
 20
115.12
 10
21.28
 20
115.1329999999999
 10
21.324
 20
115.149
 10
21.366
 20
115.1659999999999
 10
21.408
 20
115.185
 10
21.449
 20
115.207
 10
21.49
 20
115.23
 10
21.529
 20
115.2549999999999
 10
21.56699999999998
 20
115.281
 10
21.604
 20
115.31
 10
21.63899999999999
 20
115.3399999999999
 10
21.674
 20
115.371
 10
21.70699999999999
 20
115.4039999999999
 10
21.739
 20
115.439
 10
21.769
 20
115.4749999999999
 10
21.798
 20
115.5129999999999
 10
21.825
 20
115.551
 10
21.85
 20
115.591
 10
21.874
 20
115.632
 10
21.89599999999999
 20
115.6739999999998
 10
21.916
 20
115.717
 10
21.93499999999999
 20
115.761
 10
21.951
 20
115.806
 10
21.96599999999999
 20
115.8509999999999
 10
21.979
 20
115.8979999999999
 10
21.98999999999999
 20
115.944
 10
21.999
 20
115.9909999999999
 10
22.006
 20
116.039
 10
22.01099999999999
 20
116.086
 10
22.014
 20
116.134
 10
22.015
 20
116.182
 10
22.014
 20
116.23
 10
22.01099999999999
 20
116.2779999999999
 10
22.006
 20
116.326
 10
21.999
 20
116.3729999999999
 10
21.98999999999999
 20
116.42
 10
21.979
 20
116.467
 10
21.96599999999999
 20
116.5129999999999
 10
21.951
 20
116.558
 10
21.93499999999999
 20
116.6029999999999
 10
21.916
 20
116.647
 10
21.89599999999999
 20
116.69
 10
21.874
 20
116.732
 10
21.85
 20
116.7729999999999
 10
21.825
 20
116.8129999999999
 10
21.798
 20
116.852
 10
21.769
 20
116.8889999999999
 10
21.739
 20
116.9249999999999
 10
21.70699999999999
 20
116.9599999999999
 10
21.674
 20
116.9929999999999
 10
21.63899999999999
 20
117.025
 10
21.604
 20
117.055
 10
21.56699999999998
 20
117.083
 10
21.529
 20
117.11
 10
21.49
 20
117.135
 10
21.449
 20
117.1579999999998
 10
21.408
 20
117.179
 10
21.37999999999999
 20
117.192
  0
LWPOLYLINE
  5
1F6
330
A
100
AcDbEntity
  8
PV
  6
Continuous
 62
     7
100
AcDbPolyline
 90
       26
 70
     0
 43
0.0
 10
-10.318
 20
117.6949999999999
 10
-10.319
 20
117.6979999999999
 10
-10.34299999999999
 20
117.774
 10
-10.37099999999999
 20
117.8489999999999
 10
-10.401
 20
117.922
 10
-10.434
 20
117.9939999999999
 10
-10.47
 20
118.0629999999998
 10
-10.509
 20
118.131
 10
-10.55
 20
118.1959999999999
 10
-10.594
 20
118.26
 10
-10.64
 20
118.32
 10
-10.68899999999999
 20
118.3789999999999
 10
-10.739
 20
118.435
 10
-10.79299999999999
 20
118.4879999999999
 10
-10.84799999999999
 20
118.538
 10
-10.905
 20
118.585
 10
-10.964
 20
118.6289999999999
 10
-11.025
 20
118.671
 10
-11.088
 20
118.7089999999999
 10
-11.152
 20
118.744
 10
-11.217
 20
118.775
 10
-11.284
 20
118.8029999999999
 10
-11.35199999999999
 20
118.8279999999999
 10
-11.42099999999999
 20
118.8489999999999
 10
-11.49
 20
118.867
 10
-11.561
 20
118.8819999999999
  0
LWPOLYLINE
  5
1F7
330
A
100
AcDbEntity
  8
PV
  6
Continuous
 62
     7
100
AcDbPolyline
 90
      113
 70
     0
 43
0.0
 10
-11.561
 20
118.8819999999999
 10
-11.632
 20
118.892
 10
-11.704
 20
118.8989999999999
 10
-11.77599999999999
 20
118.903
 10
-11.84799999999998
 20
118.903
 10
-11.91999999999999
 20
118.8989999999999
 10
-11.993
 20
118.892
 10
-12.065
 20
118.8809999999999
 10
-12.137
 20
118.867
 10
-12.208
 20
118.8489999999999
 10
-12.279
 20
118.827
 10
-12.34799999999999
 20
118.802
 10
-12.418
 20
118.774
 10
-12.48599999999999
 20
118.742
 10
-12.553
 20
118.707
 10
-12.618
 20
118.669
 10
-12.68299999999999
 20
118.6279999999999
 10
-12.74499999999999
 20
118.5839999999999
 10
-12.807
 20
118.5359999999999
 10
-12.86599999999999
 20
118.486
 10
-12.924
 20
118.4329999999999
 10
-12.979
 20
118.377
 10
-13.033
 20
118.3179999999999
 10
-13.084
 20
118.257
 10
-13.13299999999999
 20
118.1939999999999
 10
-13.18
 20
118.1289999999999
 10
-13.224
 20
118.061
 10
-13.266
 20
117.991
 10
-13.305
 20
117.92
 10
-13.341
 20
117.846
 10
-13.375
 20
117.771
 10
-13.406
 20
117.6949999999999
 10
-13.434
 20
117.617
 10
-13.459
 20
117.5389999999999
 10
-13.481
 20
117.459
 10
-13.5
 20
117.3779999999998
 10
-13.51599999999999
 20
117.297
 10
-13.529
 20
117.215
 10
-13.538
 20
117.1329999999999
 10
-13.545
 20
117.05
 10
-13.548
 20
116.9679999999999
 10
-13.549
 20
116.885
 10
-13.546
 20
116.8029999999999
 10
-13.54
 20
116.721
 10
-13.53099999999999
 20
116.64
 10
-13.51799999999999
 20
116.5589999999999
 10
-13.503
 20
116.4789999999999
 10
-13.484
 20
116.401
 10
-13.463
 20
116.3229999999999
 10
-13.439
 20
116.247
 10
-13.41099999999999
 20
116.172
 10
-13.38099999999999
 20
116.0989999999999
 10
-13.34799999999999
 20
116.027
 10
-13.312
 20
115.958
 10
-13.273
 20
115.89
 10
-13.232
 20
115.8239999999999
 10
-13.18799999999999
 20
115.761
 10
-13.142
 20
115.7
 10
-13.093
 20
115.642
 10
-13.042
 20
115.586
 10
-12.989
 20
115.5329999999999
 10
-12.934
 20
115.483
 10
-12.877
 20
115.436
 10
-12.817
 20
115.3909999999999
 10
-12.757
 20
115.3499999999999
 10
-12.694
 20
115.312
 10
-12.63
 20
115.277
 10
-12.56499999999999
 20
115.246
 10
-12.498
 20
115.217
 10
-12.43
 20
115.1929999999999
 10
-12.36099999999999
 20
115.171
 10
-12.29099999999998
 20
115.154
 10
-12.22099999999999
 20
115.1389999999999
 10
-12.15
 20
115.1289999999999
 10
-12.07799999999999
 20
115.121
 10
-12.00599999999999
 20
115.1179999999999
 10
-11.934
 20
115.1179999999999
 10
-11.86099999999999
 20
115.122
 10
-11.789
 20
115.1289999999999
 10
-11.717
 20
115.1399999999999
 10
-11.645
 20
115.154
 10
-11.574
 20
115.172
 10
-11.503
 20
115.1929999999999
 10
-11.43299999999999
 20
115.2179999999999
 10
-11.364
 20
115.247
 10
-11.29599999999999
 20
115.2779999999999
 10
-11.229
 20
115.3129999999999
 10
-11.163
 20
115.352
 10
-11.099
 20
115.3929999999999
 10
-11.03599999999999
 20
115.437
 10
-10.97499999999999
 20
115.4849999999999
 10
-10.91599999999999
 20
115.535
 10
-10.85799999999998
 20
115.588
 10
-10.803
 20
115.6439999999999
 10
-10.749
 20
115.702
 10
-10.698
 20
115.7629999999999
 10
-10.649
 20
115.827
 10
-10.602
 20
115.892
 10
-10.558
 20
115.9599999999999
 10
-10.51599999999999
 20
116.03
 10
-10.477
 20
116.101
 10
-10.44
 20
116.1739999999999
 10
-10.40699999999999
 20
116.249
 10
-10.376
 20
116.326
 10
-10.34799999999999
 20
116.4029999999999
 10
-10.32299999999999
 20
116.482
 10
-10.30099999999999
 20
116.562
 10
-10.282
 20
116.6429999999998
 10
-10.26599999999999
 20
116.7239999999999
 10
-10.253
 20
116.806
 10
-10.24299999999999
 20
116.8879999999999
 10
-10.237
 20
116.971
 10
-10.235
 20
117.01
  0
ARC
  5
1F8
330
A
100
AcDbEntity
  8
PV
  6
Continuous
 62
     7
100
AcDbCircle
 10
1.175
 20
107.562
 30
0.0
 40
17.25
100
AcDbArc
 50
294.333537
 51
311.660234
  0
ARC
  5
1F9
330
A
100
AcDbEntity
  8
PV
  6
Continuous
 62
     7
100
AcDbCircle
 10
-1.618
 20
107.799
 30
0.0
 40
17.25
100
AcDbArc
 50
228.339771
 51
243.535371
  0
ARC
  5
1FA
330
A
100
AcDbEntity
  8
PV
  6
Continuous
 62
   254
100
AcDbCircle
 10
15.638
 20
127.471
 30
0.0
 40
1.118999999999998
100
AcDbArc
 50
359.999996
 51
90.00003000000003
  0
ARC
  5
1FB
330
A
100
AcDbEntity
  8
PV
  6
Continuous
 62
   254
100
AcDbCircle
 10
15.638
 20
127.471
 30
0.0
 40
0.6720000000000002
100
AcDbArc
 50
359.999996
 51
90.00003000000003
  0
ARC
  5
1FC
330
A
100
AcDbEntity
  8
PV
  6
Continuous
 62
   254
100
AcDbCircle
 10
7.577999999999998
 20
127.471
 30
0.0
 40
1.118999999999998
100
AcDbArc
 50
359.999996
 51
89.999975
  0
ARC
  5
1FD
330
A
100
AcDbEntity
  8
PV
  6
Continuous
 62
   254
100
AcDbCircle
 10
7.577999999999998
 20
127.471
 30
0.0
 40
0.6720000000000002
100
AcDbArc
 50
359.999996
 51
89.999975
  0
ARC
  5
1FE
330
A
100
AcDbEntity
  8
PV
  6
Continuous
 62
   254
100
AcDbCircle
 10
7.354
 20
127.471
 30
0.0
 40
0.6720000000000002
100
AcDbArc
 50
179.999978
 51
270.000001
  0
ARC
  5
1FF
330
A
100
AcDbEntity
  8
PV
  6
Continuous
 62
   254
100
AcDbCircle
 10
7.354
 20
127.471
 30
0.0
 40
1.118999999999998
100
AcDbArc
 50
179.999978
 51
270.000001
  0
ARC
  5
200
330
A
100
AcDbEntity
  8
PV
  6
Continuous
 62
   254
100
AcDbCircle
 10
-5.631
 20
127.471
 30
0.0
 40
1.118999999999998
100
AcDbArc
 50
179.999978
 51
270.000001
  0
ARC
  5
201
330
A
100
AcDbEntity
  8
PV
  6
Continuous
 62
   254
100
AcDbCircle
 10
-5.631
 20
127.471
 30
0.0
 40
0.6720000000000002
100
AcDbArc
 50
179.999978
 51
270.000001
  0
ARC
  5
202
330
A
100
AcDbEntity
  8
PV
  6
Continuous
 62
   254
100
AcDbCircle
 10
-5.407
 20
127.471
 30
0.0
 40
0.6720000000000002
100
AcDbArc
 50
359.999996
 51
89.999975
  0
ARC
  5
203
330
A
100
AcDbEntity
  8
PV
  6
Continuous
 62
   254
100
AcDbCircle
 10
-5.407
 20
127.471
 30
0.0
 40
1.118999999999998
100
AcDbArc
 50
359.999996
 51
89.999975
  0
ARC
  5
204
330
A
100
AcDbEntity
  8
PV
  6
Continuous
 62
   254
100
AcDbCircle
 10
-14.139
 20
127.9179999999999
 30
0.0
 40
0.6720000000000002
100
AcDbArc
 50
359.999996
 51
89.999975
  0
ARC
  5
205
330
A
100
AcDbEntity
  8
PV
  6
Continuous
 62
   254
100
AcDbCircle
 10
-14.139
 20
127.9179999999999
 30
0.0
 40
0.224
100
AcDbArc
 50
359.999996
 51
89.999975
  0
ARC
  5
206
330
A
100
AcDbEntity
  8
PV
  6
Continuous
 62
   254
100
AcDbCircle
 10
5.003
 20
127.471
 30
0.0
 40
0.6720000000000002
100
AcDbArc
 50
89.999975
 51
270.000001
  0
ARC
  5
207
330
A
100
AcDbEntity
  8
PV
  6
Continuous
 62
   254
100
AcDbCircle
 10
5.003
 20
127.471
 30
0.0
 40
1.118999999999998
100
AcDbArc
 50
89.999975
 51
270.000001
  0
ARC
  5
208
330
A
100
AcDbEntity
  8
PV
  6
Continuous
 62
   254
100
AcDbCircle
 10
15.638
 20
127.471
 30
0.0
 40
0.6720000000000002
100
AcDbArc
 50
270.0000109999999
 51
359.999996
  0
ARC
  5
209
330
A
100
AcDbEntity
  8
PV
  6
Continuous
 62
   254
100
AcDbCircle
 10
15.638
 20
127.471
 30
0.0
 40
1.118999999999998
100
AcDbArc
 50
270.0000109999999
 51
359.999996
  0
ARC
  5
20A
330
A
100
AcDbEntity
  8
PV
  6
Continuous
 62
   254
100
AcDbCircle
 10
11.048
 20
127.247
 30
0.0
 40
0.448
100
AcDbArc
 50
179.999978
 51
270.000001
  0
ARC
  5
20B
330
A
100
AcDbEntity
  8
PV
  6
Continuous
 62
   254
100
AcDbCircle
 10
11.048
 20
127.247
 30
0.0
 40
0.8959999999999999
100
AcDbArc
 50
179.999978
 51
270.000001
  0
CIRCLE
  5
20C
330
A
100
AcDbEntity
  8
PV
  6
Continuous
 62
   254
100
AcDbCircle
 10
8.920999999999997
 20
126.631
 30
0.0
 40
0.28
  0
ARC
  5
20D
330
A
100
AcDbEntity
  8
PV
  6
Continuous
 62
   254
100
AcDbCircle
 10
9.637999999999999
 20
126.631
 30
0.0
 40
0.28
100
AcDbArc
 50
319.9999189999998
 51
241.536827
  0
ARC
  5
20E
330
A
100
AcDbEntity
  8
PV
  6
Continuous
 62
   254
100
AcDbCircle
 10
-5.407
 20
127.471
 30
0.0
 40
0.6720000000000002
100
AcDbArc
 50
270.0000109999999
 51
359.999996
  0
ARC
  5
20F
330
A
100
AcDbEntity
  8
PV
  6
Continuous
 62
   254
100
AcDbCircle
 10
-5.631
 20
127.471
 30
0.0
 40
0.6720000000000002
100
AcDbArc
 50
89.999975
 51
179.99995
  0
ARC
  5
210
330
A
100
AcDbEntity
  8
PV
  6
Continuous
 62
   254
100
AcDbCircle
 10
-5.407
 20
127.471
 30
0.0
 40
1.118999999999998
100
AcDbArc
 50
270.0000109999999
 51
359.999996
  0
ARC
  5
211
330
A
100
AcDbEntity
  8
PV
  6
Continuous
 62
   254
100
AcDbCircle
 10
-5.631
 20
127.471
 30
0.0
 40
1.118999999999998
100
AcDbArc
 50
89.999975
 51
179.99995
  0
ARC
  5
212
330
A
100
AcDbEntity
  8
PV
  6
Continuous
 62
   254
100
AcDbCircle
 10
1.868999999999999
 20
127.583
 30
0.0
 40
0.5600000000000001
100
AcDbArc
 50
359.999996
 51
89.999975
  0
ARC
  5
213
330
A
100
AcDbEntity
  8
PV
  6
Continuous
 62
   254
100
AcDbCircle
 10
1.645
 20
127.583
 30
0.0
 40
0.5600000000000001
100
AcDbArc
 50
89.999975
 51
179.99995
  0
ARC
  5
214
330
A
100
AcDbEntity
  8
PV
  6
Continuous
 62
   254
100
AcDbCircle
 10
1.868999999999999
 20
127.583
 30
0.0
 40
1.007
100
AcDbArc
 50
359.999996
 51
89.999975
  0
ARC
  5
215
330
A
100
AcDbEntity
  8
PV
  6
Continuous
 62
   254
100
AcDbCircle
 10
1.645
 20
127.583
 30
0.0
 40
1.007
100
AcDbArc
 50
89.999975
 51
179.99995
  0
ARC
  5
216
330
A
100
AcDbEntity
  8
PV
  6
Continuous
 62
   254
100
AcDbCircle
 10
-11.34
 20
127.471
 30
0.0
 40
0.6720000000000002
100
AcDbArc
 50
199.471211
 51
270.0000109999999
  0
ARC
  5
217
330
A
100
AcDbEntity
  8
PV
  6
Continuous
 62
   254
100
AcDbCircle
 10
-11.34
 20
127.471
 30
0.0
 40
0.6720000000000002
100
AcDbArc
 50
89.999975
 51
160.528775
  0
ARC
  5
218
330
A
100
AcDbEntity
  8
PV
  6
Continuous
 62
   254
100
AcDbCircle
 10
-11.34
 20
127.471
 30
0.0
 40
1.118999999999998
100
AcDbArc
 50
89.999975
 51
270.000001
  0
ARC
  5
219
330
A
100
AcDbEntity
  8
PV
  6
Continuous
 62
   254
100
AcDbCircle
 10
7.577999999999998
 20
127.471
 30
0.0
 40
0.6720000000000002
100
AcDbArc
 50
270.0000109999999
 51
359.999996
  0
ARC
  5
21A
330
A
100
AcDbEntity
  8
PV
  6
Continuous
 62
   254
100
AcDbCircle
 10
7.354
 20
127.471
 30
0.0
 40
0.6720000000000002
100
AcDbArc
 50
89.999975
 51
179.99995
  0
ARC
  5
21B
330
A
100
AcDbEntity
  8
PV
  6
Continuous
 62
   254
100
AcDbCircle
 10
7.577999999999998
 20
127.471
 30
0.0
 40
1.118999999999998
100
AcDbArc
 50
270.0000109999999
 51
359.999996
  0
ARC
  5
21C
330
A
100
AcDbEntity
  8
PV
  6
Continuous
 62
   254
100
AcDbCircle
 10
7.354
 20
127.471
 30
0.0
 40
1.118999999999998
100
AcDbArc
 50
89.999975
 51
179.99995
  0
ARC
  5
21D
330
A
100
AcDbEntity
  8
PV
  6
Continuous
 62
   254
100
AcDbCircle
 10
-0.706
 20
127.471
 30
0.0
 40
0.6720000000000002
100
AcDbArc
 50
199.471211
 51
270.0000109999999
  0
ARC
  5
21E
330
A
100
AcDbEntity
  8
PV
  6
Continuous
 62
   254
100
AcDbCircle
 10
-0.706
 20
127.471
 30
0.0
 40
0.6720000000000002
100
AcDbArc
 50
89.999975
 51
160.528775
  0
ARC
  5
21F
330
A
100
AcDbEntity
  8
PV
  6
Continuous
 62
   254
100
AcDbCircle
 10
-0.706
 20
127.471
 30
0.0
 40
1.118999999999998
100
AcDbArc
 50
89.999975
 51
270.000001
  0
ARC
  5
220
330
A
100
AcDbEntity
  8
PV
  6
Continuous
 62
   254
100
AcDbCircle
 10
-14.139
 20
127.9179999999999
 30
0.0
 40
0.224
100
AcDbArc
 50
270.0000109999999
 51
359.999996
  0
ARC
  5
221
330
A
100
AcDbEntity
  8
PV
  6
Continuous
 62
   254
100
AcDbCircle
 10
-14.139
 20
127.9179999999999
 30
0.0
 40
0.6720000000000002
100
AcDbArc
 50
273.7218359999999
 51
359.999996
  0
ARC
  5
222
330
A
100
AcDbEntity
  8
PV
  6
Continuous
 62
     7
100
AcDbCircle
 10
5.400999999999998
 20
133.591
 30
0.0
 40
1.0
100
AcDbArc
 50
269.9999969999999
 51
90.00000300000001
  0
ARC
  5
223
330
A
100
AcDbEntity
  8
PV
  6
Continuous
 62
     7
100
AcDbCircle
 10
5.400999999999998
 20
133.591
 30
0.0
 40
1.0
100
AcDbArc
 50
90.00000300000001
 51
270.000001
  0
ARC
  5
224
330
A
100
AcDbEntity
  8
PV
  6
Continuous
 62
     7
100
AcDbCircle
 10
3.876
 20
133.591
 30
0.0
 40
1.774999999999999
100
AcDbArc
 50
34.225552
 51
325.774451
  0
ARC
  5
225
330
A
100
AcDbEntity
  8
PV
  6
Continuous
 62
     7
100
AcDbCircle
 10
0.625
 20
133.591
 30
0.0
 40
0.975
100
AcDbArc
 50
269.9999969999999
 51
90.00000300000001
  0
ARC
  5
226
330
A
100
AcDbEntity
  8
PV
  6
Continuous
 62
     7
100
AcDbCircle
 10
0.625
 20
133.591
 30
0.0
 40
0.975
100
AcDbArc
 50
90.00000300000001
 51
270.000001
  0
ARC
  5
227
330
A
100
AcDbEntity
  8
PV
  6
Continuous
 62
     7
100
AcDbCircle
 10
0.625
 20
133.591
 30
0.0
 40
1.774999999999999
100
AcDbArc
 50
90.00000300000001
 51
270.000001
  0
ARC
  5
228
330
A
100
AcDbEntity
  8
PV
  6
Continuous
 62
     7
100
AcDbCircle
 10
-4.333999999999998
 20
134.416
 30
0.0
 40
0.95
100
AcDbArc
 50
179.9999949999999
 51
0.0
  0
ARC
  5
229
330
A
100
AcDbEntity
  8
PV
  6
Continuous
 62
     7
100
AcDbCircle
 10
-4.333999999999998
 20
134.416
 30
0.0
 40
0.95
100
AcDbArc
 50
0.0
 51
180.000005
  0
CIRCLE
  5
22A
330
A
100
AcDbEntity
  8
PV
  6
Continuous
 62
     7
100
AcDbCircle
 10
0.0
 20
113.006
 30
0.0
 40
25.0
  0
LINE
  5
22B
330
A
100
AcDbEntity
  8
PV
  6
Continuous
 62
     7
100
AcDbLine
 10
-10.974
 20
93.78899999999999
 30
0.0
 11
-13.084
 21
94.91100000000001
 31
0.0
  0
LINE
  5
22C
330
A
100
AcDbEntity
  8
PV
  6
Continuous
 62
     7
100
AcDbLine
 10
-11.607
 20
93.03200000000002
 30
0.0
 11
-13.084
 21
94.91100000000001
 31
0.0
  0
LINE
  5
22D
330
A
100
AcDbEntity
  8
PV
  6
Continuous
 62
     7
100
AcDbLine
 10
11.164
 20
92.796
 30
0.0
 11
12.641
 21
94.67499999999999
 31
0.0
  0
LINE
  5
22E
330
A
100
AcDbEntity
  8
PV
  6
Continuous
 62
     7
100
AcDbLine
 10
10.53099999999999
 20
93.55299999999999
 30
0.0
 11
12.641
 21
94.67499999999999
 31
0.0
  0
LINE
  5
22F
330
A
100
AcDbEntity
  8
PV
  6
Continuous
 62
   254
100
AcDbLine
 10
-5.631
 20
128.1419999999999
 30
0.0
 11
-5.407
 21
128.1419999999999
 31
0.0
  0
LINE
  5
230
330
A
100
AcDbEntity
  8
PV
  6
Continuous
 62
   254
100
AcDbLine
 10
14.854
 20
127.471
 30
0.0
 11
14.854
 21
126.7989999999999
 31
0.0
  0
LINE
  5
231
330
A
100
AcDbEntity
  8
PV
  6
Continuous
 62
   254
100
AcDbLine
 10
14.40599999999998
 20
127.471
 30
0.0
 11
14.40599999999998
 21
126.3509999999999
 31
0.0
  0
LINE
  5
232
330
A
100
AcDbEntity
  8
PV
  6
Continuous
 62
   254
100
AcDbLine
 10
-15.258
 20
127.9179999999999
 30
0.0
 11
-15.258
 21
127.6939999999999
 31
0.0
  0
LINE
  5
233
330
A
100
AcDbEntity
  8
PV
  6
Continuous
 62
   254
100
AcDbLine
 10
-15.70599999999999
 20
127.9179999999999
 30
0.0
 11
-15.70599999999999
 21
126.3509999999999
 31
0.0
  0
LINE
  5
234
330
A
100
AcDbEntity
  8
PV
  6
Continuous
 62
   254
100
AcDbLine
 10
14.854
 20
128.1419999999999
 30
0.0
 11
14.854
 21
127.471
 31
0.0
  0
LINE
  5
235
330
A
100
AcDbEntity
  8
PV
  6
Continuous
 62
   254
100
AcDbLine
 10
14.854
 20
126.7989999999999
 30
0.0
 11
15.638
 21
126.7989999999999
 31
0.0
  0
LINE
  5
236
330
A
100
AcDbEntity
  8
PV
  6
Continuous
 62
   254
100
AcDbLine
 10
14.40599999999998
 20
128.59
 30
0.0
 11
14.40599999999998
 21
127.471
 31
0.0
  0
LINE
  5
237
330
A
100
AcDbEntity
  8
PV
  6
Continuous
 62
   254
100
AcDbLine
 10
12.839
 20
126.3509999999999
 30
0.0
 11
13.287
 21
126.3509999999999
 31
0.0
  0
LINE
  5
238
330
A
100
AcDbEntity
  8
PV
  6
Continuous
 62
   254
100
AcDbLine
 10
13.287
 20
128.1419999999999
 30
0.0
 11
14.182
 21
128.1419999999999
 31
0.0
  0
LINE
  5
239
330
A
100
AcDbEntity
  8
PV
  6
Continuous
 62
   254
100
AcDbLine
 10
14.40599999999998
 20
128.59
 30
0.0
 11
15.638
 21
128.59
 31
0.0
  0
LINE
  5
23A
330
A
100
AcDbEntity
  8
PV
  6
Continuous
 62
   254
100
AcDbLine
 10
14.854
 20
128.1419999999999
 30
0.0
 11
15.638
 21
128.1419999999999
 31
0.0
  0
LINE
  5
23B
330
A
100
AcDbEntity
  8
PV
  6
Continuous
 62
   254
100
AcDbLine
 10
12.839
 20
128.1419999999999
 30
0.0
 11
12.839
 21
126.3509999999999
 31
0.0
  0
LINE
  5
23C
330
A
100
AcDbEntity
  8
PV
  6
Continuous
 62
   254
100
AcDbLine
 10
13.287
 20
128.1419999999999
 30
0.0
 11
13.287
 21
126.3509999999999
 31
0.0
  0
LINE
  5
23D
330
A
100
AcDbEntity
  8
PV
  6
Continuous
 62
   254
100
AcDbLine
 10
11.944
 20
128.1419999999999
 30
0.0
 11
12.839
 21
128.1419999999999
 31
0.0
  0
LINE
  5
23E
330
A
100
AcDbEntity
  8
PV
  6
Continuous
 62
   254
100
AcDbLine
 10
14.182
 20
128.59
 30
0.0
 11
14.182
 21
128.1419999999999
 31
0.0
  0
LINE
  5
23F
330
A
100
AcDbEntity
  8
PV
  6
Continuous
 62
   254
100
AcDbLine
 10
11.944
 20
128.59
 30
0.0
 11
11.944
 21
128.1419999999999
 31
0.0
  0
LINE
  5
240
330
A
100
AcDbEntity
  8
PV
  6
Continuous
 62
   254
100
AcDbLine
 10
11.944
 20
128.59
 30
0.0
 11
14.182
 21
128.59
 31
0.0
  0
LINE
  5
241
330
A
100
AcDbEntity
  8
PV
  6
Continuous
 62
   254
100
AcDbLine
 10
10.15299999999998
 20
128.59
 30
0.0
 11
10.6
 21
128.59
 31
0.0
  0
LINE
  5
242
330
A
100
AcDbEntity
  8
PV
  6
Continuous
 62
   254
100
AcDbLine
 10
14.40599999999998
 20
126.3509999999999
 30
0.0
 11
15.638
 21
126.3509999999999
 31
0.0
  0
LINE
  5
243
330
A
100
AcDbEntity
  8
PV
  6
Continuous
 62
   254
100
AcDbLine
 10
11.048
 20
126.7989999999999
 30
0.0
 11
12.167
 21
126.7989999999999
 31
0.0
  0
LINE
  5
244
330
A
100
AcDbEntity
  8
PV
  6
Continuous
 62
   254
100
AcDbLine
 10
10.6
 20
128.59
 30
0.0
 11
10.6
 21
127.247
 31
0.0
  0
LINE
  5
245
330
A
100
AcDbEntity
  8
PV
  6
Continuous
 62
   254
100
AcDbLine
 10
12.167
 20
126.7989999999999
 30
0.0
 11
12.167
 21
126.3509999999999
 31
0.0
  0
LINE
  5
246
330
A
100
AcDbEntity
  8
PV
  6
Continuous
 62
   254
100
AcDbLine
 10
10.15299999999998
 20
128.59
 30
0.0
 11
10.15299999999998
 21
127.247
 31
0.0
  0
LINE
  5
247
330
A
100
AcDbEntity
  8
PV
  6
Continuous
 62
   254
100
AcDbLine
 10
9.314999999999999
 20
126.1589999999999
 30
0.0
 11
9.486
 21
126.015
 31
0.0
  0
LINE
  5
248
330
A
100
AcDbEntity
  8
PV
  6
Continuous
 62
   254
100
AcDbLine
 10
9.314999999999999
 20
126.1589999999999
 30
0.0
 11
9.503999999999999
 21
126.385
 31
0.0
  0
LINE
  5
249
330
A
100
AcDbEntity
  8
PV
  6
Continuous
 62
   254
100
AcDbLine
 10
9.486
 20
126.015
 30
0.0
 11
9.852
 21
126.451
 31
0.0
  0
LINE
  5
24A
330
A
100
AcDbEntity
  8
PV
  6
Continuous
 62
   254
100
AcDbLine
 10
-5.631
 20
126.7989999999999
 30
0.0
 11
-5.407
 21
126.7989999999999
 31
0.0
  0
LINE
  5
24B
330
A
100
AcDbEntity
  8
PV
  6
Continuous
 62
   254
100
AcDbLine
 10
-5.631
 20
128.59
 30
0.0
 11
-5.407
 21
128.59
 31
0.0
  0
LINE
  5
24C
330
A
100
AcDbEntity
  8
PV
  6
Continuous
 62
   254
100
AcDbLine
 10
-5.631
 20
126.3509999999999
 30
0.0
 11
-5.407
 21
126.3509999999999
 31
0.0
  0
LINE
  5
24D
330
A
100
AcDbEntity
  8
PV
  6
Continuous
 62
   254
100
AcDbLine
 10
2.429
 20
126.3509999999999
 30
0.0
 11
2.876
 21
126.3509999999999
 31
0.0
  0
LINE
  5
24E
330
A
100
AcDbEntity
  8
PV
  6
Continuous
 62
   254
100
AcDbLine
 10
2.429
 20
127.583
 30
0.0
 11
2.429
 21
126.3509999999999
 31
0.0
  0
LINE
  5
24F
330
A
100
AcDbEntity
  8
PV
  6
Continuous
 62
   254
100
AcDbLine
 10
1.084999999999998
 20
127.583
 30
0.0
 11
1.084999999999998
 21
126.3509999999999
 31
0.0
  0
LINE
  5
250
330
A
100
AcDbEntity
  8
PV
  6
Continuous
 62
   254
100
AcDbLine
 10
1.645
 20
128.1419999999999
 30
0.0
 11
1.868999999999999
 21
128.1419999999999
 31
0.0
  0
LINE
  5
251
330
A
100
AcDbEntity
  8
PV
  6
Continuous
 62
   254
100
AcDbLine
 10
2.876
 20
127.583
 30
0.0
 11
2.876
 21
126.3509999999999
 31
0.0
  0
LINE
  5
252
330
A
100
AcDbEntity
  8
PV
  6
Continuous
 62
   254
100
AcDbLine
 10
0.638
 20
127.583
 30
0.0
 11
0.638
 21
126.3509999999999
 31
0.0
  0
LINE
  5
253
330
A
100
AcDbEntity
  8
PV
  6
Continuous
 62
   254
100
AcDbLine
 10
1.645
 20
128.59
 30
0.0
 11
1.868999999999999
 21
128.59
 31
0.0
  0
LINE
  5
254
330
A
100
AcDbEntity
  8
PV
  6
Continuous
 62
   254
100
AcDbLine
 10
0.6400000000000002
 20
126.3509999999999
 30
0.0
 11
1.084999999999998
 21
126.3509999999999
 31
0.0
  0
LINE
  5
255
330
A
100
AcDbEntity
  8
PV
  6
Continuous
 62
   254
100
AcDbLine
 10
11.048
 20
126.3509999999999
 30
0.0
 11
12.167
 21
126.3509999999999
 31
0.0
  0
LINE
  5
256
330
A
100
AcDbEntity
  8
PV
  6
Continuous
 62
   254
100
AcDbLine
 10
6.122999999999998
 20
128.1419999999999
 30
0.0
 11
6.122999999999998
 21
128.59
 31
0.0
  0
LINE
  5
257
330
A
100
AcDbEntity
  8
PV
  6
Continuous
 62
   254
100
AcDbLine
 10
5.003
 20
128.1419999999999
 30
0.0
 11
6.122999999999998
 21
128.1419999999999
 31
0.0
  0
LINE
  5
258
330
A
100
AcDbEntity
  8
PV
  6
Continuous
 62
   254
100
AcDbLine
 10
5.003
 20
126.7989999999999
 30
0.0
 11
6.122999999999998
 21
126.7989999999999
 31
0.0
  0
LINE
  5
259
330
A
100
AcDbEntity
  8
PV
  6
Continuous
 62
   254
100
AcDbLine
 10
5.003
 20
128.59
 30
0.0
 11
6.122999999999998
 21
128.59
 31
0.0
  0
LINE
  5
25A
330
A
100
AcDbEntity
  8
PV
  6
Continuous
 62
   254
100
AcDbLine
 10
5.003
 20
126.3509999999999
 30
0.0
 11
6.122999999999998
 21
126.3509999999999
 31
0.0
  0
LINE
  5
25B
330
A
100
AcDbEntity
  8
PV
  6
Continuous
 62
   254
100
AcDbLine
 10
-10.333
 20
126.7989999999999
 30
0.0
 11
-10.333
 21
126.3509999999999
 31
0.0
  0
LINE
  5
25C
330
A
100
AcDbEntity
  8
PV
  6
Continuous
 62
   254
100
AcDbLine
 10
-10.333
 20
127.6939999999999
 30
0.0
 11
-10.333
 21
127.247
 31
0.0
  0
LINE
  5
25D
330
A
100
AcDbEntity
  8
PV
  6
Continuous
 62
   254
100
AcDbLine
 10
-11.34
 20
126.7989999999999
 30
0.0
 11
-10.333
 21
126.7989999999999
 31
0.0
  0
LINE
  5
25E
330
A
100
AcDbEntity
  8
PV
  6
Continuous
 62
   254
100
AcDbLine
 10
-11.973
 20
127.6939999999999
 30
0.0
 11
-10.333
 21
127.6939999999999
 31
0.0
  0
LINE
  5
25F
330
A
100
AcDbEntity
  8
PV
  6
Continuous
 62
   254
100
AcDbLine
 10
-11.973
 20
127.247
 30
0.0
 11
-10.333
 21
127.247
 31
0.0
  0
LINE
  5
260
330
A
100
AcDbEntity
  8
PV
  6
Continuous
 62
   254
100
AcDbLine
 10
-11.34
 20
126.3509999999999
 30
0.0
 11
-10.333
 21
126.3509999999999
 31
0.0
  0
LINE
  5
261
330
A
100
AcDbEntity
  8
PV
  6
Continuous
 62
   254
100
AcDbLine
 10
-11.34
 20
128.59
 30
0.0
 11
-10.333
 21
128.59
 31
0.0
  0
LINE
  5
262
330
A
100
AcDbEntity
  8
PV
  6
Continuous
 62
   254
100
AcDbLine
 10
-10.333
 20
128.59
 30
0.0
 11
-10.333
 21
128.1419999999999
 31
0.0
  0
LINE
  5
263
330
A
100
AcDbEntity
  8
PV
  6
Continuous
 62
   254
100
AcDbLine
 10
-7.156
 20
126.3509999999999
 30
0.0
 11
-6.638999999999998
 21
126.3509999999999
 31
0.0
  0
LINE
  5
264
330
A
100
AcDbEntity
  8
PV
  6
Continuous
 62
   254
100
AcDbLine
 10
-7.418999999999998
 20
128.59
 30
0.0
 11
-6.638999999999998
 21
128.59
 31
0.0
  0
LINE
  5
265
330
A
100
AcDbEntity
  8
PV
  6
Continuous
 62
   254
100
AcDbLine
 10
-8.541
 20
127.2569999999999
 30
0.0
 11
-8.541
 21
126.3509999999999
 31
0.0
  0
LINE
  5
266
330
A
100
AcDbEntity
  8
PV
  6
Continuous
 62
   254
100
AcDbLine
 10
-7.927
 20
127.688
 30
0.0
 11
-8.541
 21
127.2569999999999
 31
0.0
  0
LINE
  5
267
330
A
100
AcDbEntity
  8
PV
  6
Continuous
 62
   254
100
AcDbLine
 10
-7.156
 20
126.3509999999999
 30
0.0
 11
-7.927
 21
127.688
 31
0.0
  0
LINE
  5
268
330
A
100
AcDbEntity
  8
PV
  6
Continuous
 62
   254
100
AcDbLine
 10
-7.418999999999998
 20
128.59
 30
0.0
 11
-8.541
 21
127.804
 31
0.0
  0
LINE
  5
269
330
A
100
AcDbEntity
  8
PV
  6
Continuous
 62
   254
100
AcDbLine
 10
-6.637999999999999
 20
128.59
 30
0.0
 11
-7.559
 21
127.9449999999999
 31
0.0
  0
LINE
  5
26A
330
A
100
AcDbEntity
  8
PV
  6
Continuous
 62
   254
100
AcDbLine
 10
-6.638999999999998
 20
126.3509999999999
 30
0.0
 11
-7.559
 21
127.9449999999999
 31
0.0
  0
LINE
  5
26B
330
A
100
AcDbEntity
  8
PV
  6
Continuous
 62
   254
100
AcDbLine
 10
-8.541
 20
128.59
 30
0.0
 11
-8.541
 21
127.804
 31
0.0
  0
LINE
  5
26C
330
A
100
AcDbEntity
  8
PV
  6
Continuous
 62
   254
100
AcDbLine
 10
-8.988999999999997
 20
128.59
 30
0.0
 11
-8.988999999999997
 21
126.3509999999999
 31
0.0
  0
LINE
  5
26D
330
A
100
AcDbEntity
  8
PV
  6
Continuous
 62
   254
100
AcDbLine
 10
-8.988999999999997
 20
126.3509999999999
 30
0.0
 11
-8.541
 21
126.3509999999999
 31
0.0
  0
LINE
  5
26E
330
A
100
AcDbEntity
  8
PV
  6
Continuous
 62
   254
100
AcDbLine
 10
-8.988999999999997
 20
128.59
 30
0.0
 11
-8.541
 21
128.59
 31
0.0
  0
LINE
  5
26F
330
A
100
AcDbEntity
  8
PV
  6
Continuous
 62
   254
100
AcDbLine
 10
7.354
 20
128.1419999999999
 30
0.0
 11
7.577999999999998
 21
128.1419999999999
 31
0.0
  0
LINE
  5
270
330
A
100
AcDbEntity
  8
PV
  6
Continuous
 62
   254
100
AcDbLine
 10
7.354
 20
126.7989999999999
 30
0.0
 11
7.577999999999998
 21
126.7989999999999
 31
0.0
  0
LINE
  5
271
330
A
100
AcDbEntity
  8
PV
  6
Continuous
 62
   254
100
AcDbLine
 10
6.122999999999998
 20
126.354
 30
0.0
 11
6.122999999999998
 21
126.7989999999999
 31
0.0
  0
LINE
  5
272
330
A
100
AcDbEntity
  8
PV
  6
Continuous
 62
   254
100
AcDbLine
 10
7.354
 20
128.59
 30
0.0
 11
7.577999999999998
 21
128.59
 31
0.0
  0
LINE
  5
273
330
A
100
AcDbEntity
  8
PV
  6
Continuous
 62
   254
100
AcDbLine
 10
7.354
 20
126.3509999999999
 30
0.0
 11
7.577999999999998
 21
126.3509999999999
 31
0.0
  0
LINE
  5
274
330
A
100
AcDbEntity
  8
PV
  6
Continuous
 62
   254
100
AcDbLine
 10
-2.229999999999999
 20
126.3509999999999
 30
0.0
 11
-1.713
 21
126.3509999999999
 31
0.0
  0
LINE
  5
275
330
A
100
AcDbEntity
  8
PV
  6
Continuous
 62
   254
100
AcDbLine
 10
-2.494
 20
128.59
 30
0.0
 11
-1.713
 21
128.59
 31
0.0
  0
LINE
  5
276
330
A
100
AcDbEntity
  8
PV
  6
Continuous
 62
   254
100
AcDbLine
 10
-3.616
 20
127.2569999999999
 30
0.0
 11
-3.616
 21
126.3509999999999
 31
0.0
  0
LINE
  5
277
330
A
100
AcDbEntity
  8
PV
  6
Continuous
 62
   254
100
AcDbLine
 10
-3.001999999999998
 20
127.688
 30
0.0
 11
-3.616
 21
127.2569999999999
 31
0.0
  0
LINE
  5
278
330
A
100
AcDbEntity
  8
PV
  6
Continuous
 62
   254
100
AcDbLine
 10
-2.229999999999999
 20
126.3509999999999
 30
0.0
 11
-3.001999999999998
 21
127.688
 31
0.0
  0
LINE
  5
279
330
A
100
AcDbEntity
  8
PV
  6
Continuous
 62
   254
100
AcDbLine
 10
-2.494
 20
128.59
 30
0.0
 11
-3.616
 21
127.804
 31
0.0
  0
LINE
  5
27A
330
A
100
AcDbEntity
  8
PV
  6
Continuous
 62
   254
100
AcDbLine
 10
-1.713
 20
128.59
 30
0.0
 11
-2.633999999999999
 21
127.9449999999999
 31
0.0
  0
LINE
  5
27B
330
A
100
AcDbEntity
  8
PV
  6
Continuous
 62
   254
100
AcDbLine
 10
-1.713
 20
126.3509999999999
 30
0.0
 11
-2.633999999999999
 21
127.9449999999999
 31
0.0
  0
LINE
  5
27C
330
A
100
AcDbEntity
  8
PV
  6
Continuous
 62
   254
100
AcDbLine
 10
-14.01299999999999
 20
126.3509999999999
 30
0.0
 11
-14.641
 21
127.247
 31
0.0
  0
LINE
  5
27D
330
A
100
AcDbEntity
  8
PV
  6
Continuous
 62
   254
100
AcDbLine
 10
-13.467
 20
126.3509999999999
 30
0.0
 11
-14.095
 21
127.2479999999999
 31
0.0
  0
LINE
  5
27E
330
A
100
AcDbEntity
  8
PV
  6
Continuous
 62
   254
100
AcDbLine
 10
-3.616
 20
128.59
 30
0.0
 11
-3.616
 21
127.804
 31
0.0
  0
LINE
  5
27F
330
A
100
AcDbEntity
  8
PV
  6
Continuous
 62
   254
100
AcDbLine
 10
-4.064
 20
128.59
 30
0.0
 11
-4.064
 21
126.3509999999999
 31
0.0
  0
LINE
  5
280
330
A
100
AcDbEntity
  8
PV
  6
Continuous
 62
   254
100
AcDbLine
 10
0.302
 20
126.7989999999999
 30
0.0
 11
0.302
 21
126.3509999999999
 31
0.0
  0
LINE
  5
281
330
A
100
AcDbEntity
  8
PV
  6
Continuous
 62
   254
100
AcDbLine
 10
0.302
 20
127.6939999999999
 30
0.0
 11
0.302
 21
127.247
 31
0.0
  0
LINE
  5
282
330
A
100
AcDbEntity
  8
PV
  6
Continuous
 62
   254
100
AcDbLine
 10
-0.706
 20
128.1419999999999
 30
0.0
 11
0.302
 21
128.1419999999999
 31
0.0
  0
LINE
  5
283
330
A
100
AcDbEntity
  8
PV
  6
Continuous
 62
   254
100
AcDbLine
 10
-0.706
 20
126.7989999999999
 30
0.0
 11
0.302
 21
126.7989999999999
 31
0.0
  0
LINE
  5
284
330
A
100
AcDbEntity
  8
PV
  6
Continuous
 62
   254
100
AcDbLine
 10
-1.338999999999998
 20
127.6939999999999
 30
0.0
 11
0.302
 21
127.6939999999999
 31
0.0
  0
LINE
  5
285
330
A
100
AcDbEntity
  8
PV
  6
Continuous
 62
   254
100
AcDbLine
 10
-1.338999999999998
 20
127.247
 30
0.0
 11
0.302
 21
127.247
 31
0.0
  0
LINE
  5
286
330
A
100
AcDbEntity
  8
PV
  6
Continuous
 62
   254
100
AcDbLine
 10
-4.064
 20
126.3509999999999
 30
0.0
 11
-3.616
 21
126.3509999999999
 31
0.0
  0
LINE
  5
287
330
A
100
AcDbEntity
  8
PV
  6
Continuous
 62
   254
100
AcDbLine
 10
-4.064
 20
128.59
 30
0.0
 11
-3.616
 21
128.59
 31
0.0
  0
LINE
  5
288
330
A
100
AcDbEntity
  8
PV
  6
Continuous
 62
   254
100
AcDbLine
 10
-0.706
 20
126.3509999999999
 30
0.0
 11
0.302
 21
126.3509999999999
 31
0.0
  0
LINE
  5
289
330
A
100
AcDbEntity
  8
PV
  6
Continuous
 62
   254
100
AcDbLine
 10
-0.706
 20
128.59
 30
0.0
 11
0.302
 21
128.59
 31
0.0
  0
LINE
  5
28A
330
A
100
AcDbEntity
  8
PV
  6
Continuous
 62
   254
100
AcDbLine
 10
-12.68299999999999
 20
128.59
 30
0.0
 11
-12.68299999999999
 21
126.3509999999999
 31
0.0
  0
LINE
  5
28B
330
A
100
AcDbEntity
  8
PV
  6
Continuous
 62
   254
100
AcDbLine
 10
-13.13099999999999
 20
128.59
 30
0.0
 11
-13.13099999999999
 21
126.3509999999999
 31
0.0
  0
LINE
  5
28C
330
A
100
AcDbEntity
  8
PV
  6
Continuous
 62
   254
100
AcDbLine
 10
-13.13099999999999
 20
126.3509999999999
 30
0.0
 11
-12.68299999999999
 21
126.3509999999999
 31
0.0
  0
LINE
  5
28D
330
A
100
AcDbEntity
  8
PV
  6
Continuous
 62
   254
100
AcDbLine
 10
-13.13099999999999
 20
128.59
 30
0.0
 11
-12.68299999999999
 21
128.59
 31
0.0
  0
LINE
  5
28E
330
A
100
AcDbEntity
  8
PV
  6
Continuous
 62
   254
100
AcDbLine
 10
-14.01299999999999
 20
126.3509999999999
 30
0.0
 11
-13.467
 21
126.3509999999999
 31
0.0
  0
LINE
  5
28F
330
A
100
AcDbEntity
  8
PV
  6
Continuous
 62
   254
100
AcDbLine
 10
-15.258
 20
127.247
 30
0.0
 11
-15.258
 21
126.3509999999999
 31
0.0
  0
LINE
  5
290
330
A
100
AcDbEntity
  8
PV
  6
Continuous
 62
   254
100
AcDbLine
 10
-15.70599999999999
 20
128.59
 30
0.0
 11
-14.139
 21
128.59
 31
0.0
  0
LINE
  5
291
330
A
100
AcDbEntity
  8
PV
  6
Continuous
 62
   254
100
AcDbLine
 10
-15.70599999999999
 20
126.3509999999999
 30
0.0
 11
-15.258
 21
126.3509999999999
 31
0.0
  0
LINE
  5
292
330
A
100
AcDbEntity
  8
PV
  6
Continuous
 62
   254
100
AcDbLine
 10
-14.139
 20
127.6939999999999
 30
0.0
 11
-15.258
 21
127.6939999999999
 31
0.0
  0
LINE
  5
293
330
A
100
AcDbEntity
  8
PV
  6
Continuous
 62
   254
100
AcDbLine
 10
-14.139
 20
128.1419999999999
 30
0.0
 11
-15.258
 21
128.1419999999999
 31
0.0
  0
LINE
  5
294
330
A
100
AcDbEntity
  8
PV
  6
Continuous
 62
   254
100
AcDbLine
 10
-15.258
 20
127.247
 30
0.0
 11
-14.641
 21
127.247
 31
0.0
  0
LINE
  5
295
330
A
100
AcDbEntity
  8
PV
  6
Continuous
 62
   254
100
AcDbLine
 10
0.302
 20
128.59
 30
0.0
 11
0.302
 21
128.1419999999999
 31
0.0
  0
LINE
  5
296
330
A
100
AcDbEntity
  8
PV
  6
Continuous
 62
   254
100
AcDbLine
 10
-15.258
 20
128.1419999999999
 30
0.0
 11
-15.258
 21
127.9179999999999
 31
0.0
  0
LINE
  5
297
330
A
100
AcDbEntity
  8
PV
  6
Continuous
 62
   254
100
AcDbLine
 10
-15.70599999999999
 20
128.59
 30
0.0
 11
-15.70599999999999
 21
127.9179999999999
 31
0.0
  0
LINE
  5
298
330
A
100
AcDbEntity
  8
PV
  6
Continuous
 62
   254
100
AcDbLine
 10
-16.15299999999999
 20
128.59
 30
0.0
 11
-16.15299999999999
 21
126.3509999999999
 31
0.0
  0
LINE
  5
299
330
A
100
AcDbEntity
  8
PV
  6
Continuous
 62
   254
100
AcDbLine
 10
-16.60099999999999
 20
128.59
 30
0.0
 11
-16.60099999999999
 21
126.3509999999999
 31
0.0
  0
LINE
  5
29A
330
A
100
AcDbEntity
  8
PV
  6
Continuous
 62
   254
100
AcDbLine
 10
-16.60099999999999
 20
126.3509999999999
 30
0.0
 11
-16.15299999999999
 21
126.3509999999999
 31
0.0
  0
LINE
  5
29B
330
A
100
AcDbEntity
  8
PV
  6
Continuous
 62
   254
100
AcDbLine
 10
-16.60099999999999
 20
128.59
 30
0.0
 11
-16.15299999999999
 21
128.59
 31
0.0
  0
LINE
  5
29C
330
A
100
AcDbEntity
  8
PV
  6
Continuous
 62
   254
100
AcDbLine
 10
-11.34
 20
128.1419999999999
 30
0.0
 11
-10.333
 21
128.1419999999999
 31
0.0
  0
LINE
  5
29D
330
A
100
AcDbEntity
  8
PV
  6
Continuous
 62
     7
100
AcDbLine
 10
0.625
 20
134.566
 30
0.0
 11
0.625
 21
132.616
 31
0.0
  0
LINE
  5
29E
330
A
100
AcDbEntity
  8
PV
  6
Continuous
 62
     7
100
AcDbLine
 10
0.625
 20
132.616
 30
0.0
 11
0.625
 21
131.8159999999999
 31
0.0
  0
LINE
  5
29F
330
A
100
AcDbEntity
  8
PV
  6
Continuous
 62
     7
100
AcDbLine
 10
5.400999999999998
 20
134.591
 30
0.0
 11
5.400999999999998
 21
132.591
 31
0.0
  0
LINE
  5
2A0
330
A
100
AcDbEntity
  8
PV
  6
Continuous
 62
     7
100
AcDbLine
 10
0.625
 20
135.366
 30
0.0
 11
0.625
 21
134.566
 31
0.0
  0
LINE
  5
2A1
330
A
100
AcDbEntity
  8
PV
  6
Continuous
 62
     7
100
AcDbLine
 10
-2.7
 20
131.8159999999999
 30
0.0
 11
-1.149999999999999
 21
131.8159999999999
 31
0.0
  0
LINE
  5
2A2
330
A
100
AcDbEntity
  8
PV
  6
Continuous
 62
     7
100
AcDbLine
 10
-2.7
 20
135.366
 30
0.0
 11
-1.149999999999999
 21
135.366
 31
0.0
  0
LINE
  5
2A3
330
A
100
AcDbEntity
  8
PV
  6
Continuous
 62
     7
100
AcDbLine
 10
-2.7
 20
135.366
 30
0.0
 11
-2.7
 21
131.8159999999999
 31
0.0
  0
LINE
  5
2A4
330
A
100
AcDbEntity
  8
PV
  6
Continuous
 62
     7
100
AcDbLine
 10
-5.283999999999998
 20
131.8159999999999
 30
0.0
 11
-3.383999999999999
 21
131.8159999999999
 31
0.0
  0
LINE
  5
2A5
330
A
100
AcDbEntity
  8
PV
  6
Continuous
 62
     7
100
AcDbLine
 10
-3.383999999999999
 20
134.416
 30
0.0
 11
-3.383999999999999
 21
131.8159999999999
 31
0.0
  0
LINE
  5
2A6
330
A
100
AcDbEntity
  8
PV
  6
Continuous
 62
     7
100
AcDbLine
 10
-5.283999999999998
 20
134.416
 30
0.0
 11
-5.283999999999998
 21
131.8159999999999
 31
0.0
  0
LINE
  5
2A7
330
A
100
AcDbEntity
  8
PV
  6
Continuous
 62
     7
100
AcDbLine
 10
-5.283999999999998
 20
134.416
 30
0.0
 11
-3.383999999999999
 21
134.416
 31
0.0
  0
LINE
  5
2A8
330
A
100
AcDbEntity
  8
PV
  6
Continuous
 62
     7
100
AcDbLine
 10
-1.149999999999999
 20
135.366
 30
0.0
 11
-1.149999999999999
 21
131.8159999999999
 31
0.0
  0
LINE
  5
2A9
330
A
100
AcDbEntity
  8
PV
  6
Continuous
 62
   254
100
AcDbLine
 10
-8.907999999999997
 20
127.81
 30
0.0
 11
-8.609999999999999
 21
127.81
 31
0.0
  0
LINE
  5
2AA
330
A
100
AcDbEntity
  8
PV
  6
Continuous
 62
     7
100
AcDbLine
 10
21.651
 20
125.506
 30
0.0
 11
-21.651
 21
125.506
 31
0.0
  0
LINE
  5
2AB
330
A
100
AcDbEntity
  8
PV
  6
Continuous
 62
     7
100
AcDbLine
 10
20.987
 20
117.249
 30
0.0
 11
21.37999999999999
 21
117.1929999999999
 31
0.0
  0
LINE
  5
2AC
330
A
100
AcDbEntity
  8
PV
  6
Continuous
 62
     7
100
AcDbLine
 10
20.949
 20
116.869
 30
0.0
 11
21.349
 21
116.809
 31
0.0
  0
LINE
  5
2AD
330
A
100
AcDbEntity
  8
PV
  6
Continuous
 62
     7
100
AcDbLine
 10
22.36699999999999
 20
118.207
 30
0.0
 11
22.05099999999999
 21
118.025
 31
0.0
  0
LINE
  5
2AE
330
A
100
AcDbEntity
  8
PV
  6
Continuous
 62
     7
100
AcDbLine
 10
19.96199999999999
 20
115.8549999999999
 30
0.0
 11
20.278
 21
116.037
 31
0.0
  0
LINE
  5
2AF
330
A
100
AcDbEntity
  8
PV
  6
Continuous
 62
     7
100
AcDbLine
 10
3.379999999999999
 20
118.91
 30
0.0
 11
3.791
 21
118.91
 31
0.0
  0
LINE
  5
2B0
330
A
100
AcDbEntity
  8
PV
  6
Continuous
 62
     7
100
AcDbLine
 10
1.254
 20
118.91
 30
0.0
 11
1.924
 21
115.11
 31
0.0
  0
LINE
  5
2B1
330
A
100
AcDbEntity
  8
PV
  6
Continuous
 62
     7
100
AcDbLine
 10
1.649999999999999
 20
118.91
 30
0.0
 11
2.214999999999998
 21
115.708
 31
0.0
  0
LINE
  5
2B2
330
A
100
AcDbEntity
  8
PV
  6
Continuous
 62
     7
100
AcDbLine
 10
2.214999999999998
 20
115.708
 30
0.0
 11
3.379999999999999
 21
118.91
 31
0.0
  0
LINE
  5
2B3
330
A
100
AcDbEntity
  8
PV
  6
Continuous
 62
     7
100
AcDbLine
 10
2.407999999999999
 20
115.11
 30
0.0
 11
3.791
 21
118.91
 31
0.0
  0
LINE
  5
2B4
330
A
100
AcDbEntity
  8
PV
  6
Continuous
 62
     7
100
AcDbLine
 10
1.254
 20
118.91
 30
0.0
 11
1.649999999999999
 21
118.91
 31
0.0
  0
LINE
  5
2B5
330
A
100
AcDbEntity
  8
PV
  6
Continuous
 62
     7
100
AcDbLine
 10
1.924
 20
115.11
 30
0.0
 11
2.407999999999999
 21
115.11
 31
0.0
  0
LINE
  5
2B6
330
A
100
AcDbEntity
  8
PV
  6
Continuous
 62
     7
100
AcDbLine
 10
14.63
 20
118.91
 30
0.0
 11
15.041
 21
118.91
 31
0.0
  0
LINE
  5
2B7
330
A
100
AcDbEntity
  8
PV
  6
Continuous
 62
     7
100
AcDbLine
 10
12.504
 20
118.91
 30
0.0
 11
13.174
 21
115.11
 31
0.0
  0
LINE
  5
2B8
330
A
100
AcDbEntity
  8
PV
  6
Continuous
 62
     7
100
AcDbLine
 10
12.9
 20
118.91
 30
0.0
 11
13.465
 21
115.708
 31
0.0
  0
LINE
  5
2B9
330
A
100
AcDbEntity
  8
PV
  6
Continuous
 62
     7
100
AcDbLine
 10
13.465
 20
115.708
 30
0.0
 11
14.63
 21
118.91
 31
0.0
  0
LINE
  5
2BA
330
A
100
AcDbEntity
  8
PV
  6
Continuous
 62
     7
100
AcDbLine
 10
13.658
 20
115.11
 30
0.0
 11
15.041
 21
118.91
 31
0.0
  0
LINE
  5
2BB
330
A
100
AcDbEntity
  8
PV
  6
Continuous
 62
     7
100
AcDbLine
 10
12.504
 20
118.91
 30
0.0
 11
12.9
 21
118.91
 31
0.0
  0
LINE
  5
2BC
330
A
100
AcDbEntity
  8
PV
  6
Continuous
 62
     7
100
AcDbLine
 10
13.174
 20
115.11
 30
0.0
 11
13.658
 21
115.11
 31
0.0
  0
LINE
  5
2BD
330
A
100
AcDbEntity
  8
PV
  6
Continuous
 62
     7
100
AcDbLine
 10
17.077
 20
117.198
 30
0.0
 11
17.30599999999999
 21
118.4919999999999
 31
0.0
  0
LINE
  5
2BE
330
A
100
AcDbEntity
  8
PV
  6
Continuous
 62
     7
100
AcDbLine
 10
18.69299999999998
 20
118.4919999999999
 30
0.0
 11
18.76599999999998
 21
118.91
 31
0.0
  0
LINE
  5
2BF
330
A
100
AcDbEntity
  8
PV
  6
Continuous
 62
     7
100
AcDbLine
 10
18.395
 20
116.805
 30
0.0
 11
18.464
 21
117.198
 31
0.0
  0
LINE
  5
2C0
330
A
100
AcDbEntity
  8
PV
  6
Continuous
 62
     7
100
AcDbLine
 10
16.77799999999999
 20
115.497
 30
0.0
 11
17.008
 21
116.805
 31
0.0
  0
LINE
  5
2C1
330
A
100
AcDbEntity
  8
PV
  6
Continuous
 62
     7
100
AcDbLine
 10
16.77799999999999
 20
115.497
 30
0.0
 11
18.16499999999998
 21
115.497
 31
0.0
  0
LINE
  5
2C2
330
A
100
AcDbEntity
  8
PV
  6
Continuous
 62
     7
100
AcDbLine
 10
17.30599999999999
 20
118.4919999999999
 30
0.0
 11
18.69299999999998
 21
118.4919999999999
 31
0.0
  0
LINE
  5
2C3
330
A
100
AcDbEntity
  8
PV
  6
Continuous
 62
     7
100
AcDbLine
 10
17.077
 20
117.198
 30
0.0
 11
18.464
 21
117.198
 31
0.0
  0
LINE
  5
2C4
330
A
100
AcDbEntity
  8
PV
  6
Continuous
 62
     7
100
AcDbLine
 10
17.008
 20
116.805
 30
0.0
 11
18.395
 21
116.805
 31
0.0
  0
LINE
  5
2C5
330
A
100
AcDbEntity
  8
PV
  6
Continuous
 62
     7
100
AcDbLine
 10
18.096
 20
115.11
 30
0.0
 11
18.16499999999998
 21
115.497
 31
0.0
  0
LINE
  5
2C6
330
A
100
AcDbEntity
  8
PV
  6
Continuous
 62
     7
100
AcDbLine
 10
16.319
 20
115.11
 30
0.0
 11
16.989
 21
118.91
 31
0.0
  0
LINE
  5
2C7
330
A
100
AcDbEntity
  8
PV
  6
Continuous
 62
     7
100
AcDbLine
 10
9.442999999999999
 20
115.515
 30
0.0
 11
11.106
 21
115.515
 31
0.0
  0
LINE
  5
2C8
330
A
100
AcDbEntity
  8
PV
  6
Continuous
 62
     7
100
AcDbLine
 10
9.442999999999999
 20
115.515
 30
0.0
 11
10.04099999999999
 21
118.91
 31
0.0
  0
LINE
  5
2C9
330
A
100
AcDbEntity
  8
PV
  6
Continuous
 62
     7
100
AcDbLine
 10
8.974999999999997
 20
115.11
 30
0.0
 11
9.644999999999999
 21
118.91
 31
0.0
  0
LINE
  5
2CA
330
A
100
AcDbEntity
  8
PV
  6
Continuous
 62
     7
100
AcDbLine
 10
11.034
 20
115.11
 30
0.0
 11
11.106
 21
115.515
 31
0.0
  0
LINE
  5
2CB
330
A
100
AcDbEntity
  8
PV
  6
Continuous
 62
     7
100
AcDbLine
 10
16.319
 20
115.11
 30
0.0
 11
18.096
 21
115.11
 31
0.0
  0
LINE
  5
2CC
330
A
100
AcDbEntity
  8
PV
  6
Continuous
 62
     7
100
AcDbLine
 10
16.989
 20
118.91
 30
0.0
 11
18.76599999999998
 21
118.91
 31
0.0
  0
LINE
  5
2CD
330
A
100
AcDbEntity
  8
PV
  6
Continuous
 62
     7
100
AcDbLine
 10
9.644999999999999
 20
118.91
 30
0.0
 11
10.04099999999999
 21
118.91
 31
0.0
  0
LINE
  5
2CE
330
A
100
AcDbEntity
  8
PV
  6
Continuous
 62
     7
100
AcDbLine
 10
8.974999999999997
 20
115.11
 30
0.0
 11
11.034
 21
115.11
 31
0.0
  0
LINE
  5
2CF
330
A
100
AcDbEntity
  8
PV
  6
Continuous
 62
     7
100
AcDbLine
 10
6.905
 20
115.917
 30
0.0
 11
7.121
 21
115.11
 31
0.0
  0
LINE
  5
2D0
330
A
100
AcDbEntity
  8
PV
  6
Continuous
 62
     7
100
AcDbLine
 10
5.541
 20
116.312
 30
0.0
 11
6.264999999999998
 21
118.303
 31
0.0
  0
LINE
  5
2D1
330
A
100
AcDbEntity
  8
PV
  6
Continuous
 62
     7
100
AcDbLine
 10
5.541
 20
116.312
 30
0.0
 11
6.798999999999998
 21
116.312
 31
0.0
  0
LINE
  5
2D2
330
A
100
AcDbEntity
  8
PV
  6
Continuous
 62
     7
100
AcDbLine
 10
5.397
 20
115.917
 30
0.0
 11
6.905
 21
115.917
 31
0.0
  0
LINE
  5
2D3
330
A
100
AcDbEntity
  8
PV
  6
Continuous
 62
     7
100
AcDbLine
 10
7.121
 20
115.11
 30
0.0
 11
7.513999999999998
 21
115.11
 31
0.0
  0
LINE
  5
2D4
330
A
100
AcDbEntity
  8
PV
  6
Continuous
 62
     7
100
AcDbLine
 10
6.264999999999998
 20
118.303
 30
0.0
 11
6.798999999999998
 21
116.312
 31
0.0
  0
LINE
  5
2D5
330
A
100
AcDbEntity
  8
PV
  6
Continuous
 62
     7
100
AcDbLine
 10
6.496
 20
118.91
 30
0.0
 11
7.513999999999998
 21
115.11
 31
0.0
  0
LINE
  5
2D6
330
A
100
AcDbEntity
  8
PV
  6
Continuous
 62
     7
100
AcDbLine
 10
5.102999999999998
 20
115.11
 30
0.0
 11
5.397
 21
115.917
 31
0.0
  0
LINE
  5
2D7
330
A
100
AcDbEntity
  8
PV
  6
Continuous
 62
     7
100
AcDbLine
 10
4.698999999999998
 20
115.11
 30
0.0
 11
6.082
 21
118.91
 31
0.0
  0
LINE
  5
2D8
330
A
100
AcDbEntity
  8
PV
  6
Continuous
 62
     7
100
AcDbLine
 10
6.082
 20
118.91
 30
0.0
 11
6.496
 21
118.91
 31
0.0
  0
LINE
  5
2D9
330
A
100
AcDbEntity
  8
PV
  6
Continuous
 62
     7
100
AcDbLine
 10
4.698999999999998
 20
115.11
 30
0.0
 11
5.102999999999998
 21
115.11
 31
0.0
  0
LINE
  5
2DA
330
A
100
AcDbEntity
  8
PV
  6
Continuous
 62
     7
100
AcDbLine
 10
-4.222999999999998
 20
117.198
 30
0.0
 11
-3.993999999999998
 21
118.4919999999999
 31
0.0
  0
LINE
  5
2DB
330
A
100
AcDbEntity
  8
PV
  6
Continuous
 62
     7
100
AcDbLine
 10
-2.606999999999999
 20
118.4919999999999
 30
0.0
 11
-2.534
 21
118.91
 31
0.0
  0
LINE
  5
2DC
330
A
100
AcDbEntity
  8
PV
  6
Continuous
 62
     7
100
AcDbLine
 10
-2.904999999999999
 20
116.805
 30
0.0
 11
-2.836
 21
117.198
 31
0.0
  0
LINE
  5
2DD
330
A
100
AcDbEntity
  8
PV
  6
Continuous
 62
     7
100
AcDbLine
 10
-4.522
 20
115.497
 30
0.0
 11
-4.291999999999998
 21
116.805
 31
0.0
  0
LINE
  5
2DE
330
A
100
AcDbEntity
  8
PV
  6
Continuous
 62
     7
100
AcDbLine
 10
-4.522
 20
115.497
 30
0.0
 11
-3.134999999999998
 21
115.497
 31
0.0
  0
LINE
  5
2DF
330
A
100
AcDbEntity
  8
PV
  6
Continuous
 62
     7
100
AcDbLine
 10
-3.993999999999998
 20
118.4919999999999
 30
0.0
 11
-2.606999999999999
 21
118.4919999999999
 31
0.0
  0
LINE
  5
2E0
330
A
100
AcDbEntity
  8
PV
  6
Continuous
 62
     7
100
AcDbLine
 10
-4.222999999999998
 20
117.198
 30
0.0
 11
-2.836
 21
117.198
 31
0.0
  0
LINE
  5
2E1
330
A
100
AcDbEntity
  8
PV
  6
Continuous
 62
     7
100
AcDbLine
 10
-4.291999999999998
 20
116.805
 30
0.0
 11
-2.904999999999999
 21
116.805
 31
0.0
  0
LINE
  5
2E2
330
A
100
AcDbEntity
  8
PV
  6
Continuous
 62
     7
100
AcDbLine
 10
-3.203999999999998
 20
115.11
 30
0.0
 11
-3.134999999999998
 21
115.497
 31
0.0
  0
LINE
  5
2E3
330
A
100
AcDbEntity
  8
PV
  6
Continuous
 62
     7
100
AcDbLine
 10
-4.980999999999998
 20
115.11
 30
0.0
 11
-4.310999999999999
 21
118.91
 31
0.0
  0
LINE
  5
2E4
330
A
100
AcDbEntity
  8
PV
  6
Continuous
 62
     7
100
AcDbLine
 10
-4.980999999999998
 20
115.11
 30
0.0
 11
-3.203999999999998
 21
115.11
 31
0.0
  0
LINE
  5
2E5
330
A
100
AcDbEntity
  8
PV
  6
Continuous
 62
     7
100
AcDbLine
 10
-4.310999999999999
 20
118.91
 30
0.0
 11
-2.534
 21
118.91
 31
0.0
  0
LINE
  5
2E6
330
A
100
AcDbEntity
  8
PV
  6
Continuous
 62
     7
100
AcDbLine
 10
-8.357000000000001
 20
115.515
 30
0.0
 11
-6.693999999999999
 21
115.515
 31
0.0
  0
LINE
  5
2E7
330
A
100
AcDbEntity
  8
PV
  6
Continuous
 62
     7
100
AcDbLine
 10
-8.357000000000001
 20
115.515
 30
0.0
 11
-7.758999999999998
 21
118.91
 31
0.0
  0
LINE
  5
2E8
330
A
100
AcDbEntity
  8
PV
  6
Continuous
 62
     7
100
AcDbLine
 10
-8.824999999999997
 20
115.11
 30
0.0
 11
-8.154999999999999
 21
118.91
 31
0.0
  0
LINE
  5
2E9
330
A
100
AcDbEntity
  8
PV
  6
Continuous
 62
     7
100
AcDbLine
 10
-6.766
 20
115.11
 30
0.0
 11
-6.693999999999999
 21
115.515
 31
0.0
  0
LINE
  5
2EA
330
A
100
AcDbEntity
  8
PV
  6
Continuous
 62
     7
100
AcDbLine
 10
-8.154999999999999
 20
118.91
 30
0.0
 11
-7.758999999999998
 21
118.91
 31
0.0
  0
LINE
  5
2EB
330
A
100
AcDbEntity
  8
PV
  6
Continuous
 62
     7
100
AcDbLine
 10
-8.824999999999997
 20
115.11
 30
0.0
 11
-6.766
 21
115.11
 31
0.0
  0
LINE
  5
2EC
330
A
100
AcDbEntity
  8
PV
  6
Continuous
 62
     7
100
AcDbLine
 10
-20.39499999999998
 20
115.917
 30
0.0
 11
-20.179
 21
115.11
 31
0.0
  0
LINE
  5
2ED
330
A
100
AcDbEntity
  8
PV
  6
Continuous
 62
     7
100
AcDbLine
 10
-21.75899999999999
 20
116.312
 30
0.0
 11
-21.03499999999999
 21
118.303
 31
0.0
  0
LINE
  5
2EE
330
A
100
AcDbEntity
  8
PV
  6
Continuous
 62
     7
100
AcDbLine
 10
-21.75899999999999
 20
116.312
 30
0.0
 11
-20.501
 21
116.312
 31
0.0
  0
LINE
  5
2EF
330
A
100
AcDbEntity
  8
PV
  6
Continuous
 62
     7
100
AcDbLine
 10
-21.903
 20
115.917
 30
0.0
 11
-20.39499999999998
 21
115.917
 31
0.0
  0
LINE
  5
2F0
330
A
100
AcDbEntity
  8
PV
  6
Continuous
 62
     7
100
AcDbLine
 10
-20.179
 20
115.11
 30
0.0
 11
-19.78599999999998
 21
115.11
 31
0.0
  0
LINE
  5
2F1
330
A
100
AcDbEntity
  8
PV
  6
Continuous
 62
     7
100
AcDbLine
 10
-21.03499999999999
 20
118.303
 30
0.0
 11
-20.501
 21
116.312
 31
0.0
  0
LINE
  5
2F2
330
A
100
AcDbEntity
  8
PV
  6
Continuous
 62
     7
100
AcDbLine
 10
-20.804
 20
118.91
 30
0.0
 11
-19.78599999999998
 21
115.11
 31
0.0
  0
LINE
  5
2F3
330
A
100
AcDbEntity
  8
PV
  6
Continuous
 62
     7
100
AcDbLine
 10
-22.197
 20
115.11
 30
0.0
 11
-21.903
 21
115.917
 31
0.0
  0
LINE
  5
2F4
330
A
100
AcDbEntity
  8
PV
  6
Continuous
 62
     7
100
AcDbLine
 10
-22.60099999999999
 20
115.11
 30
0.0
 11
-21.218
 21
118.91
 31
0.0
  0
LINE
  5
2F5
330
A
100
AcDbEntity
  8
PV
  6
Continuous
 62
     7
100
AcDbLine
 10
-21.218
 20
118.91
 30
0.0
 11
-20.804
 21
118.91
 31
0.0
  0
LINE
  5
2F6
330
A
100
AcDbEntity
  8
PV
  6
Continuous
 62
     7
100
AcDbLine
 10
-22.60099999999999
 20
115.11
 30
0.0
 11
-22.197
 21
115.11
 31
0.0
  0
LINE
  5
2F7
330
A
100
AcDbEntity
  8
PV
  6
Continuous
 62
     7
100
AcDbLine
 10
-11.45299999999999
 20
116.6299999999999
 30
0.0
 11
-10.696
 21
116.6299999999999
 31
0.0
  0
LINE
  5
2F8
330
A
100
AcDbEntity
  8
PV
  6
Continuous
 62
     7
100
AcDbLine
 10
-11.45299999999999
 20
116.6299999999999
 30
0.0
 11
-11.386
 21
117.01
 31
0.0
  0
LINE
  5
2F9
330
A
100
AcDbEntity
  8
PV
  6
Continuous
 62
     7
100
AcDbLine
 10
-10.694
 20
117.557
 30
0.0
 11
-10.318
 21
117.6949999999999
 31
0.0
  0
LINE
  5
2FA
330
A
100
AcDbEntity
  8
PV
  6
Continuous
 62
     7
100
AcDbLine
 10
-11.386
 20
117.01
 30
0.0
 11
-10.235
 21
117.01
 31
0.0
  0
LINE
  5
2FB
330
A
100
AcDbEntity
  8
PV
  6
Continuous
 62
     7
100
AcDbLine
 10
-15.204
 20
118.91
 30
0.0
 11
-14.816
 21
118.91
 31
0.0
  0
LINE
  5
2FC
330
A
100
AcDbEntity
  8
PV
  6
Continuous
 62
     7
100
AcDbLine
 10
-15.883
 20
115.11
 30
0.0
 11
-15.487
 21
115.11
 31
0.0
  0
LINE
  5
2FD
330
A
100
AcDbEntity
  8
PV
  6
Continuous
 62
     7
100
AcDbLine
 10
-17.062
 20
118.91
 30
0.0
 11
-15.749
 21
115.817
 31
0.0
  0
LINE
  5
2FE
330
A
100
AcDbEntity
  8
PV
  6
Continuous
 62
     7
100
AcDbLine
 10
-17.146
 20
118.084
 30
0.0
 11
-15.883
 21
115.11
 31
0.0
  0
LINE
  5
2FF
330
A
100
AcDbEntity
  8
PV
  6
Continuous
 62
     7
100
AcDbLine
 10
-18.07099999999998
 20
115.11
 30
0.0
 11
-17.4
 21
118.91
 31
0.0
  0
LINE
  5
300
330
A
100
AcDbEntity
  8
PV
  6
Continuous
 62
     7
100
AcDbLine
 10
-17.67
 20
115.11
 30
0.0
 11
-17.146
 21
118.084
 31
0.0
  0
LINE
  5
301
330
A
100
AcDbEntity
  8
PV
  6
Continuous
 62
     7
100
AcDbLine
 10
-15.749
 20
115.817
 30
0.0
 11
-15.204
 21
118.91
 31
0.0
  0
LINE
  5
302
330
A
100
AcDbEntity
  8
PV
  6
Continuous
 62
     7
100
AcDbLine
 10
-15.487
 20
115.11
 30
0.0
 11
-14.816
 21
118.91
 31
0.0
  0
LINE
  5
303
330
A
100
AcDbEntity
  8
PV
  6
Continuous
 62
     7
100
AcDbLine
 10
-17.4
 20
118.91
 30
0.0
 11
-17.062
 21
118.91
 31
0.0
  0
LINE
  5
304
330
A
100
AcDbEntity
  8
PV
  6
Continuous
 62
     7
100
AcDbLine
 10
-18.07099999999998
 20
115.11
 30
0.0
 11
-17.67
 21
115.11
 31
0.0
  0
LWPOLYLINE
  5
305
330
A
100
AcDbEntity
  8
PV
  6
Continuous
 62
     7
100
AcDbPolyline
 90
       73
 70
     0
 43
0.0
 10
22.456
 20
-5.5
 10
22.459
 20
-5.762
 10
22.467
 20
-6.022999999999998
 10
22.482
 20
-6.282999999999998
 10
22.50099999999999
 20
-6.542
 10
22.52699999999999
 20
-6.798999999999998
 10
22.558
 20
-7.052999999999999
 10
22.595
 20
-7.303999999999998
 10
22.63699999999999
 20
-7.552
 10
22.684
 20
-7.796
 10
22.73699999999999
 20
-8.035999999999999
 10
22.795
 20
-8.269999999999999
 10
22.858
 20
-8.5
 10
22.92599999999999
 20
-8.724
 10
22.998
 20
-8.941
 10
23.076
 20
-9.152999999999996
 10
23.158
 20
-9.356999999999999
 10
23.244
 20
-9.554
 10
23.335
 20
-9.743
 10
23.429
 20
-9.923999999999999
 10
23.527
 20
-10.096
 10
23.62999999999999
 20
-10.26
 10
23.73499999999999
 20
-10.41499999999998
 10
23.844
 20
-10.56
 10
23.95599999999999
 20
-10.696
 10
24.07099999999999
 20
-10.822
 10
24.188
 20
-10.93799999999998
 10
24.308
 20
-11.043
 10
24.43
 20
-11.138
 10
24.554
 20
-11.222
 10
24.679
 20
-11.29599999999999
 10
24.807
 20
-11.35799999999999
 10
24.935
 20
-11.409
 10
25.064
 20
-11.449
 10
25.194
 20
-11.477
 10
25.325
 20
-11.494
 10
25.456
 20
-11.5
 10
25.58699999999999
 20
-11.494
 10
25.71699999999999
 20
-11.477
 10
25.84699999999999
 20
-11.449
 10
25.97699999999999
 20
-11.409
 10
26.105
 20
-11.35799999999999
 10
26.232
 20
-11.29599999999999
 10
26.358
 20
-11.222
 10
26.482
 20
-11.138
 10
26.604
 20
-11.043
 10
26.724
 20
-10.93799999999998
 10
26.84099999999999
 20
-10.822
 10
26.956
 20
-10.696
 10
27.068
 20
-10.56
 10
27.177
 20
-10.41499999999998
 10
27.28199999999999
 20
-10.26
 10
27.384
 20
-10.096
 10
27.483
 20
-9.923999999999999
 10
27.57699999999999
 20
-9.743
 10
27.668
 20
-9.554
 10
27.754
 20
-9.356999999999999
 10
27.83599999999999
 20
-9.152999999999996
 10
27.913
 20
-8.941
 10
27.986
 20
-8.724
 10
28.054
 20
-8.5
 10
28.117
 20
-8.269999999999999
 10
28.175
 20
-8.035999999999999
 10
28.22699999999999
 20
-7.796
 10
28.275
 20
-7.552
 10
28.31699999999999
 20
-7.303999999999998
 10
28.35399999999999
 20
-7.052999999999999
 10
28.385
 20
-6.798999999999998
 10
28.41
 20
-6.542
 10
28.42999999999999
 20
-6.282999999999998
 10
28.444
 20
-6.022999999999998
 10
28.453
 20
-5.762
 10
28.456
 20
-5.5
  0
LWPOLYLINE
  5
306
330
A
100
AcDbEntity
  8
PV
  6
Continuous
 62
     7
100
AcDbPolyline
 90
       73
 70
     0
 43
0.0
 10
-28.456
 20
-5.5
 10
-28.453
 20
-5.762
 10
-28.444
 20
-6.022999999999998
 10
-28.42999999999999
 20
-6.282999999999998
 10
-28.41
 20
-6.542
 10
-28.385
 20
-6.798999999999998
 10
-28.35399999999999
 20
-7.052999999999999
 10
-28.31699999999999
 20
-7.303999999999998
 10
-28.275
 20
-7.552
 10
-28.22699999999999
 20
-7.796
 10
-28.175
 20
-8.035999999999999
 10
-28.117
 20
-8.269999999999999
 10
-28.054
 20
-8.5
 10
-27.986
 20
-8.724
 10
-27.913
 20
-8.941
 10
-27.83599999999999
 20
-9.152999999999996
 10
-27.754
 20
-9.356999999999999
 10
-27.668
 20
-9.554
 10
-27.57699999999999
 20
-9.743
 10
-27.483
 20
-9.923999999999999
 10
-27.384
 20
-10.096
 10
-27.28199999999999
 20
-10.26
 10
-27.177
 20
-10.41499999999998
 10
-27.068
 20
-10.56
 10
-26.956
 20
-10.696
 10
-26.84099999999999
 20
-10.822
 10
-26.724
 20
-10.93799999999998
 10
-26.604
 20
-11.043
 10
-26.482
 20
-11.138
 10
-26.358
 20
-11.222
 10
-26.232
 20
-11.29599999999999
 10
-26.105
 20
-11.35799999999999
 10
-25.97699999999999
 20
-11.409
 10
-25.84699999999999
 20
-11.449
 10
-25.71699999999999
 20
-11.477
 10
-25.58699999999999
 20
-11.494
 10
-25.456
 20
-11.5
 10
-25.325
 20
-11.494
 10
-25.194
 20
-11.477
 10
-25.064
 20
-11.449
 10
-24.935
 20
-11.409
 10
-24.807
 20
-11.35799999999999
 10
-24.679
 20
-11.29599999999999
 10
-24.554
 20
-11.222
 10
-24.43
 20
-11.138
 10
-24.308
 20
-11.043
 10
-24.188
 20
-10.93799999999998
 10
-24.07099999999999
 20
-10.822
 10
-23.95599999999999
 20
-10.696
 10
-23.844
 20
-10.56
 10
-23.73499999999999
 20
-10.41499999999998
 10
-23.62999999999999
 20
-10.26
 10
-23.527
 20
-10.096
 10
-23.429
 20
-9.923999999999999
 10
-23.335
 20
-9.743
 10
-23.244
 20
-9.554
 10
-23.158
 20
-9.356999999999999
 10
-23.076
 20
-9.152999999999996
 10
-22.998
 20
-8.941
 10
-22.92599999999999
 20
-8.724
 10
-22.858
 20
-8.5
 10
-22.795
 20
-8.269999999999999
 10
-22.73699999999999
 20
-8.035999999999999
 10
-22.684
 20
-7.796
 10
-22.63699999999999
 20
-7.552
 10
-22.595
 20
-7.303999999999998
 10
-22.558
 20
-7.052999999999999
 10
-22.52699999999999
 20
-6.798999999999998
 10
-22.50099999999999
 20
-6.542
 10
-22.482
 20
-6.282999999999998
 10
-22.467
 20
-6.022999999999998
 10
-22.459
 20
-5.762
 10
-22.456
 20
-5.5
  0
ARC
  5
307
330
A
100
AcDbEntity
  8
PV
  6
Continuous
 62
     7
100
AcDbCircle
 10
-6.357
 20
165.0409999999999
 30
0.0
 40
1.0
100
AcDbArc
 50
180.000005
 51
193.589896
  0
CIRCLE
  5
308
330
A
100
AcDbEntity
  8
PV
  6
Continuous
 62
     7
100
AcDbCircle
 10
-31.0
 20
144.006
 30
0.0
 40
7.5
  0
CIRCLE
  5
309
330
A
100
AcDbEntity
  8
PV
  6
Continuous
 62
     7
100
AcDbCircle
 10
31.0
 20
144.006
 30
0.0
 40
7.5
  0
CIRCLE
  5
30A
330
A
100
AcDbEntity
  8
PV
  6
Continuous
 62
     7
100
AcDbCircle
 10
31.0
 20
82.00599999999999
 30
0.0
 40
7.5
  0
CIRCLE
  5
30B
330
A
100
AcDbEntity
  8
PV
  6
Continuous
 62
     7
100
AcDbCircle
 10
-31.0
 20
82.00599999999999
 30
0.0
 40
7.5
  0
ARC
  5
30C
330
A
100
AcDbEntity
  8
PV
  6
Continuous
 62
     7
100
AcDbCircle
 10
0.0
 20
113.006
 30
0.0
 40
53.0
100
AcDbArc
 50
310.1684829999998
 51
319.831514
  0
ARC
  5
30D
330
A
100
AcDbEntity
  8
PV
  6
Continuous
 62
     7
100
AcDbCircle
 10
0.0
 20
113.006
 30
0.0
 40
53.0
100
AcDbArc
 50
130.1684749999999
 51
139.831512
  0
ARC
  5
30E
330
A
100
AcDbEntity
  8
PV
  6
Continuous
 62
     7
100
AcDbCircle
 10
0.0
 20
113.006
 30
0.0
 40
53.0
100
AcDbArc
 50
40.168486
 51
49.831527
  0
ARC
  5
30F
330
A
100
AcDbEntity
  8
PV
  6
Continuous
 62
     7
100
AcDbCircle
 10
0.0
 20
113.006
 30
0.0
 40
53.0
100
AcDbArc
 50
220.168488
 51
229.831512
  0
ARC
  5
310
330
A
100
AcDbEntity
  8
PV
  6
Continuous
 62
     7
100
AcDbCircle
 10
27.078
 20
6.5
 30
0.0
 40
2.0
100
AcDbArc
 50
2.29061
 51
90.00000300000001
  0
ARC
  5
311
330
A
100
AcDbEntity
  8
PV
  6
Continuous
 62
     7
100
AcDbCircle
 10
25.5
 20
8.5
 30
0.0
 40
1.0
100
AcDbArc
 50
0.0
 51
90.00000300000001
  0
ARC
  5
312
330
A
100
AcDbEntity
  8
PV
  6
Continuous
 62
     7
100
AcDbCircle
 10
-25.5
 20
8.5
 30
0.0
 40
1.0
100
AcDbArc
 50
90.00000300000001
 51
180.000005
  0
ARC
  5
313
330
A
100
AcDbEntity
  8
PV
  6
Continuous
 62
     7
100
AcDbCircle
 10
-27.078
 20
6.5
 30
0.0
 40
2.0
100
AcDbArc
 50
90.00000300000001
 51
177.7093919999999
  0
ARC
  5
314
330
A
100
AcDbEntity
  8
PV
  6
Continuous
 62
     7
100
AcDbCircle
 10
31.0
 20
-24.0
 30
0.0
 40
5.0
100
AcDbArc
 50
179.9999909999999
 51
270.000001
  0
ARC
  5
315
330
A
100
AcDbEntity
  8
PV
  6
Continuous
 62
     7
100
AcDbCircle
 10
-31.0
 20
-24.0
 30
0.0
 40
5.0
100
AcDbArc
 50
269.9999969999999
 51
0.0
  0
ARC
  5
316
330
A
100
AcDbEntity
  8
PV
  6
Continuous
 62
     7
100
AcDbCircle
 10
-63.15100000000001
 20
87.00599999999999
 30
0.0
 40
1.5
100
AcDbArc
 50
270.000032
 51
344.999976
  0
ARC
  5
318
330
A
100
AcDbEntity
  8
PV
  6
PHANTOM
 62
     7
100
AcDbCircle
 10
25.5
 20
23.5
 30
0.0
 40
1.0
100
AcDbArc
 50
0.0
 51
90.00000300000001
  0
ARC
  5
319
330
A
100
AcDbEntity
  8
PV
  6
PHANTOM
 62
     7
100
AcDbCircle
 10
-25.5
 20
23.5
 30
0.0
 40
1.0
100
AcDbArc
 50
90.00000300000001
 51
180.000005
  0
ARC
  5
31A
330
A
100
AcDbEntity
  8
PV
  6
Continuous
 62
     7
100
AcDbCircle
 10
0.0
 20
-5.5
 30
0.0
 40
6.0
100
AcDbArc
 50
269.9999969999999
 51
0.0
  0
ARC
  5
31B
330
A
100
AcDbEntity
  8
PV
  6
Continuous
 62
     7
100
AcDbCircle
 10
0.0
 20
-5.5
 30
0.0
 40
6.0
100
AcDbArc
 50
179.9999909999999
 51
270.000001
  0
ARC
  5
31C
330
A
100
AcDbEntity
  8
PV
  6
PHANTOM
 62
     7
100
AcDbCircle
 10
27.078
 20
21.49999999999999
 30
0.0
 40
2.0
100
AcDbArc
 50
2.29061
 51
90.00000300000001
  0
ARC
  5
31D
330
A
100
AcDbEntity
  8
PV
  6
PHANTOM
 62
     7
100
AcDbCircle
 10
-27.078
 20
21.49999999999999
 30
0.0
 40
2.0
100
AcDbArc
 50
90.00000300000001
 51
177.7093919999999
  0
ARC
  5
31E
330
A
100
AcDbEntity
  8
PV
  6
Continuous
 62
   254
100
AcDbCircle
 10
0.0
 20
113.006
 30
0.0
 40
29.0
100
AcDbArc
 50
341.908914
 51
18.09108599999999
  0
ARC
  5
31F
330
A
100
AcDbEntity
  8
PV
  6
Continuous
 62
   254
100
AcDbCircle
 10
0.0
 20
113.006
 30
0.0
 40
29.0
100
AcDbArc
 50
41.908914
 51
78.091083
  0
ARC
  5
320
330
A
100
AcDbEntity
  8
PV
  6
Continuous
 62
   254
100
AcDbCircle
 10
0.0
 20
113.006
 30
0.0
 40
29.0
100
AcDbArc
 50
101.908915
 51
138.091084
  0
ARC
  5
321
330
A
100
AcDbEntity
  8
PV
  6
Continuous
 62
   254
100
AcDbCircle
 10
0.0
 20
113.006
 30
0.0
 40
29.0
100
AcDbArc
 50
161.90891
 51
198.091086
  0
CIRCLE
  5
322
330
A
100
AcDbEntity
  8
PV
  6
Continuous
 62
   254
100
AcDbCircle
 10
0.0
 20
113.006
 30
0.0
 40
30.0
  0
ARC
  5
323
330
A
100
AcDbEntity
  8
PV
  6
Continuous
 62
   254
100
AcDbCircle
 10
0.0
 20
113.006
 30
0.0
 40
29.0
100
AcDbArc
 50
221.908916
 51
258.059454
  0
ARC
  5
324
330
A
100
AcDbEntity
  8
PV
  6
Continuous
 62
   254
100
AcDbCircle
 10
-27.43199999999999
 20
122.493
 30
0.0
 40
0.5
100
AcDbArc
 50
239.999997
 51
329.9999989999998
  0
ARC
  5
325
330
A
100
AcDbEntity
  8
PV
  6
Continuous
 62
   254
100
AcDbCircle
 10
-21.932
 20
132.02
 30
0.0
 40
0.5
100
AcDbArc
 50
329.9999989999998
 51
60.000002
  0
ARC
  5
326
330
A
100
AcDbEntity
  8
PV
  6
Continuous
 62
   254
100
AcDbCircle
 10
-5.5
 20
141.5059999999999
 30
0.0
 40
0.5
100
AcDbArc
 50
179.9999909999999
 51
270.000001
  0
ARC
  5
327
330
A
100
AcDbEntity
  8
PV
  6
Continuous
 62
   254
100
AcDbCircle
 10
5.5
 20
141.5059999999999
 30
0.0
 40
0.5
100
AcDbArc
 50
269.9999969999999
 51
0.0
  0
ARC
  5
328
330
A
100
AcDbEntity
  8
PV
  6
Continuous
 62
   254
100
AcDbCircle
 10
21.932
 20
132.02
 30
0.0
 40
0.5
100
AcDbArc
 50
120.0000029999999
 51
209.999999
  0
ARC
  5
329
330
A
100
AcDbEntity
  8
PV
  6
Continuous
 62
   254
100
AcDbCircle
 10
27.43199999999999
 20
122.493
 30
0.0
 40
0.5
100
AcDbArc
 50
210.0000029999999
 51
299.999998
  0
ARC
  5
32A
330
A
100
AcDbEntity
  8
PV
  6
Continuous
 62
   254
100
AcDbCircle
 10
27.43199999999999
 20
103.5199999999999
 30
0.0
 40
0.5
100
AcDbArc
 50
60.000002
 51
149.999997
  0
ARC
  5
32B
330
A
100
AcDbEntity
  8
PV
  6
Continuous
 62
   254
100
AcDbCircle
 10
21.932
 20
93.993
 30
0.0
 40
0.5
100
AcDbArc
 50
149.999997
 51
240.0000069999999
  0
ARC
  5
32C
330
A
100
AcDbEntity
  8
PV
  6
Continuous
 62
   254
100
AcDbCircle
 10
5.5
 20
84.50599999999999
 30
0.0
 40
0.5
100
AcDbArc
 50
0.0
 51
90.00000300000001
  0
ARC
  5
32D
330
A
100
AcDbEntity
  8
PV
  6
Continuous
 62
   254
100
AcDbCircle
 10
-5.5
 20
84.50599999999999
 30
0.0
 40
0.5
100
AcDbArc
 50
90.00000300000001
 51
180.000005
  0
ARC
  5
32E
330
A
100
AcDbEntity
  8
PV
  6
Continuous
 62
   254
100
AcDbCircle
 10
-21.932
 20
93.993
 30
0.0
 40
0.5
100
AcDbArc
 50
299.999998
 51
30.000001
  0
ARC
  5
32F
330
A
100
AcDbEntity
  8
PV
  6
Continuous
 62
   254
100
AcDbCircle
 10
-27.43199999999999
 20
103.5199999999999
 30
0.0
 40
0.5
100
AcDbArc
 50
30.000001
 51
120.0000029999999
  0
CIRCLE
  5
330
330
A
100
AcDbEntity
  8
PV
  6
Continuous
 62
   254
100
AcDbCircle
 10
0.0
 20
113.006
 30
0.0
 40
26.5
  0
ARC
  5
331
330
A
100
AcDbEntity
  8
PV
  6
Continuous
 62
   254
100
AcDbCircle
 10
0.0
 20
113.006
 30
0.0
 40
29.0
100
AcDbArc
 50
281.9405409999999
 51
318.0910859999999
  0
ARC
  5
332
330
A
100
AcDbEntity
  8
PV
  6
Continuous
 62
   254
100
AcDbCircle
 10
9.226
 20
143.5029999999999
 30
0.0
 40
1.790999999999999
100
AcDbArc
 50
268.6023769999999
 51
270.0000109999999
  0
ARC
  5
333
330
A
100
AcDbEntity
  8
PV
  6
Continuous
 62
     7
100
AcDbCircle
 10
-69.616
 20
-88.49999999999999
 30
0.0
 40
38.14999999999999
100
AcDbArc
 50
325.9695459999998
 51
34.03045399999999
  0
ARC
  5
334
330
A
100
AcDbEntity
  8
PV
  6
Continuous
 62
     7
100
AcDbCircle
 10
26.0
 20
-151.651
 30
0.0
 40
1.5
100
AcDbArc
 50
0.000027
 51
74.99995799999997
  0
ARC
  5
335
330
A
100
AcDbEntity
  8
PV
  6
Continuous
 62
     7
100
AcDbCircle
 10
-63.15100000000001
 20
-114.5
 30
0.0
 40
1.5
100
AcDbArc
 50
269.999977
 51
344.9999209999998
  0
ARC
  5
336
330
A
100
AcDbEntity
  8
PV
  6
Continuous
 62
     7
100
AcDbCircle
 10
-26.0
 20
-151.651
 30
0.0
 40
1.5
100
AcDbArc
 50
105.000006
 51
179.999937
  0
ARC
  5
337
330
A
100
AcDbEntity
  8
PV
  6
Continuous
 62
     7
100
AcDbCircle
 10
-63.15100000000001
 20
-62.5
 30
0.0
 40
1.5
100
AcDbArc
 50
15.000024
 51
89.99996800000003
  0
ARC
  5
338
330
A
100
AcDbEntity
  8
PV
  6
Continuous
 62
     7
100
AcDbCircle
 10
-63.15100000000001
 20
139.006
 30
0.0
 40
1.5
100
AcDbArc
 50
15.000024
 51
89.99996800000003
  0
LINE
  5
339
330
A
100
AcDbEntity
  8
PV
  6
Continuous
 62
     7
100
AcDbLine
 10
38.0
 20
-113.5
 30
0.0
 11
-38.0
 21
-113.5
 31
0.0
  0
LINE
  5
33A
330
A
100
AcDbEntity
  8
PV
  6
Continuous
 62
     7
100
AcDbLine
 10
-31.0
 20
-120.5
 30
0.0
 11
-38.0
 21
-113.5
 31
0.0
  0
LINE
  5
33B
330
A
100
AcDbEntity
  8
PV
  6
Continuous
 62
     7
100
AcDbLine
 10
38.0
 20
-113.5
 30
0.0
 11
31.0
 21
-120.5
 31
0.0
  0
LINE
  5
33C
330
A
100
AcDbEntity
  8
PV
  6
Continuous
 62
     7
100
AcDbLine
 10
-39.5
 20
-29.0
 30
0.0
 11
-40.49999999999999
 21
-30.0
 31
0.0
  0
LINE
  5
33D
330
A
100
AcDbEntity
  8
PV
  6
Continuous
 62
     7
100
AcDbLine
 10
39.5
 20
-29.0
 30
0.0
 11
40.49999999999999
 21
-30.0
 31
0.0
  0
LINE
  5
33E
330
A
100
AcDbEntity
  8
PV
  6
Continuous
 62
     7
100
AcDbLine
 10
34.18699999999999
 20
72.506
 30
0.0
 11
-34.18699999999999
 21
72.506
 31
0.0
  0
LINE
  5
33F
330
A
100
AcDbEntity
  8
PV
  6
Continuous
 62
     7
100
AcDbLine
 10
40.49999999999999
 20
147.1929999999999
 30
0.0
 11
40.49999999999999
 21
78.819
 31
0.0
  0
LINE
  5
340
330
A
100
AcDbEntity
  8
PV
  6
Continuous
 62
     7
100
AcDbLine
 10
-40.49999999999999
 20
147.1929999999999
 30
0.0
 11
-40.49999999999999
 21
78.819
 31
0.0
  0
LINE
  5
341
330
A
100
AcDbEntity
  8
PV
  6
Continuous
 62
     7
100
AcDbLine
 10
34.18699999999999
 20
153.506
 30
0.0
 11
-34.18699999999999
 21
153.506
 31
0.0
  0
LINE
  5
342
330
A
100
AcDbEntity
  8
PV
  6
Continuous
 62
     7
100
AcDbLine
 10
-38.0
 20
-109.85
 30
0.0
 11
-38.0
 21
-113.5
 31
0.0
  0
LINE
  5
343
330
A
100
AcDbEntity
  8
PV
  6
Continuous
 62
     7
100
AcDbLine
 10
38.0
 20
-56.701
 30
0.0
 11
38.0
 21
-113.5
 31
0.0
  0
LINE
  5
344
330
A
100
AcDbEntity
  8
PV
  6
Continuous
 62
     7
100
AcDbLine
 10
40.49999999999999
 20
-29.928
 30
0.0
 11
40.49999999999999
 21
-45.0
 31
0.0
  0
LINE
  5
345
330
A
100
AcDbEntity
  8
PV
  6
Continuous
 62
     7
100
AcDbLine
 10
40.49999999999999
 20
-45.056
 30
0.0
 11
40.49999999999999
 21
-56.5
 31
0.0
  0
LINE
  5
346
330
A
100
AcDbEntity
  8
PV
  6
Continuous
 62
     7
100
AcDbLine
 10
-40.49999999999999
 20
-30.0
 30
0.0
 11
-40.49999999999999
 21
-45.0
 31
0.0
  0
LINE
  5
347
330
A
100
AcDbEntity
  8
PV
  6
Continuous
 62
     7
100
AcDbLine
 10
-40.49999999999999
 20
-45.056
 30
0.0
 11
-40.49999999999999
 21
-56.5
 31
0.0
  0
LINE
  5
348
330
A
100
AcDbEntity
  8
PV
  6
Continuous
 62
     7
100
AcDbLine
 10
29.077
 20
6.58
 30
0.0
 11
30.0
 21
-16.5
 31
0.0
  0
LINE
  5
349
330
A
100
AcDbEntity
  8
PV
  6
Continuous
 62
     7
100
AcDbLine
 10
-25.5
 20
9.5
 30
0.0
 11
25.5
 21
9.5
 31
0.0
  0
LINE
  5
34A
330
A
100
AcDbEntity
  8
PV
  6
Continuous
 62
     7
100
AcDbLine
 10
-27.078
 20
8.5
 30
0.0
 11
27.078
 21
8.5
 31
0.0
  0
LINE
  5
34B
330
A
100
AcDbEntity
  8
PV
  6
Continuous
 62
     7
100
AcDbLine
 10
-30.0
 20
-16.5
 30
0.0
 11
-29.077
 21
6.58
 31
0.0
  0
LINE
  5
34C
330
A
100
AcDbEntity
  8
PV
  6
Continuous
 62
     7
100
AcDbLine
 10
-30.0
 20
-16.5
 30
0.0
 11
30.0
 21
-16.5
 31
0.0
  0
LINE
  5
34D
330
A
100
AcDbEntity
  8
PV
  6
Continuous
 62
     7
100
AcDbLine
 10
-35.5
 20
-45.0
 30
0.0
 11
-35.5
 21
-29.0
 31
0.0
  0
LINE
  5
34E
330
A
100
AcDbEntity
  8
PV
  6
Continuous
 62
     7
100
AcDbLine
 10
-60.35199999999999
 20
134.3559999999999
 30
0.0
 11
-60.35199999999999
 21
91.65600000000001
 31
0.0
  0
LINE
  5
34F
330
A
100
AcDbEntity
  8
PV
  6
Continuous
 62
     7
100
AcDbLine
 10
-61.702
 20
86.61799999999997
 30
0.0
 11
-60.35199999999999
 21
91.65600000000001
 31
0.0
  0
LINE
  5
350
330
A
100
AcDbEntity
  8
PV
  6
Continuous
 62
     7
100
AcDbLine
 10
-60.417
 20
91.506
 30
0.0
 11
-40.772
 21
91.506
 31
0.0
  0
LINE
  5
351
330
A
100
AcDbEntity
  8
PV
  6
Continuous
 62
     7
100
AcDbLine
 10
-65.0
 20
85.50600000000001
 30
0.0
 11
-63.15100000000001
 21
85.50600000000001
 31
0.0
  0
LINE
  5
352
330
A
100
AcDbEntity
  8
PV
  6
Continuous
 62
     7
100
AcDbLine
 10
4.0
 20
-16.5
 30
0.0
 11
4.0
 21
-24.0
 31
0.0
  0
LINE
  5
353
330
A
100
AcDbEntity
  8
PV
  6
Continuous
 62
     7
100
AcDbLine
 10
-4.0
 20
-16.5
 30
0.0
 11
-4.0
 21
-24.0
 31
0.0
  0
LINE
  5
354
330
A
100
AcDbEntity
  8
PV
  6
Continuous
 62
     7
100
AcDbLine
 10
-26.0
 20
-24.0
 30
0.0
 11
26.0
 21
-24.0
 31
0.0
  0
LINE
  5
355
330
A
100
AcDbEntity
  8
PV
  6
Continuous
 62
     7
100
AcDbLine
 10
26.072
 20
-9.882999999999999
 30
0.0
 11
24.82699999999999
 21
-11.367
 31
0.0
  0
LINE
  5
356
330
A
100
AcDbEntity
  8
PV
  6
Continuous
 62
     7
100
AcDbLine
 10
27.256
 20
8.5
 30
0.0
 11
27.256
 21
-5.5
 31
0.0
  0
LINE
  5
357
330
A
100
AcDbEntity
  8
PV
  6
Continuous
 62
     7
100
AcDbLine
 10
28.456
 20
7.95
 30
0.0
 11
28.456
 21
-5.5
 31
0.0
  0
LINE
  5
358
330
A
100
AcDbEntity
  8
PV
  6
Continuous
 62
     7
100
AcDbLine
 10
22.456
 20
8.5
 30
0.0
 11
22.456
 21
-5.5
 31
0.0
  0
LINE
  5
359
330
A
100
AcDbEntity
  8
PV
  6
Continuous
 62
     7
100
AcDbLine
 10
-26.072
 20
-9.882999999999999
 30
0.0
 11
-24.82699999999999
 21
-11.367
 31
0.0
  0
LINE
  5
35A
330
A
100
AcDbEntity
  8
PV
  6
Continuous
 62
     7
100
AcDbLine
 10
-27.256
 20
8.5
 30
0.0
 11
-27.256
 21
-5.5
 31
0.0
  0
LINE
  5
35B
330
A
100
AcDbEntity
  8
PV
  6
Continuous
 62
     7
100
AcDbLine
 10
-28.456
 20
7.95
 30
0.0
 11
-28.456
 21
-5.5
 31
0.0
  0
LINE
  5
35C
330
A
100
AcDbEntity
  8
PV
  6
Continuous
 62
     7
100
AcDbLine
 10
-22.456
 20
8.5
 30
0.0
 11
-22.456
 21
-5.5
 31
0.0
  0
LINE
  5
35E
330
A
100
AcDbEntity
  8
PV
  6
DASHED
 62
     7
100
AcDbLine
 10
-25.0
 20
9.199999999999999
 30
0.0
 11
25.0
 21
9.199999999999999
 31
0.0
  0
LINE
  5
35F
330
A
100
AcDbEntity
  8
PV
  6
PHANTOM
 62
     7
100
AcDbLine
 10
-25.5
 20
24.5
 30
0.0
 11
25.5
 21
24.5
 31
0.0
  0
LINE
  5
360
330
A
100
AcDbEntity
  8
PV
  6
DASHED
 62
     7
100
AcDbLine
 10
-25.0
 20
9.5
 30
0.0
 11
-25.0
 21
9.199999999999999
 31
0.0
  0
LINE
  5
361
330
A
100
AcDbEntity
  8
PV
  6
DASHED
 62
     7
100
AcDbLine
 10
25.0
 20
9.5
 30
0.0
 11
25.0
 21
9.199999999999999
 31
0.0
  0
LINE
  5
362
330
A
100
AcDbEntity
  8
PV
  6
Continuous
 62
     7
100
AcDbLine
 10
-25.5
 20
9.5
 30
0.0
 11
25.5
 21
9.5
 31
0.0
  0
LINE
  5
363
330
A
100
AcDbEntity
  8
PV
  6
Continuous
 62
     7
100
AcDbLine
 10
6.0
 20
8.5
 30
0.0
 11
6.0
 21
-5.5
 31
0.0
  0
LINE
  5
364
330
A
100
AcDbEntity
  8
PV
  6
Continuous
 62
     7
100
AcDbLine
 10
-6.0
 20
8.5
 30
0.0
 11
-6.0
 21
-5.5
 31
0.0
  0
LINE
  5
365
330
A
100
AcDbEntity
  8
PV
  6
PHANTOM
 62
     7
100
AcDbLine
 10
29.077
 20
21.57999999999999
 30
0.0
 11
30.0
 21
-1.5
 31
0.0
  0
LINE
  5
366
330
A
100
AcDbEntity
  8
PV
  6
PHANTOM
 62
     7
100
AcDbLine
 10
-30.0
 20
-1.5
 30
0.0
 11
-29.077
 21
21.57999999999999
 31
0.0
  0
LINE
  5
367
330
A
100
AcDbEntity
  8
PV
  6
PHANTOM
 62
     7
100
AcDbLine
 10
-27.078
 20
23.5
 30
0.0
 11
27.078
 21
23.5
 31
0.0
  0
LINE
  5
368
330
A
100
AcDbEntity
  8
PV
  6
PHANTOM
 62
     7
100
AcDbLine
 10
-30.0
 20
-1.5
 30
0.0
 11
30.0
 21
-1.5
 31
0.0
  0
LINE
  5
369
330
A
100
AcDbEntity
  8
PV
  6
Continuous
 62
   254
100
AcDbLine
 10
-27.682
 20
122.06
 30
0.0
 11
-28.456
 21
122.507
 31
0.0
  0
LINE
  5
36A
330
A
100
AcDbEntity
  8
PV
  6
Continuous
 62
   254
100
AcDbLine
 10
-21.499
 20
131.77
 30
0.0
 11
-26.999
 21
122.2429999999999
 31
0.0
  0
LINE
  5
36B
330
A
100
AcDbEntity
  8
PV
  6
Continuous
 62
   254
100
AcDbLine
 10
-21.682
 20
132.4529999999999
 30
0.0
 11
-22.456
 21
132.899
 31
0.0
  0
LINE
  5
36C
330
A
100
AcDbEntity
  8
PV
  6
Continuous
 62
   254
100
AcDbLine
 10
-6.0
 20
141.5059999999999
 30
0.0
 11
-6.0
 21
142.4
 31
0.0
  0
LINE
  5
36D
330
A
100
AcDbEntity
  8
PV
  6
Continuous
 62
   254
100
AcDbLine
 10
5.5
 20
141.006
 30
0.0
 11
-5.5
 21
141.006
 31
0.0
  0
LINE
  5
36E
330
A
100
AcDbEntity
  8
PV
  6
Continuous
 62
   254
100
AcDbLine
 10
6.0
 20
141.5059999999999
 30
0.0
 11
6.0
 21
142.4
 31
0.0
  0
LINE
  5
36F
330
A
100
AcDbEntity
  8
PV
  6
Continuous
 62
   254
100
AcDbLine
 10
21.682
 20
132.4529999999999
 30
0.0
 11
22.456
 21
132.9
 31
0.0
  0
LINE
  5
370
330
A
100
AcDbEntity
  8
PV
  6
Continuous
 62
   254
100
AcDbLine
 10
26.999
 20
122.2429999999999
 30
0.0
 11
21.499
 21
131.77
 31
0.0
  0
LINE
  5
371
330
A
100
AcDbEntity
  8
PV
  6
Continuous
 62
   254
100
AcDbLine
 10
27.682
 20
122.06
 30
0.0
 11
28.456
 21
122.507
 31
0.0
  0
LINE
  5
372
330
A
100
AcDbEntity
  8
PV
  6
Continuous
 62
   254
100
AcDbLine
 10
27.682
 20
103.9529999999998
 30
0.0
 11
28.456
 21
103.506
 31
0.0
  0
LINE
  5
373
330
A
100
AcDbEntity
  8
PV
  6
Continuous
 62
   254
100
AcDbLine
 10
21.499
 20
94.243
 30
0.0
 11
26.999
 21
103.77
 31
0.0
  0
LINE
  5
374
330
A
100
AcDbEntity
  8
PV
  6
Continuous
 62
   254
100
AcDbLine
 10
21.682
 20
93.55999999999999
 30
0.0
 11
22.456
 21
93.11300000000001
 31
0.0
  0
LINE
  5
375
330
A
100
AcDbEntity
  8
PV
  6
Continuous
 62
   254
100
AcDbLine
 10
6.0
 20
84.50599999999999
 30
0.0
 11
6.0
 21
83.61299999999998
 31
0.0
  0
LINE
  5
376
330
A
100
AcDbEntity
  8
PV
  6
Continuous
 62
   254
100
AcDbLine
 10
-5.5
 20
85.006
 30
0.0
 11
5.5
 21
85.006
 31
0.0
  0
LINE
  5
377
330
A
100
AcDbEntity
  8
PV
  6
Continuous
 62
   254
100
AcDbLine
 10
-6.0
 20
84.50599999999999
 30
0.0
 11
-6.0
 21
83.61299999999998
 31
0.0
  0
LINE
  5
378
330
A
100
AcDbEntity
  8
PV
  6
Continuous
 62
   254
100
AcDbLine
 10
-21.682
 20
93.55999999999999
 30
0.0
 11
-22.456
 21
93.11300000000001
 31
0.0
  0
LINE
  5
379
330
A
100
AcDbEntity
  8
PV
  6
Continuous
 62
   254
100
AcDbLine
 10
-27.682
 20
103.9529999999998
 30
0.0
 11
-28.456
 21
103.506
 31
0.0
  0
LINE
  5
37A
330
A
100
AcDbEntity
  8
PV
  6
Continuous
 62
   254
100
AcDbLine
 10
-26.999
 20
103.77
 30
0.0
 11
-21.499
 21
94.243
 31
0.0
  0
LINE
  5
37C
330
A
100
AcDbEntity
  8
PV
  6
CENTER
 62
     7
100
AcDbLine
 10
-42.0
 20
144.006
 30
0.0
 11
-20.0
 21
144.006
 31
0.0
  0
LINE
  5
37D
330
A
100
AcDbEntity
  8
PV
  6
CENTER
 62
     7
100
AcDbLine
 10
-31.0
 20
133.006
 30
0.0
 11
-31.0
 21
155.006
 31
0.0
  0
LINE
  5
37E
330
A
100
AcDbEntity
  8
PV
  6
CENTER
 62
     7
100
AcDbLine
 10
42.0
 20
144.006
 30
0.0
 11
20.0
 21
144.006
 31
0.0
  0
LINE
  5
37F
330
A
100
AcDbEntity
  8
PV
  6
CENTER
 62
     7
100
AcDbLine
 10
31.0
 20
133.006
 30
0.0
 11
31.0
 21
155.006
 31
0.0
  0
LINE
  5
380
330
A
100
AcDbEntity
  8
PV
  6
CENTER
 62
     7
100
AcDbLine
 10
-42.0
 20
82.00599999999999
 30
0.0
 11
-20.0
 21
82.00599999999999
 31
0.0
  0
LINE
  5
381
330
A
100
AcDbEntity
  8
PV
  6
CENTER
 62
     7
100
AcDbLine
 10
-31.0
 20
93.00600000000001
 30
0.0
 11
-31.0
 21
71.006
 31
0.0
  0
LINE
  5
382
330
A
100
AcDbEntity
  8
PV
  6
CENTER
 62
     7
100
AcDbLine
 10
31.0
 20
93.00600000000001
 30
0.0
 11
31.0
 21
71.006
 31
0.0
  0
LINE
  5
383
330
A
100
AcDbEntity
  8
PV
  6
CENTER
 62
     7
100
AcDbLine
 10
42.0
 20
82.00599999999999
 30
0.0
 11
20.0
 21
82.00599999999999
 31
0.0
  0
LINE
  5
384
330
A
100
AcDbEntity
  8
PV
  6
Continuous
 62
     7
100
AcDbLine
 10
35.5
 20
-45.0
 30
0.0
 11
35.5
 21
-29.0
 31
0.0
  0
LINE
  5
385
330
A
100
AcDbEntity
  8
PV
  6
Continuous
 62
     7
100
AcDbLine
 10
35.5
 20
-45.15399999999998
 30
0.0
 11
35.5
 21
-56.5
 31
0.0
  0
LINE
  5
386
330
A
100
AcDbEntity
  8
PV
  6
Continuous
 62
     7
100
AcDbLine
 10
-35.5
 20
-45.056
 30
0.0
 11
-35.5
 21
-56.5
 31
0.0
  0
LINE
  5
387
330
A
100
AcDbEntity
  8
PV
  6
Continuous
 62
     7
100
AcDbLine
 10
26.388
 20
-150.2019999999999
 30
0.0
 11
21.35
 21
-148.852
 31
0.0
  0
LINE
  5
388
330
A
100
AcDbEntity
  8
PV
  6
Continuous
 62
     7
100
AcDbLine
 10
21.35
 20
-148.917
 30
0.0
 11
21.35
 21
-120.5
 31
0.0
  0
LINE
  5
389
330
A
100
AcDbEntity
  8
PV
  6
Continuous
 62
     7
100
AcDbLine
 10
27.5
 20
-153.5
 30
0.0
 11
27.5
 21
-151.651
 31
0.0
  0
LINE
  5
38A
330
A
100
AcDbEntity
  8
PV
  6
Continuous
 62
     7
100
AcDbLine
 10
-60.35199999999999
 20
-67.15
 30
0.0
 11
-60.35199999999999
 21
-109.85
 31
0.0
  0
LINE
  5
38B
330
A
100
AcDbEntity
  8
PV
  6
Continuous
 62
     7
100
AcDbLine
 10
-61.702
 20
-114.8879999999999
 30
0.0
 11
-60.35199999999999
 21
-109.85
 31
0.0
  0
LINE
  5
38C
330
A
100
AcDbEntity
  8
PV
  6
Continuous
 62
     7
100
AcDbLine
 10
-60.417
 20
-109.85
 30
0.0
 11
-38.0
 21
-109.85
 31
0.0
  0
LINE
  5
38D
330
A
100
AcDbEntity
  8
PV
  6
Continuous
 62
     7
100
AcDbLine
 10
-65.0
 20
-116.0
 30
0.0
 11
-63.15100000000001
 21
-116.0
 31
0.0
  0
LINE
  5
38E
330
A
100
AcDbEntity
  8
PV
  6
Continuous
 62
     7
100
AcDbLine
 10
-39.5
 20
-29.0
 30
0.0
 11
39.5
 21
-29.0
 31
0.0
  0
LINE
  5
38F
330
A
100
AcDbEntity
  8
PV
  6
Continuous
 62
     7
100
AcDbLine
 10
-40.49999999999999
 20
-45.0
 30
0.0
 11
40.49999999999999
 21
-45.0
 31
0.0
  0
LINE
  5
390
330
A
100
AcDbEntity
  8
PV
  6
Continuous
 62
     7
100
AcDbLine
 10
27.5
 20
-153.5
 30
0.0
 11
-27.5
 21
-153.5
 31
0.0
  0
LINE
  5
391
330
A
100
AcDbEntity
  8
PV
  6
Continuous
 62
     7
100
AcDbLine
 10
21.35
 20
-148.852
 30
0.0
 11
-21.35
 21
-148.852
 31
0.0
  0
LINE
  5
392
330
A
100
AcDbEntity
  8
PV
  6
Continuous
 62
     7
100
AcDbLine
 10
26.962
 20
-150.5
 30
0.0
 11
-26.962
 21
-150.5
 31
0.0
  0
LINE
  5
393
330
A
100
AcDbEntity
  8
PV
  6
Continuous
 62
     7
100
AcDbLine
 10
-26.388
 20
-150.2019999999999
 30
0.0
 11
-21.35
 21
-148.852
 31
0.0
  0
LINE
  5
394
330
A
100
AcDbEntity
  8
PV
  6
Continuous
 62
     7
100
AcDbLine
 10
-21.35
 20
-148.917
 30
0.0
 11
-21.35
 21
-120.5
 31
0.0
  0
LINE
  5
395
330
A
100
AcDbEntity
  8
PV
  6
Continuous
 62
     7
100
AcDbLine
 10
-27.5
 20
-153.5
 30
0.0
 11
-27.5
 21
-151.651
 31
0.0
  0
LINE
  5
396
330
A
100
AcDbEntity
  8
PV
  6
Continuous
 62
     7
100
AcDbLine
 10
-40.49999999999999
 20
-56.5
 30
0.0
 11
40.49999999999999
 21
-56.5
 31
0.0
  0
LINE
  5
397
330
A
100
AcDbEntity
  8
PV
  6
Continuous
 62
     7
100
AcDbLine
 10
-38.0
 20
-56.538
 30
0.0
 11
-38.0
 21
-67.15
 31
0.0
  0
LINE
  5
398
330
A
100
AcDbEntity
  8
PV
  6
CENTER
 62
     7
100
AcDbLine
 10
-71.79300000000002
 20
-88.49999999999999
 30
0.0
 11
-10.12199999999999
 21
-88.49999999999999
 31
0.0
  0
LINE
  5
399
330
A
100
AcDbEntity
  8
PV
  6
Continuous
 62
     7
100
AcDbLine
 10
31.0
 20
-120.5
 30
0.0
 11
-31.0
 21
-120.5
 31
0.0
  0
LINE
  5
39A
330
A
100
AcDbEntity
  8
PV
  6
Continuous
 62
     7
100
AcDbLine
 10
-65.0
 20
-116.0
 30
0.0
 11
-65.0
 21
-61.0
 31
0.0
  0
LINE
  5
39B
330
A
100
AcDbEntity
  8
PV
  6
Continuous
 62
     7
100
AcDbLine
 10
-62.0
 20
-115.4619999999999
 30
0.0
 11
-62.0
 21
-61.538
 31
0.0
  0
LINE
  5
39C
330
A
100
AcDbEntity
  8
PV
  6
Continuous
 62
     7
100
AcDbLine
 10
-61.702
 20
-62.11199999999998
 30
0.0
 11
-60.35199999999999
 21
-67.15
 31
0.0
  0
LINE
  5
39D
330
A
100
AcDbEntity
  8
PV
  6
Continuous
 62
     7
100
AcDbLine
 10
-60.417
 20
-67.15
 30
0.0
 11
-38.0
 21
-67.15
 31
0.0
  0
LINE
  5
39E
330
A
100
AcDbEntity
  8
PV
  6
Continuous
 62
     7
100
AcDbLine
 10
-65.0
 20
-61.0
 30
0.0
 11
-63.15100000000001
 21
-61.0
 31
0.0
  0
LINE
  5
39F
330
A
100
AcDbEntity
  8
PV
  6
CENTER
 62
     7
100
AcDbLine
 10
31.0
 20
-25.733
 30
0.0
 11
31.0
 21
-58.915
 31
0.0
  0
LINE
  5
3A0
330
A
100
AcDbEntity
  8
PV
  6
CENTER
 62
     7
100
AcDbLine
 10
-31.0
 20
-25.733
 30
0.0
 11
-31.0
 21
-59.112
 31
0.0
  0
LINE
  5
3A1
330
A
100
AcDbEntity
  8
PV
  6
CENTER
 62
     7
100
AcDbLine
 10
0.0
 20
155.852
 30
0.0
 11
0.0
 21
69.406
 31
0.0
  0
LINE
  5
3A2
330
A
100
AcDbEntity
  8
PV
  6
CENTER
 62
     7
100
AcDbLine
 10
45.282
 20
113.006
 30
0.0
 11
-71.57300000000002
 21
113.006
 31
0.0
  0
LINE
  5
3A3
330
A
100
AcDbEntity
  8
PV
  6
Continuous
 62
     7
100
AcDbLine
 10
-62.0
 20
86.04499999999999
 30
0.0
 11
-62.0
 21
139.9679999999999
 31
0.0
  0
LINE
  5
3A4
330
A
100
AcDbEntity
  8
PV
  6
Continuous
 62
     7
100
AcDbLine
 10
-61.702
 20
139.395
 30
0.0
 11
-60.35199999999999
 21
134.3559999999999
 31
0.0
  0
LINE
  5
3A5
330
A
100
AcDbEntity
  8
PV
  6
Continuous
 62
     7
100
AcDbLine
 10
-60.417
 20
134.5059999999999
 30
0.0
 11
-40.608
 21
134.5059999999999
 31
0.0
  0
LINE
  5
3A6
330
A
100
AcDbEntity
  8
PV
  6
Continuous
 62
     7
100
AcDbLine
 10
-65.0
 20
140.5059999999999
 30
0.0
 11
-63.15100000000001
 21
140.5059999999999
 31
0.0
  0
LINE
  5
3A7
330
A
100
AcDbEntity
  8
PV
  6
Continuous
 62
     7
100
AcDbLine
 10
-65.0
 20
85.50600000000001
 30
0.0
 11
-65.0
 21
140.5059999999999
 31
0.0
  0
LINE
  5
3A8
330
A
100
AcDbEntity
  8
PV
  6
CENTER
 62
     7
100
AcDbLine
 10
0.0
 20
28.70599999999999
 30
0.0
 11
0.0
 21
-159.649
 31
0.0
  0
ENDSEC
  0
SECTION
  2
OBJECTS
  0
DICTIONARY
  5
19
330
0
100
AcDbDictionary
281
     1
  3
ACAD_GROUP
350
1A
  3
ACAD_LAYOUT
350
1E
  3
ACAD_MLINESTYLE
350
1B
  3
ACAD_PLOTSETTINGS
350
22
  3
ACAD_PLOTSTYLENAME
350
1F
  0
DICTIONARY
  5
1A
102
{ACAD_REACTORS
330
19
102
}
330
19
100
AcDbDictionary
281
     1
  0
DICTIONARY
  5
1E
102
{ACAD_REACTORS
330
19
102
}
330
19
100
AcDbDictionary
281
     1
  3
Layout1
350
21
  3
Model
350
20
  0
DICTIONARY
  5
1B
102
{ACAD_REACTORS
330
19
102
}
330
19
100
AcDbDictionary
281
     1
  3
Standard
350
1C
  0
DICTIONARY
  5
22
102
{ACAD_REACTORS
330
19
102
}
330
19
100
AcDbDictionary
281
     1
  0
ACDBDICTIONARYWDFLT
  5
1F
102
{ACAD_REACTORS
330
19
102
}
330
19
100
AcDbDictionary
281
     1
  3
Normal
350
1D
100
AcDbDictionaryWithDefault
340
1D
  0
LAYOUT
  5
21
102
{ACAD_REACTORS
330
1E
102
}
330
1E
100
AcDbPlotSettings
  1

  2

  4

  6

 40
0.0
 41
0.0
 42
0.0
 43
0.0
 44
0.0
 45
0.0
 46
0.0
 47
0.0
 48
0.0
 49
0.0
140
0.0
141
0.0
142
1.0
143
1.0
 70
     0
 72
     0
 73
     0
 74
     0
  7

 75
     0
147
1.0
148
0.0
149
0.0
100
AcDbLayout
  1
Layout1
 70
     0
 71
     1
 10
0.0
 20
0.0
 11
12.0
 21
9.0
 12
0.0
 22
0.0
 32
0.0
 14
1.000000000000000E+20
 24
1.000000000000000E+20
 34
1.000000000000000E+20
 15
-1.000000000000000E+20
 25
-1.000000000000000E+20
 35
-1.000000000000000E+20
146
0.0
 13
0.0
 23
0.0
 33
0.0
 16
1.0
 26
0.0
 36
0.0
 17
0.0
 27
1.0
 37
0.0
 76
     0
330
B
  0
LAYOUT
  5
20
102
{ACAD_REACTORS
330
1E
102
}
330
1E
100
AcDbPlotSettings
  1

  2
Adobe PDF
  4
A4
  6

 40
3.174999952316283
 41
3.174999952316283
 42
3.175003051757812
 43
3.17498779296875
 44
209.9098358154297
 45
297.0318298339843
 46
32.59
 47
0.0
 48
0.0
 49
0.0
140
0.0
141
0.0
142
1.0
143
1.229287888890435
 70
 11284
 72
     1
 73
     0
 74
     2
  7

 75
     0
147
0.8134790955295326
148
97.43066800000001
149
183.9
100
AcDbLayout
  1
Model
 70
     0
 71
     0
 10
0.0
 20
0.0
 11
0.0
 21
0.0
 12
0.0
 22
0.0
 32
0.0
 14
0.0
 24
0.0
 34
0.0
 15
0.0
 25
0.0
 35
0.0
146
0.0
 13
0.0
 23
0.0
 33
0.0
 16
0.0
 26
0.0
 36
0.0
 17
0.0
 27
0.0
 37
0.0
 76
     0
330
A
  0
MLINESTYLE
  5
1C
102
{ACAD_REACTORS
330
1B
102
}
330
1B
100
AcDbMlineStyle
  2
STANDARD
 70
     0
  3

 62
     0
 51
90.0
 52
90.0
 71
     2
 49
0.5
 62
   256
  6
BYLAYER
 49
-0.5
 62
   256
  6
BYLAYER
  0
ACDBPLACEHOLDER
  5
1D
102
{ACAD_REACTORS
330
1F
102
}
330
1F
  0
ENDSEC
  0
EOF
