  0
SECTION
  2
HEADER
  9
$ACADVER
  1
AC1015
  9
$ACADMAINTVER
 70
    10
  9
$DWGCODEPAGE
  3
ANSI_932
  9
$INSBASE
 10
0.0
 20
0.0
 30
0.0
  9
$EXTMIN
 10
-173.335868047235
 20
-180.5838340631463
 30
-0.0015258207003583
  9
$EXTMAX
 10
165.1878489149994
 20
172.3085257597954
 30
0.0000000349246037
  9
$LIMMIN
 10
-175.4826679999999
 20
-180.5729999999999
  9
$LIMMAX
 10
165.177452
 20
174.4646679999999
  9
$ORTHOMODE
 70
     0
  9
$REGENMODE
 70
     1
  9
$FILLMODE
 70
     1
  9
$QTEXTMODE
 70
     0
  9
$MIRRTEXT
 70
     1
  9
$LTSCALE
 40
0.2
  9
$ATTMODE
 70
     1
  9
$TEXTSIZE
 40
3.2
  9
$TRACEWID
 40
0.05
  9
$TEXTSTYLE
  7
MX_NOTE_STANDARD
  9
$CLAYER
  8
0
  9
$CELTYPE
  6
CONTINUOUS
  9
$CECOLOR
 62
   256
  9
$CELTSCALE
 40
1.0
  9
$DISPSILH
 70
     0
  9
$DIMSCALE
 40
1.0
  9
$DIMASZ
 40
2.5
  9
$DIMEXO
 40
2.54
  9
$DIMDLI
 40
3.75
  9
$DIMRND
 40
0.0
  9
$DIMDLE
 40
0.0
  9
$DIMEXE
 40
2.286
  9
$DIMTP
 40
0.0
  9
$DIMTM
 40
0.0
  9
$DIMTXT
 40
3.2
  9
$DIMCEN
 40
2.5
  9
$DIMTSZ
 40
0.0
  9
$DIMTOL
 70
     0
  9
$DIMLIM
 70
     0
  9
$DIMTIH
 70
     0
  9
$DIMTOH
 70
     0
  9
$DIMSE1
 70
     0
  9
$DIMSE2
 70
     0
  9
$DIMTAD
 70
     1
  9
$DIMZIN
 70
     8
  9
$DIMBLK
  1

  9
$DIMASO
 70
     1
  9
$DIMSHO
 70
     1
  9
$DIMPOST
  1

  9
$DIMAPOST
  1

  9
$DIMALT
 70
     0
  9
$DIMALTD
 70
     4
  9
$DIMALTF
 40
0.03937
  9
$DIMLFAC
 40
1.0
  9
$DIMTOFL
 70
     1
  9
$DIMTVP
 40
0.0
  9
$DIMTIX
 70
     0
  9
$DIMSOXD
 70
     0
  9
$DIMSAH
 70
     1
  9
$DIMBLK1
  1
OPEN30
  9
$DIMBLK2
  1
OPEN30
  9
$DIMSTYLE
  2
MXDIMSTYLE
  9
$DIMCLRD
 70
     0
  9
$DIMCLRE
 70
     0
  9
$DIMCLRT
 70
     0
  9
$DIMTFAC
 40
1.0
  9
$DIMGAP
 40
1.0
  9
$DIMJUST
 70
     0
  9
$DIMSD1
 70
     0
  9
$DIMSD2
 70
     0
  9
$DIMTOLJ
 70
     0
  9
$DIMTZIN
 70
     0
  9
$DIMALTZ
 70
     0
  9
$DIMALTTZ
 70
     0
  9
$DIMUPT
 70
     1
  9
$DIMDEC
 70
     2
  9
$DIMTDEC
 70
     2
  9
$DIMALTU
 70
     2
  9
$DIMALTTD
 70
     4
  9
$DIMTXSTY
  7
MX_NOTE_STANDARD
  9
$DIMAUNIT
 70
     0
  9
$DIMADEC
 70
     0
  9
$DIMALTRND
 40
0.0
  9
$DIMAZIN
 70
     0
  9
$DIMDSEP
 70
    46
  9
$DIMATFIT
 70
     3
  9
$DIMFRAC
 70
     0
  9
$DIMLDRBLK
  1
OPEN30
  9
$DIMLUNIT
 70
     2
  9
$DIMLWD
 70
    -2
  9
$DIMLWE
 70
    -2
  9
$DIMTMOVE
 70
     0
  9
$LUNITS
 70
     2
  9
$LUPREC
 70
     4
  9
$SKETCHINC
 40
0.1
  9
$FILLETRAD
 40
0.0
  9
$AUNITS
 70
     0
  9
$AUPREC
 70
     0
  9
$MENU
  1
acad
  9
$ELEVATION
 40
0.0
  9
$PELEVATION
 40
0.0
  9
$THICKNESS
 40
0.0
  9
$LIMCHECK
 70
     0
  9
$CHAMFERA
 40
0.0
  9
$CHAMFERB
 40
0.0
  9
$CHAMFERC
 40
0.0
  9
$CHAMFERD
 40
0.0
  9
$SKPOLY
 70
     0
  9
$TDCREATE
 40
2455288.597268634
  9
$TDUCREATE
 40
2455288.222268634
  9
$TDUPDATE
 40
2455288.621665660
  9
$TDUUPDATE
 40
2455288.246665659
  9
$TDINDWG
 40
0.0046369560
  9
$TDUSRTIMER
 40
0.0046367824
  9
$USRTIMER
 70
     1
  9
$ANGBASE
 50
0.0
  9
$ANGDIR
 70
     0
  9
$PDMODE
 70
     0
  9
$PDSIZE
 40
0.0
  9
$PLINEWID
 40
0.0
  9
$SPLFRAME
 70
     0
  9
$SPLINETYPE
 70
     6
  9
$SPLINESEGS
 70
     8
  9
$HANDSEED
  5
311
  9
$SURFTAB1
 70
     6
  9
$SURFTAB2
 70
     6
  9
$SURFTYPE
 70
     6
  9
$SURFU
 70
     6
  9
$SURFV
 70
     6
  9
$UCSBASE
  2

  9
$UCSNAME
  2

  9
$UCSORG
 10
0.0
 20
0.0
 30
0.0
  9
$UCSXDIR
 10
1.0
 20
0.0
 30
0.0
  9
$UCSYDIR
 10
0.0
 20
1.0
 30
0.0
  9
$UCSORTHOREF
  2

  9
$UCSORTHOVIEW
 70
     0
  9
$UCSORGTOP
 10
0.0
 20
0.0
 30
0.0
  9
$UCSORGBOTTOM
 10
0.0
 20
0.0
 30
0.0
  9
$UCSORGLEFT
 10
0.0
 20
0.0
 30
0.0
  9
$UCSORGRIGHT
 10
0.0
 20
0.0
 30
0.0
  9
$UCSORGFRONT
 10
0.0
 20
0.0
 30
0.0
  9
$UCSORGBACK
 10
0.0
 20
0.0
 30
0.0
  9
$PUCSBASE
  2

  9
$PUCSNAME
  2

  9
$PUCSORG
 10
0.0
 20
0.0
 30
0.0
  9
$PUCSXDIR
 10
1.0
 20
0.0
 30
0.0
  9
$PUCSYDIR
 10
0.0
 20
1.0
 30
0.0
  9
$PUCSORTHOREF
  2

  9
$PUCSORTHOVIEW
 70
     0
  9
$PUCSORGTOP
 10
0.0
 20
0.0
 30
0.0
  9
$PUCSORGBOTTOM
 10
0.0
 20
0.0
 30
0.0
  9
$PUCSORGLEFT
 10
0.0
 20
0.0
 30
0.0
  9
$PUCSORGRIGHT
 10
0.0
 20
0.0
 30
0.0
  9
$PUCSORGFRONT
 10
0.0
 20
0.0
 30
0.0
  9
$PUCSORGBACK
 10
0.0
 20
0.0
 30
0.0
  9
$USERI1
 70
     0
  9
$USERI2
 70
     0
  9
$USERI3
 70
     0
  9
$USERI4
 70
     0
  9
$USERI5
 70
     0
  9
$USERR1
 40
0.0
  9
$USERR2
 40
0.0
  9
$USERR3
 40
0.0
  9
$USERR4
 40
0.0
  9
$USERR5
 40
0.0
  9
$WORLDVIEW
 70
     1
  9
$SHADEDGE
 70
     3
  9
$SHADEDIF
 70
    70
  9
$TILEMODE
 70
     1
  9
$MAXACTVP
 70
    16
  9
$PINSBASE
 10
0.0
 20
0.0
 30
0.0
  9
$PLIMCHECK
 70
     0
  9
$PEXTMIN
 10
1.000000000000000E+20
 20
1.000000000000000E+20
 30
1.000000000000000E+20
  9
$PEXTMAX
 10
-1.000000000000000E+20
 20
-1.000000000000000E+20
 30
-1.000000000000000E+20
  9
$PLIMMIN
 10
0.0
 20
0.0
  9
$PLIMMAX
 10
12.0
 20
9.0
  9
$UNITMODE
 70
     0
  9
$VISRETAIN
 70
     0
  9
$PLINEGEN
 70
     1
  9
$PSLTSCALE
 70
     0
  9
$TREEDEPTH
 70
  3020
  9
$CMLSTYLE
  2
Standard
  9
$CMLJUST
 70
     0
  9
$CMLSCALE
 40
1.0
  9
$PROXYGRAPHICS
 70
     0
  9
$MEASUREMENT
 70
     1
  9
$CELWEIGHT
370
     0
  9
$ENDCAPS
280
     0
  9
$JOINSTYLE
280
     0
  9
$LWDISPLAY
290
     0
  9
$INSUNITS
 70
     0
  9
$HYPERLINKBASE
  1

  9
$STYLESHEET
  1

  9
$XEDIT
290
     1
  9
$CEPSNTYPE
380
     0
  9
$PSTYLEMODE
290
     1
  9
$FINGERPRINTGUID
  2

  9
$VERSIONGUID
  2
{35F73299-E425-4273-9312-7DDE4F4D5515}
  9
$EXTNAMES
290
     1
  9
$PSVPSCALE
 40
0.0
  9
$OLESTARTUP
290
     0
  0
ENDSEC
  0
SECTION
  2
CLASSES
  0
CLASS
  1
LWPOLYLINE
  2
AcDbPolyline
  3
AutoCAD 2000
 90
    32768
280
     0
281
     1
  0
CLASS
  1
IMAGE
  2
AcDbRasterImage
  3
ISM
 90
    32895
280
     0
281
     1
  0
CLASS
  1
OLE2FRAME
  2
AcDbOle2Frame
  3
AutoCAD 2000
 90
    32768
280
     0
281
     1
  0
CLASS
  1
HATCH
  2
AcDbHatch
  3
AutoCAD 2000
 90
    32768
280
     0
281
     1
  0
CLASS
  1
DICTIONARYVAR
  2
AcDbDictionaryVar
  3
AutoCAD 2000
 90
    32768
280
     0
281
     0
  0
CLASS
  1
RASTERVARIABLES
  2
AcDbRasterVariables
  3
ISM
 90
    32768
280
     0
281
     0
  0
CLASS
  1
IMAGEDEF
  2
AcDbRasterImageDef
  3
ISM
 90
    32768
280
     0
281
     0
  0
CLASS
  1
IMAGEDEF_REACTOR
  2
AcDbRasterImageDefReactor
  3
ISM
 90
    32769
280
     0
281
     0
  0
CLASS
  1
IDBUFFER
  2
AcDbIdBuffer
  3
AutoCAD 2000
 90
    32768
280
     0
281
     0
  0
CLASS
  1
SPATIAL_FILTER
  2
AcDbSpatialFilter
  3
AutoCAD 2000
 90
    32768
280
     0
281
     0
  0
CLASS
  1
XRECORD
  2
AcDbXrecord
  3
AutoCAD 2000
 90
    32768
280
     0
281
     0
  0
CLASS
  1
SORTENTSTABLE
  2
AcDbSortentsTable
  3
AutoCAD 2000
 90
    32768
280
     0
281
     0
  0
CLASS
  1
LAYER_INDEX
  2
AcDbLayerIndex
  3
AutoCAD 2000
 90
    32768
280
     0
281
     0
  0
CLASS
  1
SPATIAL_INDEX
  2
AcDbSpatialIndex
  3
AutoCAD 2000
 90
    32768
280
     0
281
     0
  0
CLASS
  1
OBJECT_PTR
  2
CAseDLPNTableRecord
  3
"ASE-LPNTableRecord"
 90
    32769
280
     0
281
     0
  0
CLASS
  1
LAYOUT
  2
AcDbLayout
  3
AutoCAD 2000
 90
        0
280
     0
281
     0
  0
CLASS
  1
PLOTSETTINGS
  2
AcDbPlotSettings
  3
AutoCAD 2000
 90
    32768
280
     0
281
     0
  0
CLASS
  1
ACDBDICTIONARYWDFLT
  2
AcDbDictionaryWithDefault
  3
AutoCAD 2000
 90
        0
280
     0
281
     0
  0
CLASS
  1
ACDBPLACEHOLDER
  2
AcDbPlaceHolder
  3
AutoCAD 2000
 90
        0
280
     0
281
     0
  0
ENDSEC
  0
SECTION
  2
TABLES
  0
TABLE
  2
VPORT
  5
7
330
0
100
AcDbSymbolTable
 70
     2
  0
VPORT
  5
310
330
7
100
AcDbSymbolTableRecord
100
AcDbViewportTableRecord
  2
*Active
 70
     0
 10
0.0
 20
0.0
 11
1.0
 21
1.0
 12
64.24683042254191
 22
19.86806601803286
 13
0.0
 23
0.0
 14
1.0
 24
1.0
 15
0.0
 25
0.0
 16
0.0
 26
0.0
 36
1.0
 17
0.0
 27
0.0
 37
0.0
 40
404.5290685745189
 41
1.535714285714285
 42
50.0
 43
0.0
 44
0.0
 50
0.0
 51
0.0
 71
     0
 72
   100
 73
     1
 74
     1
 75
     0
 76
     0
 77
     0
 78
     0
281
     0
 65
     0
110
0.0
120
0.0
130
0.0
111
1.0
121
0.0
131
0.0
112
0.0
122
1.0
132
0.0
 79
     0
146
0.0
  0
ENDTAB
  0
TABLE
  2
LTYPE
  5
4
330
0
100
AcDbSymbolTable
 70
     2
  0
LTYPE
  5
11
330
4
100
AcDbSymbolTableRecord
100
AcDbLinetypeTableRecord
  2
BYBLOCK
 70
     0
  3

 72
    65
 73
     0
 40
0.0
  0
LTYPE
  5
12
330
4
100
AcDbSymbolTableRecord
100
AcDbLinetypeTableRecord
  2
BYLAYER
 70
     0
  3

 72
    65
 73
     0
 40
0.0
  0
LTYPE
  5
13
330
4
100
AcDbSymbolTableRecord
100
AcDbLinetypeTableRecord
  2
CONTINUOUS
 70
     0
  3
Solid line
 72
    65
 73
     0
 40
0.0
  0
LTYPE
  5
34
330
4
100
AcDbSymbolTableRecord
100
AcDbLinetypeTableRecord
  2
CENTER
 70
     0
  3
Center ____ _ ____ _ ____ _ ____ _ ____ _ ____
 72
    65
 73
     4
 40
50.8
 49
31.75
 74
     0
 49
-6.349999999999998
 74
     0
 49
6.349999999999998
 74
     0
 49
-6.349999999999998
 74
     0
  0
ENDTAB
  0
TABLE
  2
LAYER
  5
2
330
0
100
AcDbSymbolTable
 70
     4
  0
LAYER
  5
14
330
2
100
AcDbSymbolTableRecord
100
AcDbLayerTableRecord
  2
0
 70
     0
 62
     7
  6
CONTINUOUS
370
    -3
390
1D
  0
LAYER
  5
23
330
2
100
AcDbSymbolTableRecord
100
AcDbLayerTableRecord
  2
DEFPOINTS
 70
     0
 62
     7
  6
CONTINUOUS
290
     0
370
    -3
390
1D
  0
LAYER
  5
24
330
2
100
AcDbSymbolTableRecord
100
AcDbLayerTableRecord
  2
PV
 70
     0
 62
     7
  6
CONTINUOUS
370
    -3
390
1D
  0
LAYER
  5
25
330
2
100
AcDbSymbolTableRecord
100
AcDbLayerTableRecord
  2
WV
 70
     0
 62
     7
  6
CONTINUOUS
370
    -3
390
1D
  0
ENDTAB
  0
TABLE
  2
STYLE
  5
3
330
0
100
AcDbSymbolTable
 70
     2
  0
STYLE
  5
17
330
3
100
AcDbSymbolTableRecord
100
AcDbTextStyleTableRecord
  2
MX_NOTE_STANDARD
 70
     0
 40
0.0
 41
1.0
 50
0.0
 71
     0
 42
3.2
  3
txt.shx
  4
extfont.shx
  0
STYLE
  5
306
330
3
100
AcDbSymbolTableRecord
100
AcDbTextStyleTableRecord
  2
Standard
 70
     0
 40
0.0
 41
1.0
 50
0.0
 71
     0
 42
0.2
  3

  4

  0
ENDTAB
  0
TABLE
  2
VIEW
  5
5
330
0
100
AcDbSymbolTable
 70
     0
  0
ENDTAB
  0
TABLE
  2
UCS
  5
6
330
0
100
AcDbSymbolTable
 70
     0
  0
ENDTAB
  0
TABLE
  2
APPID
  5
8
330
0
100
AcDbSymbolTable
 70
     1
  0
APPID
  5
16
330
8
100
AcDbSymbolTableRecord
100
AcDbRegAppTableRecord
  2
ACAD
 70
     0
  0
ENDTAB
  0
TABLE
  2
DIMSTYLE
  5
9
330
0
100
AcDbSymbolTable
 70
     1
100
AcDbDimStyleTable
 71
     0
  0
DIMSTYLE
105
18
330
9
100
AcDbSymbolTableRecord
100
AcDbDimStyleTableRecord
  2
MXDIMSTYLE
 70
     0
 41
2.5
 42
2.54
 43
3.75
 44
2.286
 73
     0
 74
     0
 77
     1
 78
     8
140
3.2
141
2.5
143
0.03937
147
1.0
171
     4
172
     1
173
     1
271
     2
272
     2
274
     4
283
     0
288
     1
340
17
341
26
343
26
344
26
  0
ENDTAB
  0
TABLE
  2
BLOCK_RECORD
  5
1
330
0
100
AcDbSymbolTable
 70
     1
  0
BLOCK_RECORD
  5
A
330
1
100
AcDbSymbolTableRecord
100
AcDbBlockTableRecord
  2
*MODEL_SPACE
340
20
  0
BLOCK_RECORD
  5
B
330
1
100
AcDbSymbolTableRecord
100
AcDbBlockTableRecord
  2
*PAPER_SPACE
340
21
  0
BLOCK_RECORD
  5
26
330
1
100
AcDbSymbolTableRecord
100
AcDbBlockTableRecord
  2
_OPEN30
340
0
  0
ENDTAB
  0
ENDSEC
  0
SECTION
  2
BLOCKS
  0
BLOCK
  5
D
330
A
100
AcDbEntity
  8
0
100
AcDbBlockBegin
  2
*MODEL_SPACE
 70
     0
 10
0.0
 20
0.0
 30
0.0
  3
*MODEL_SPACE
  1

  0
ENDBLK
  5
E
330
A
100
AcDbEntity
  8
0
100
AcDbBlockEnd
  0
BLOCK
  5
F
330
B
100
AcDbEntity
 67
     1
  8
0
100
AcDbBlockBegin
  2
*PAPER_SPACE
 70
     0
 10
0.0
 20
0.0
 30
0.0
  3
*PAPER_SPACE
  1

  0
ENDBLK
  5
10
330
B
100
AcDbEntity
 67
     1
  8
0
100
AcDbBlockEnd
  0
BLOCK
  5
27
330
26
100
AcDbEntity
  8
0
  6
ByBlock
 62
     0
370
    -2
100
AcDbBlockBegin
  2
_OPEN30
 70
     2
 10
0.0
 20
0.0
 30
0.0
  3
_OPEN30
  1

  0
LINE
  5
28
330
26
100
AcDbEntity
  8
0
  6
ByBlock
 62
     0
370
    -2
100
AcDbLine
 10
-1.0
 20
0.267949
 30
0.0
 11
0.0
 21
0.0
 31
0.0
  0
LINE
  5
29
330
26
100
AcDbEntity
  8
0
  6
ByBlock
 62
     0
370
    -2
100
AcDbLine
 10
0.0
 20
0.0
 30
0.0
 11
-1.0
 21
-0.267949
 31
0.0
  0
LINE
  5
2A
330
26
100
AcDbEntity
  8
0
  6
ByBlock
 62
     0
370
    -2
100
AcDbLine
 10
0.0
 20
0.0
 30
0.0
 11
-1.0
 21
0.0
 31
0.0
  0
ENDBLK
  5
2B
330
26
100
AcDbEntity
  8
0
  6
ByBlock
 62
     0
370
    -2
100
AcDbBlockEnd
  0
ENDSEC
  0
SECTION
  2
ENTITIES
  0
LEADER
  5
2C
330
A
100
AcDbEntity
  8
0
  6
Continuous
 62
     7
100
AcDbLeader
  3
MXDIMSTYLE
 74
     0
 76
     2
 10
80.929
 20
-4.5
 30
0.0
 10
123.539037
 20
39.85807899999999
 30
0.0
1001
ACAD
1000
DSTYLE
1002
{
1070
    41
1040
2.77
1002
}
  0
MTEXT
  5
2D
330
A
100
AcDbEntity
  8
0
  6
Continuous
 62
     7
100
AcDbMText
 10
126.177452
 20
45.73307899999998
 30
0.0
 40
6.5
 41
0.0
 71
     4
 72
     1
  1
\W1.139;\A1;Rc 1/8
 73
     1
 44
0.9
  0
LEADER
  5
2E
330
A
100
AcDbEntity
  8
0
  6
Continuous
 62
     7
100
AcDbLeader
  3
MXDIMSTYLE
 74
     0
 76
     3
 10
80.929
 20
-37.5
 30
0.0
 10
123.539037
 20
39.85807899999999
 30
0.0
 10
165.177452
 20
39.85807899999999
 30
0.0
1001
ACAD
1000
DSTYLE
1002
{
1070
    41
1040
2.77
1002
}
  0
LINE
  5
2F
330
A
100
AcDbEntity
  8
PV
  6
Continuous
 62
     7
100
AcDbLine
 10
-145.0
 20
135.5059999999999
 30
0.0
 11
-143.151
 21
135.5059999999999
 31
0.0
  0
LINE
  5
30
330
A
100
AcDbEntity
  8
PV
  6
Continuous
 62
     7
100
AcDbLine
 10
-140.417
 20
129.506
 30
0.0
 11
-120.5
 21
129.506
 31
0.0
  0
LINE
  5
31
330
A
100
AcDbEntity
  8
PV
  6
Continuous
 62
     7
100
AcDbLine
 10
-141.7019999999999
 20
134.395
 30
0.0
 11
-140.352
 21
129.356
 31
0.0
  0
LINE
  5
32
330
A
100
AcDbEntity
  8
PV
  6
Continuous
 62
     7
100
AcDbLine
 10
-142.0
 20
81.04499999999999
 30
0.0
 11
-142.0
 21
134.9679999999999
 31
0.0
  0
LINE
  5
33
330
A
100
AcDbEntity
  8
PV
  6
Continuous
 62
     7
100
AcDbLine
 10
-145.0
 20
80.50600000000001
 30
0.0
 11
-145.0
 21
135.5059999999999
 31
0.0
  0
LINE
  5
35
330
A
100
AcDbEntity
  8
PV
  6
CENTER
 62
     7
100
AcDbLine
 10
-29.508
 20
108.006
 30
0.0
 11
-156.339
 21
108.006
 31
0.0
  0
LINE
  5
36
330
A
100
AcDbEntity
  8
PV
  6
CENTER
 62
     7
100
AcDbLine
 10
-80.0
 20
150.852
 30
0.0
 11
-80.0
 21
63.076
 31
0.0
  0
LINE
  5
37
330
A
100
AcDbEntity
  8
PV
  6
Continuous
 62
     7
100
AcDbLine
 10
-36.0
 20
123.506
 30
0.0
 11
-36.0
 21
92.506
 31
0.0
  0
LINE
  5
38
330
A
100
AcDbEntity
  8
PV
  6
Continuous
 62
     7
100
AcDbLine
 10
-65.8
 20
-46.38499999999999
 30
0.0
 11
-65.8
 21
13.025
 31
0.0
  0
LINE
  5
39
330
A
100
AcDbEntity
  8
PV
  6
Continuous
 62
     7
100
AcDbLine
 10
-67.9
 20
68.506
 30
0.0
 11
-68.79999999999999
 21
68.506
 31
0.0
  0
LINE
  5
3A
330
A
100
AcDbEntity
  8
PV
  6
Continuous
 62
     7
100
AcDbLine
 10
-67.9
 20
68.506
 30
0.0
 11
-67.9
 21
72.20600000000001
 31
0.0
  0
LINE
  5
3B
330
A
100
AcDbEntity
  8
PV
  6
Continuous
 62
     7
100
AcDbLine
 10
-67.9
 20
72.20600000000001
 30
0.0
 11
-74.1
 21
72.20600000000001
 31
0.0
  0
LINE
  5
3C
330
A
100
AcDbEntity
  8
PV
  6
Continuous
 62
     7
100
AcDbLine
 10
-74.1
 20
68.506
 30
0.0
 11
-74.1
 21
72.20600000000001
 31
0.0
  0
LINE
  5
3D
330
A
100
AcDbEntity
  8
PV
  6
Continuous
 62
     7
100
AcDbLine
 10
-70.2
 20
-46.38499999999999
 30
0.0
 11
-70.2
 21
13.025
 31
0.0
  0
LINE
  5
3E
330
A
100
AcDbEntity
  8
PV
  6
Continuous
 62
     7
100
AcDbLine
 10
-73.2
 20
68.506
 30
0.0
 11
-74.1
 21
68.506
 31
0.0
  0
LINE
  5
3F
330
A
100
AcDbEntity
  8
PV
  6
Continuous
 62
     7
100
AcDbLine
 10
-89.8
 20
-46.20399999999999
 30
0.0
 11
-89.8
 21
13.0
 31
0.0
  0
LINE
  5
40
330
A
100
AcDbEntity
  8
PV
  6
Continuous
 62
     7
100
AcDbLine
 10
-85.90000000000001
 20
68.506
 30
0.0
 11
-86.79999999999997
 21
68.506
 31
0.0
  0
LINE
  5
41
330
A
100
AcDbEntity
  8
PV
  6
Continuous
 62
     7
100
AcDbLine
 10
-85.90000000000001
 20
68.506
 30
0.0
 11
-85.90000000000001
 21
72.20600000000001
 31
0.0
  0
LINE
  5
42
330
A
100
AcDbEntity
  8
PV
  6
Continuous
 62
     7
100
AcDbLine
 10
-85.90000000000001
 20
72.20600000000001
 30
0.0
 11
-92.09999999999999
 21
72.20600000000001
 31
0.0
  0
LINE
  5
43
330
A
100
AcDbEntity
  8
PV
  6
Continuous
 62
     7
100
AcDbLine
 10
-92.09999999999999
 20
68.506
 30
0.0
 11
-92.09999999999999
 21
72.20600000000001
 31
0.0
  0
LINE
  5
44
330
A
100
AcDbEntity
  8
PV
  6
Continuous
 62
     7
100
AcDbLine
 10
-94.19999999999999
 20
-46.20399999999999
 30
0.0
 11
-94.19999999999999
 21
13.0
 31
0.0
  0
LINE
  5
45
330
A
100
AcDbEntity
  8
PV
  6
Continuous
 62
     7
100
AcDbLine
 10
-91.2
 20
68.506
 30
0.0
 11
-92.09999999999999
 21
68.506
 31
0.0
  0
LINE
  5
46
330
A
100
AcDbEntity
  8
PV
  6
Continuous
 62
     7
100
AcDbLine
 10
-38.0
 20
90.50600000000001
 30
0.0
 11
-39.5
 21
90.50600000000001
 31
0.0
  0
LINE
  5
47
330
A
100
AcDbEntity
  8
PV
  6
Continuous
 62
     7
100
AcDbLine
 10
-38.0
 20
125.506
 30
0.0
 11
-39.5
 21
125.506
 31
0.0
  0
LINE
  5
48
330
A
100
AcDbEntity
  8
PV
  6
Continuous
 62
     7
100
AcDbLine
 10
-73.2
 20
67.506
 30
0.0
 11
-73.2
 21
68.506
 31
0.0
  0
LINE
  5
49
330
A
100
AcDbEntity
  8
PV
  6
Continuous
 62
     7
100
AcDbLine
 10
-68.79999999999999
 20
67.506
 30
0.0
 11
-68.79999999999999
 21
68.506
 31
0.0
  0
LINE
  5
4A
330
A
100
AcDbEntity
  8
PV
  6
Continuous
 62
     7
100
AcDbLine
 10
-86.79999999999997
 20
67.506
 30
0.0
 11
-86.79999999999997
 21
68.506
 31
0.0
  0
LINE
  5
4B
330
A
100
AcDbEntity
  8
PV
  6
Continuous
 62
     7
100
AcDbLine
 10
-91.2
 20
67.506
 30
0.0
 11
-91.2
 21
68.506
 31
0.0
  0
LINE
  5
4C
330
A
100
AcDbEntity
  8
PV
  6
Continuous
 62
     7
100
AcDbLine
 10
-145.0
 20
80.50600000000001
 30
0.0
 11
-143.151
 21
80.50600000000001
 31
0.0
  0
LINE
  5
4D
330
A
100
AcDbEntity
  8
PV
  6
Continuous
 62
     7
100
AcDbLine
 10
-140.417
 20
86.506
 30
0.0
 11
-120.5
 21
86.506
 31
0.0
  0
LINE
  5
4E
330
A
100
AcDbEntity
  8
PV
  6
Continuous
 62
     7
100
AcDbLine
 10
-141.7019999999999
 20
81.61799999999997
 30
0.0
 11
-140.352
 21
86.65600000000003
 31
0.0
  0
LINE
  5
4F
330
A
100
AcDbEntity
  8
PV
  6
Continuous
 62
     7
100
AcDbLine
 10
-140.352
 20
129.356
 30
0.0
 11
-140.352
 21
86.65600000000003
 31
0.0
  0
LINE
  5
50
330
A
100
AcDbEntity
  8
PV
  6
CENTER
 62
     7
100
AcDbLine
 10
-121.0
 20
77.006
 30
0.0
 11
-101.0
 21
77.006
 31
0.0
  0
LINE
  5
51
330
A
100
AcDbEntity
  8
PV
  6
CENTER
 62
     7
100
AcDbLine
 10
-111.0
 20
87.00599999999999
 30
0.0
 11
-111.0
 21
67.006
 31
0.0
  0
LINE
  5
52
330
A
100
AcDbEntity
  8
PV
  6
Continuous
 62
     7
100
AcDbLine
 10
-45.04299999999999
 20
67.506
 30
0.0
 11
-114.957
 21
67.506
 31
0.0
  0
LINE
  5
53
330
A
100
AcDbEntity
  8
PV
  6
Continuous
 62
     7
100
AcDbLine
 10
-45.04299999999999
 20
148.506
 30
0.0
 11
-66.02899999999999
 21
148.506
 31
0.0
  0
LINE
  5
54
330
A
100
AcDbEntity
  8
PV
  6
Continuous
 62
     7
100
AcDbLine
 10
-120.5
 20
142.964
 30
0.0
 11
-120.5
 21
73.04899999999998
 31
0.0
  0
LINE
  5
55
330
A
100
AcDbEntity
  8
PV
  6
Continuous
 62
     7
100
AcDbLine
 10
-39.5
 20
142.964
 30
0.0
 11
-39.5
 21
125.506
 31
0.0
  0
LINE
  5
56
330
A
100
AcDbEntity
  8
PV
  6
Continuous
 62
     7
100
AcDbLine
 10
-145.0
 20
-62.5
 30
0.0
 11
-143.151
 21
-62.5
 31
0.0
  0
LINE
  5
57
330
A
100
AcDbEntity
  8
PV
  6
Continuous
 62
     7
100
AcDbLine
 10
-140.417
 20
-68.65000000000001
 30
0.0
 11
-118.0
 21
-68.65000000000001
 31
0.0
  0
LINE
  5
58
330
A
100
AcDbEntity
  8
PV
  6
Continuous
 62
     7
100
AcDbLine
 10
-141.7019999999999
 20
-63.612
 30
0.0
 11
-140.352
 21
-68.65000000000001
 31
0.0
  0
LINE
  5
59
330
A
100
AcDbEntity
  8
PV
  6
Continuous
 62
     7
100
AcDbLine
 10
-142.0
 20
-90.0
 30
0.0
 11
-142.0
 21
-63.038
 31
0.0
  0
LINE
  5
5A
330
A
100
AcDbEntity
  8
PV
  6
Continuous
 62
     7
100
AcDbLine
 10
-140.352
 20
-90.0
 30
0.0
 11
-140.352
 21
-68.65000000000001
 31
0.0
  0
LINE
  5
5B
330
A
100
AcDbEntity
  8
PV
  6
Continuous
 62
     7
100
AcDbLine
 10
-145.0
 20
-90.0
 30
0.0
 11
-145.0
 21
-62.5
 31
0.0
  0
LINE
  5
5C
330
A
100
AcDbEntity
  8
PV
  6
CENTER
 62
     7
100
AcDbLine
 10
-151.7929999999998
 20
-90.0
 30
0.0
 11
-103.871
 21
-90.0
 31
0.0
  0
LINE
  5
5D
330
A
100
AcDbEntity
  8
PV
  6
Continuous
 62
     7
100
AcDbLine
 10
-107.4999999999999
 20
-155.0
 30
0.0
 11
-107.4999999999999
 21
-153.151
 31
0.0
  0
LINE
  5
5E
330
A
100
AcDbEntity
  8
PV
  6
Continuous
 62
     7
100
AcDbLine
 10
-101.35
 20
-150.417
 30
0.0
 11
-101.35
 21
-122.0
 31
0.0
  0
LINE
  5
5F
330
A
100
AcDbEntity
  8
PV
  6
Continuous
 62
     7
100
AcDbLine
 10
-106.3879999999999
 20
-151.702
 30
0.0
 11
-101.35
 21
-150.3519999999999
 31
0.0
  0
LINE
  5
60
330
A
100
AcDbEntity
  8
PV
  6
Continuous
 62
     7
100
AcDbLine
 10
-53.038
 20
-152.0
 30
0.0
 11
-106.962
 21
-152.0
 31
0.0
  0
LINE
  5
61
330
A
100
AcDbEntity
  8
PV
  6
Continuous
 62
     7
100
AcDbLine
 10
-58.65
 20
-150.3519999999999
 30
0.0
 11
-101.35
 21
-150.3519999999999
 31
0.0
  0
LINE
  5
62
330
A
100
AcDbEntity
  8
PV
  6
Continuous
 62
     7
100
AcDbLine
 10
-52.5
 20
-155.0
 30
0.0
 11
-107.4999999999999
 21
-155.0
 31
0.0
  0
LINE
  5
63
330
A
100
AcDbEntity
  8
PV
  6
Continuous
 62
     7
100
AcDbLine
 10
-49.0
 20
-122.0
 30
0.0
 11
-111.0
 21
-122.0
 31
0.0
  0
LINE
  5
64
330
A
100
AcDbEntity
  8
PV
  6
Continuous
 62
     7
100
AcDbLine
 10
-145.0
 20
-117.5
 30
0.0
 11
-143.151
 21
-117.5
 31
0.0
  0
LINE
  5
65
330
A
100
AcDbEntity
  8
PV
  6
Continuous
 62
     7
100
AcDbLine
 10
-140.417
 20
-111.3499999999999
 30
0.0
 11
-118.0
 21
-111.3499999999999
 31
0.0
  0
LINE
  5
66
330
A
100
AcDbEntity
  8
PV
  6
Continuous
 62
     7
100
AcDbLine
 10
-141.7019999999999
 20
-116.388
 30
0.0
 11
-140.352
 21
-111.3499999999999
 31
0.0
  0
LINE
  5
67
330
A
100
AcDbEntity
  8
PV
  6
Continuous
 62
     7
100
AcDbLine
 10
-142.0
 20
-90.0
 30
0.0
 11
-142.0
 21
-116.962
 31
0.0
  0
LINE
  5
68
330
A
100
AcDbEntity
  8
PV
  6
Continuous
 62
     7
100
AcDbLine
 10
-140.352
 20
-90.0
 30
0.0
 11
-140.352
 21
-111.3499999999999
 31
0.0
  0
LINE
  5
69
330
A
100
AcDbEntity
  8
PV
  6
Continuous
 62
     7
100
AcDbLine
 10
-145.0
 20
-90.0
 30
0.0
 11
-145.0
 21
-117.5
 31
0.0
  0
LINE
  5
6A
330
A
100
AcDbEntity
  8
PV
  6
Continuous
 62
     7
100
AcDbLine
 10
-52.5
 20
-155.0
 30
0.0
 11
-52.5
 21
-153.151
 31
0.0
  0
LINE
  5
6B
330
A
100
AcDbEntity
  8
PV
  6
Continuous
 62
     7
100
AcDbLine
 10
-58.65
 20
-150.417
 30
0.0
 11
-58.65
 21
-122.0
 31
0.0
  0
LINE
  5
6C
330
A
100
AcDbEntity
  8
PV
  6
Continuous
 62
     7
100
AcDbLine
 10
-53.612
 20
-151.702
 30
0.0
 11
-58.65
 21
-150.3519999999999
 31
0.0
  0
LINE
  5
6D
330
A
100
AcDbEntity
  8
PV
  6
Continuous
 62
     7
100
AcDbLine
 10
-120.5
 20
13.0
 30
0.0
 11
-36.0
 21
13.0
 31
0.0
  0
LINE
  5
6E
330
A
100
AcDbEntity
  8
PV
  6
CENTER
 62
     7
100
AcDbLine
 10
-80.0
 20
18.829
 30
0.0
 11
-80.0
 21
-161.432
 31
0.0
  0
LINE
  5
6F
330
A
100
AcDbEntity
  8
PV
  6
CENTER
 62
     7
100
AcDbLine
 10
-111.0
 20
18.829
 30
0.0
 11
-111.0
 21
-60.61199999999999
 31
0.0
  0
LINE
  5
70
330
A
100
AcDbEntity
  8
PV
  6
CENTER
 62
     7
100
AcDbLine
 10
-49.0
 20
18.829
 30
0.0
 11
-49.0
 21
-60.415
 31
0.0
  0
LINE
  5
71
330
A
100
AcDbEntity
  8
PV
  6
Continuous
 62
     7
100
AcDbLine
 10
-120.5
 20
-46.5
 30
0.0
 11
-36.0
 21
-46.5
 31
0.0
  0
LINE
  5
72
330
A
100
AcDbEntity
  8
PV
  6
Continuous
 62
     7
100
AcDbLine
 10
-36.0
 20
13.0
 30
0.0
 11
-36.0
 21
-46.5
 31
0.0
  0
LINE
  5
73
330
A
100
AcDbEntity
  8
PV
  6
CENTER
 62
     7
100
AcDbLine
 10
-33.18
 20
-37.5
 30
0.0
 11
-52.411
 21
-37.5
 31
0.0
  0
LINE
  5
74
330
A
100
AcDbEntity
  8
PV
  6
CENTER
 62
     7
100
AcDbLine
 10
-33.18
 20
-4.5
 30
0.0
 11
-52.211
 21
-4.5
 31
0.0
  0
LINE
  5
75
330
A
100
AcDbEntity
  8
PV
  6
Continuous
 62
     7
100
AcDbLine
 10
-39.5
 20
-46.512
 30
0.0
 11
-39.5
 21
-58.0
 31
0.0
  0
LINE
  5
76
330
A
100
AcDbEntity
  8
PV
  6
Continuous
 62
     7
100
AcDbLine
 10
-120.5
 20
-46.512
 30
0.0
 11
-120.5
 21
-58.0
 31
0.0
  0
LINE
  5
77
330
A
100
AcDbEntity
  8
PV
  6
Continuous
 62
     7
100
AcDbLine
 10
-120.5
 20
13.0
 30
0.0
 11
-120.5
 21
-46.5
 31
0.0
  0
LINE
  5
78
330
A
100
AcDbEntity
  8
PV
  6
Continuous
 62
     7
100
AcDbLine
 10
-39.5
 20
13.0
 30
0.0
 11
-39.5
 21
-46.5
 31
0.0
  0
LINE
  5
79
330
A
100
AcDbEntity
  8
PV
  6
Continuous
 62
     7
100
AcDbLine
 10
-39.5
 20
-58.0
 30
0.0
 11
-120.5
 21
-58.0
 31
0.0
  0
LINE
  5
7A
330
A
100
AcDbEntity
  8
PV
  6
Continuous
 62
     7
100
AcDbLine
 10
-39.5
 20
90.50600000000001
 30
0.0
 11
-39.5
 21
73.04899999999998
 31
0.0
  0
LINE
  5
7B
330
A
100
AcDbEntity
  8
PV
  6
CENTER
 62
     7
100
AcDbLine
 10
-49.0
 20
87.00599999999999
 30
0.0
 11
-49.0
 21
67.006
 31
0.0
  0
LINE
  5
7C
330
A
100
AcDbEntity
  8
PV
  6
CENTER
 62
     7
100
AcDbLine
 10
-39.0
 20
77.006
 30
0.0
 11
-59.0
 21
77.006
 31
0.0
  0
LINE
  5
7D
330
A
100
AcDbEntity
  8
PV
  6
CENTER
 62
     7
100
AcDbLine
 10
-111.0
 20
129.0059999999999
 30
0.0
 11
-111.0
 21
149.0059999999999
 31
0.0
  0
LINE
  5
7E
330
A
100
AcDbEntity
  8
PV
  6
CENTER
 62
     7
100
AcDbLine
 10
-121.0
 20
139.006
 30
0.0
 11
-101.0
 21
139.006
 31
0.0
  0
LINE
  5
7F
330
A
100
AcDbEntity
  8
PV
  6
CENTER
 62
     7
100
AcDbLine
 10
-49.0
 20
129.0059999999999
 30
0.0
 11
-49.0
 21
149.0059999999999
 31
0.0
  0
LINE
  5
80
330
A
100
AcDbEntity
  8
PV
  6
CENTER
 62
     7
100
AcDbLine
 10
-39.0
 20
139.006
 30
0.0
 11
-59.0
 21
139.006
 31
0.0
  0
LINE
  5
81
330
A
100
AcDbEntity
  8
PV
  6
Continuous
 62
     7
100
AcDbLine
 10
-94.14100000000001
 20
148.506
 30
0.0
 11
-114.957
 21
148.506
 31
0.0
  0
LINE
  5
82
330
A
100
AcDbEntity
  8
PV
  6
Continuous
 62
     7
100
AcDbLine
 10
-65.9
 20
148.506
 30
0.0
 11
-94.26999999999999
 21
148.506
 31
0.0
  0
LINE
  5
83
330
A
100
AcDbEntity
  8
PV
  6
Continuous
 62
     7
100
AcDbLine
 10
-42.0
 20
-58.00399999999999
 30
0.0
 11
-42.0
 21
-115.0
 31
0.0
  0
LINE
  5
84
330
A
100
AcDbEntity
  8
PV
  6
Continuous
 62
     7
100
AcDbLine
 10
-118.0
 20
-58.143
 30
0.0
 11
-118.0
 21
-68.447
 31
0.0
  0
LINE
  5
85
330
A
100
AcDbEntity
  8
PV
  6
Continuous
 62
     7
100
AcDbLine
 10
-118.0
 20
-111.3499999999999
 30
0.0
 11
-118.0
 21
-115.0
 31
0.0
  0
LINE
  5
86
330
A
100
AcDbEntity
  8
PV
  6
Continuous
 62
     7
100
AcDbLine
 10
-92.09999999999999
 20
147.506
 30
0.0
 11
-92.09999999999999
 21
143.806
 31
0.0
  0
LINE
  5
87
330
A
100
AcDbEntity
  8
PV
  6
Continuous
 62
     7
100
AcDbLine
 10
-85.90000000000001
 20
143.806
 30
0.0
 11
-92.09999999999999
 21
143.806
 31
0.0
  0
LINE
  5
88
330
A
100
AcDbEntity
  8
PV
  6
Continuous
 62
     7
100
AcDbLine
 10
-85.90000000000001
 20
147.506
 30
0.0
 11
-85.90000000000001
 21
143.806
 31
0.0
  0
LINE
  5
89
330
A
100
AcDbEntity
  8
PV
  6
Continuous
 62
     7
100
AcDbLine
 10
-85.90000000000001
 20
147.506
 30
0.0
 11
-86.79999999999997
 21
147.506
 31
0.0
  0
LINE
  5
8A
330
A
100
AcDbEntity
  8
PV
  6
Continuous
 62
     7
100
AcDbLine
 10
-91.2
 20
147.506
 30
0.0
 11
-92.09999999999999
 21
147.506
 31
0.0
  0
LINE
  5
8B
330
A
100
AcDbEntity
  8
PV
  6
Continuous
 62
     7
100
AcDbLine
 10
-91.2
 20
148.506
 30
0.0
 11
-91.2
 21
147.506
 31
0.0
  0
LINE
  5
8C
330
A
100
AcDbEntity
  8
PV
  6
Continuous
 62
     7
100
AcDbLine
 10
-86.79999999999997
 20
148.506
 30
0.0
 11
-86.79999999999997
 21
147.506
 31
0.0
  0
LINE
  5
8D
330
A
100
AcDbEntity
  8
PV
  6
Continuous
 62
     7
100
AcDbLine
 10
-67.9
 20
143.806
 30
0.0
 11
-74.1
 21
143.806
 31
0.0
  0
LINE
  5
8E
330
A
100
AcDbEntity
  8
PV
  6
Continuous
 62
     7
100
AcDbLine
 10
-74.1
 20
147.506
 30
0.0
 11
-74.1
 21
143.806
 31
0.0
  0
LINE
  5
8F
330
A
100
AcDbEntity
  8
PV
  6
Continuous
 62
     7
100
AcDbLine
 10
-73.2
 20
147.506
 30
0.0
 11
-74.1
 21
147.506
 31
0.0
  0
LINE
  5
90
330
A
100
AcDbEntity
  8
PV
  6
Continuous
 62
     7
100
AcDbLine
 10
-73.2
 20
148.506
 30
0.0
 11
-73.2
 21
147.506
 31
0.0
  0
LINE
  5
91
330
A
100
AcDbEntity
  8
PV
  6
Continuous
 62
     7
100
AcDbLine
 10
-67.9
 20
147.506
 30
0.0
 11
-67.9
 21
143.806
 31
0.0
  0
LINE
  5
92
330
A
100
AcDbEntity
  8
PV
  6
Continuous
 62
     7
100
AcDbLine
 10
-67.9
 20
147.506
 30
0.0
 11
-68.79999999999999
 21
147.506
 31
0.0
  0
LINE
  5
93
330
A
100
AcDbEntity
  8
PV
  6
Continuous
 62
     7
100
AcDbLine
 10
-68.79999999999999
 20
148.506
 30
0.0
 11
-68.79999999999999
 21
147.506
 31
0.0
  0
LINE
  5
94
330
A
100
AcDbEntity
  8
PV
  6
Continuous
 62
     7
100
AcDbLine
 10
-42.0
 20
-115.0
 30
0.0
 11
-49.0
 21
-122.0
 31
0.0
  0
LINE
  5
95
330
A
100
AcDbEntity
  8
PV
  6
Continuous
 62
     7
100
AcDbLine
 10
-111.0
 20
-122.0
 30
0.0
 11
-118.0
 21
-115.0
 31
0.0
  0
LINE
  5
96
330
A
100
AcDbEntity
  8
PV
  6
Continuous
 62
     7
100
AcDbLine
 10
-42.0
 20
-115.0
 30
0.0
 11
-118.0
 21
-115.0
 31
0.0
  0
LINE
  5
97
330
A
100
AcDbEntity
  8
PV
  6
Continuous
 62
     7
100
AcDbLine
 10
53.429
 20
-155.0
 30
0.0
 11
53.429
 21
-153.151
 31
0.0
  0
LINE
  5
98
330
A
100
AcDbEntity
  8
PV
  6
Continuous
 62
     7
100
AcDbLine
 10
59.57899999999999
 20
-150.417
 30
0.0
 11
59.57899999999999
 21
-122.0
 31
0.0
  0
LINE
  5
99
330
A
100
AcDbEntity
  8
PV
  6
Continuous
 62
     7
100
AcDbLine
 10
54.541
 20
-151.702
 30
0.0
 11
59.57899999999999
 21
-150.3519999999999
 31
0.0
  0
LINE
  5
9A
330
A
100
AcDbEntity
  8
PV
  6
Continuous
 62
     7
100
AcDbLine
 10
107.891
 20
-152.0
 30
0.0
 11
53.967
 21
-152.0
 31
0.0
  0
LINE
  5
9B
330
A
100
AcDbEntity
  8
PV
  6
Continuous
 62
     7
100
AcDbLine
 10
102.279
 20
-150.3519999999999
 30
0.0
 11
59.57899999999999
 21
-150.3519999999999
 31
0.0
  0
LINE
  5
9C
330
A
100
AcDbEntity
  8
PV
  6
Continuous
 62
     7
100
AcDbLine
 10
108.4289999999999
 20
-155.0
 30
0.0
 11
53.429
 21
-155.0
 31
0.0
  0
LINE
  5
9D
330
A
100
AcDbEntity
  8
PV
  6
Continuous
 62
     7
100
AcDbLine
 10
111.929
 20
-122.0
 30
0.0
 11
49.92899999999998
 21
-122.0
 31
0.0
  0
LINE
  5
9E
330
A
100
AcDbEntity
  8
PV
  6
Continuous
 62
     7
100
AcDbLine
 10
108.4289999999999
 20
-155.0
 30
0.0
 11
108.4289999999999
 21
-153.151
 31
0.0
  0
LINE
  5
9F
330
A
100
AcDbEntity
  8
PV
  6
Continuous
 62
     7
100
AcDbLine
 10
102.279
 20
-150.417
 30
0.0
 11
102.279
 21
-122.0
 31
0.0
  0
LINE
  5
A0
330
A
100
AcDbEntity
  8
PV
  6
Continuous
 62
     7
100
AcDbLine
 10
107.317
 20
-151.702
 30
0.0
 11
102.279
 21
-150.3519999999999
 31
0.0
  0
LINE
  5
A1
330
A
100
AcDbEntity
  8
PV
  6
Continuous
 62
     7
100
AcDbLine
 10
40.429
 20
13.0
 30
0.0
 11
121.429
 21
13.0
 31
0.0
  0
LINE
  5
A2
330
A
100
AcDbEntity
  8
PV
  6
CENTER
 62
     7
100
AcDbLine
 10
80.929
 20
19.42599999999998
 30
0.0
 11
80.929
 21
-161.432
 31
0.0
  0
LINE
  5
A3
330
A
100
AcDbEntity
  8
PV
  6
CENTER
 62
     7
100
AcDbLine
 10
49.92899999999998
 20
21.214
 30
0.0
 11
49.92899999999998
 21
-60.61199999999999
 31
0.0
  0
LINE
  5
A4
330
A
100
AcDbEntity
  8
PV
  6
CENTER
 62
     7
100
AcDbLine
 10
111.929
 20
19.42599999999998
 30
0.0
 11
111.929
 21
-60.415
 31
0.0
  0
LINE
  5
A5
330
A
100
AcDbEntity
  8
PV
  6
Continuous
 62
     7
100
AcDbLine
 10
40.429
 20
-46.5
 30
0.0
 11
121.429
 21
-46.5
 31
0.0
  0
LINE
  5
A6
330
A
100
AcDbEntity
  8
PV
  6
CENTER
 62
     7
100
AcDbLine
 10
88.36899999999998
 20
-37.5
 30
0.0
 11
72.107
 21
-37.5
 31
0.0
  0
LINE
  5
A7
330
A
100
AcDbEntity
  8
PV
  6
CENTER
 62
     7
100
AcDbLine
 10
88.12299999999998
 20
-4.5
 30
0.0
 11
72.96899999999998
 21
-4.5
 31
0.0
  0
LINE
  5
A8
330
A
100
AcDbEntity
  8
PV
  6
Continuous
 62
     7
100
AcDbLine
 10
121.429
 20
-46.512
 30
0.0
 11
121.429
 21
-58.0
 31
0.0
  0
LINE
  5
A9
330
A
100
AcDbEntity
  8
PV
  6
Continuous
 62
     7
100
AcDbLine
 10
40.429
 20
-46.512
 30
0.0
 11
40.429
 21
-58.0
 31
0.0
  0
LINE
  5
AA
330
A
100
AcDbEntity
  8
PV
  6
Continuous
 62
     7
100
AcDbLine
 10
40.429
 20
13.0
 30
0.0
 11
40.429
 21
-46.5
 31
0.0
  0
LINE
  5
AB
330
A
100
AcDbEntity
  8
PV
  6
Continuous
 62
     7
100
AcDbLine
 10
121.429
 20
13.0
 30
0.0
 11
121.429
 21
-46.5
 31
0.0
  0
LINE
  5
AC
330
A
100
AcDbEntity
  8
PV
  6
Continuous
 62
     7
100
AcDbLine
 10
121.429
 20
-58.0
 30
0.0
 11
40.429
 21
-58.0
 31
0.0
  0
LINE
  5
AD
330
A
100
AcDbEntity
  8
PV
  6
Continuous
 62
     7
100
AcDbLine
 10
118.9289999999999
 20
-58.00399999999999
 30
0.0
 11
118.9289999999999
 21
-115.0
 31
0.0
  0
LINE
  5
AE
330
A
100
AcDbEntity
  8
PV
  6
Continuous
 62
     7
100
AcDbLine
 10
42.92899999999998
 20
-58.143
 30
0.0
 11
42.92899999999998
 21
-115.0
 31
0.0
  0
LINE
  5
AF
330
A
100
AcDbEntity
  8
PV
  6
Continuous
 62
     7
100
AcDbLine
 10
118.9289999999999
 20
-115.0
 30
0.0
 11
111.929
 21
-122.0
 31
0.0
  0
LINE
  5
B0
330
A
100
AcDbEntity
  8
PV
  6
Continuous
 62
     7
100
AcDbLine
 10
49.92899999999998
 20
-122.0
 30
0.0
 11
42.92899999999998
 21
-115.0
 31
0.0
  0
LINE
  5
B1
330
A
100
AcDbEntity
  8
PV
  6
Continuous
 62
     7
100
AcDbLine
 10
118.9289999999999
 20
-115.0
 30
0.0
 11
42.92899999999998
 21
-115.0
 31
0.0
  0
LINE
  5
B2
330
A
100
AcDbEntity
  8
PV
  6
Continuous
 62
     7
100
AcDbLine
 10
98.429
 20
13.0
 30
0.0
 11
98.429
 21
-46.5
 31
0.0
  0
LINE
  5
B3
330
A
100
AcDbEntity
  8
PV
  6
Continuous
 62
     7
100
AcDbLine
 10
63.429
 20
13.0
 30
0.0
 11
63.429
 21
-46.5
 31
0.0
  0
LINE
  5
B4
330
A
100
AcDbEntity
  8
PV
  6
Continuous
 62
     7
100
AcDbLine
 10
-114.957
 20
13.0
 30
0.0
 11
-114.957
 21
-58.0
 31
0.0
  0
LINE
  5
B5
330
A
100
AcDbEntity
  8
PV
  6
Continuous
 62
     7
100
AcDbLine
 10
-45.04299999999999
 20
13.0
 30
0.0
 11
-45.04299999999999
 21
-58.0
 31
0.0
  0
LINE
  5
B6
330
A
100
AcDbEntity
  8
PV
  6
Continuous
 62
     7
100
AcDbLine
 10
45.97199999999999
 20
13.0
 30
0.0
 11
45.97199999999999
 21
-58.0
 31
0.0
  0
LINE
  5
B7
330
A
100
AcDbEntity
  8
PV
  6
Continuous
 62
     7
100
AcDbLine
 10
115.886
 20
13.0
 30
0.0
 11
115.886
 21
-58.0
 31
0.0
  0
LINE
  5
B8
330
A
100
AcDbEntity
  8
PV
  6
CENTER
 62
     7
100
AcDbLine
 10
68.929
 20
12.033
 30
0.0
 11
68.929
 21
6.248999999999998
 31
0.0
  0
LINE
  5
B9
330
A
100
AcDbEntity
  8
PV
  6
CENTER
 62
     7
100
AcDbLine
 10
66.097
 20
9.0
 30
0.0
 11
71.44499999999998
 21
9.0
 31
0.0
  0
LINE
  5
BA
330
A
100
AcDbEntity
  8
PV
  6
CENTER
 62
     7
100
AcDbLine
 10
92.92900000000001
 20
12.033
 30
0.0
 11
92.92900000000001
 21
6.248999999999998
 31
0.0
  0
LINE
  5
BB
330
A
100
AcDbEntity
  8
PV
  6
CENTER
 62
     7
100
AcDbLine
 10
95.76
 20
9.0
 30
0.0
 11
90.41200000000001
 21
9.0
 31
0.0
  0
LINE
  5
BC
330
A
100
AcDbEntity
  8
PV
  6
CENTER
 62
     7
100
AcDbLine
 10
68.929
 20
-45.533
 30
0.0
 11
68.929
 21
-39.749
 31
0.0
  0
LINE
  5
BD
330
A
100
AcDbEntity
  8
PV
  6
CENTER
 62
     7
100
AcDbLine
 10
66.097
 20
-42.5
 30
0.0
 11
71.44499999999998
 21
-42.5
 31
0.0
  0
LINE
  5
BE
330
A
100
AcDbEntity
  8
PV
  6
CENTER
 62
     7
100
AcDbLine
 10
92.92900000000001
 20
-45.533
 30
0.0
 11
92.92900000000001
 21
-39.749
 31
0.0
  0
LINE
  5
BF
330
A
100
AcDbEntity
  8
PV
  6
CENTER
 62
     7
100
AcDbLine
 10
95.76
 20
-42.5
 30
0.0
 11
90.41200000000001
 21
-42.5
 31
0.0
  0
ARC
  5
C0
330
A
100
AcDbEntity
  8
PV
  6
Continuous
 62
     7
100
AcDbCircle
 10
-143.151
 20
134.006
 30
0.0
 40
1.5
100
AcDbArc
 50
15.000024
 51
89.99996800000003
  0
ARC
  5
C1
330
A
100
AcDbEntity
  8
PV
  6
Continuous
 62
     7
100
AcDbCircle
 10
-143.151
 20
82.00599999999999
 30
0.0
 40
1.5
100
AcDbArc
 50
270.000032
 51
344.999976
  0
ARC
  5
C2
330
A
100
AcDbEntity
  8
PV
  6
Continuous
 62
     7
100
AcDbCircle
 10
-143.151
 20
-64.0
 30
0.0
 40
1.5
100
AcDbArc
 50
15.000024
 51
89.99996800000003
  0
ARC
  5
C3
330
A
100
AcDbEntity
  8
PV
  6
Continuous
 62
     7
100
AcDbCircle
 10
-106.0
 20
-153.151
 30
0.0
 40
1.5
100
AcDbArc
 50
105.000006
 51
179.999937
  0
ARC
  5
C4
330
A
100
AcDbEntity
  8
PV
  6
Continuous
 62
     7
100
AcDbCircle
 10
-143.151
 20
-116.0
 30
0.0
 40
1.5
100
AcDbArc
 50
269.999977
 51
344.9999209999998
  0
ARC
  5
C5
330
A
100
AcDbEntity
  8
PV
  6
Continuous
 62
     7
100
AcDbCircle
 10
-54.0
 20
-153.151
 30
0.0
 40
1.5
100
AcDbArc
 50
0.000027
 51
74.99995799999997
  0
ARC
  5
C6
330
A
100
AcDbEntity
  8
PV
  6
Continuous
 62
     7
100
AcDbCircle
 10
-38.0
 20
123.506
 30
0.0
 40
2.0
100
AcDbArc
 50
0.0
 51
90.00000300000001
  0
ARC
  5
C7
330
A
100
AcDbEntity
  8
PV
  6
Continuous
 62
     7
100
AcDbCircle
 10
-38.0
 20
92.506
 30
0.0
 40
2.0
100
AcDbArc
 50
269.9999969999999
 51
0.0
  0
CIRCLE
  5
C8
330
A
100
AcDbEntity
  8
PV
  6
Continuous
 62
     7
100
AcDbCircle
 10
-49.0
 20
139.006
 30
0.0
 40
7.0
  0
CIRCLE
  5
C9
330
A
100
AcDbEntity
  8
PV
  6
Continuous
 62
     7
100
AcDbCircle
 10
-111.0
 20
139.006
 30
0.0
 40
7.0
  0
CIRCLE
  5
CA
330
A
100
AcDbEntity
  8
PV
  6
Continuous
 62
     7
100
AcDbCircle
 10
-111.0
 20
139.006
 30
0.0
 40
7.0
  0
CIRCLE
  5
CB
330
A
100
AcDbEntity
  8
PV
  6
Continuous
 62
     7
100
AcDbCircle
 10
-111.0
 20
77.006
 30
0.0
 40
7.0
  0
CIRCLE
  5
CC
330
A
100
AcDbEntity
  8
PV
  6
Continuous
 62
     7
100
AcDbCircle
 10
-49.0
 20
77.006
 30
0.0
 40
7.0
  0
ARC
  5
CD
330
A
100
AcDbEntity
  8
PV
  6
Continuous
 62
     7
100
AcDbCircle
 10
-149.435
 20
-90.0
 30
0.0
 40
38.0
100
AcDbArc
 50
325.79806
 51
34.16692499999999
  0
ARC
  5
CE
330
A
100
AcDbEntity
  8
PV
  6
Continuous
 62
     7
100
AcDbCircle
 10
-80.0
 20
108.006
 30
0.0
 40
53.5
100
AcDbArc
 50
130.798737
 51
139.2012499999998
  0
ARC
  5
CF
330
A
100
AcDbEntity
  8
PV
  6
Continuous
 62
     7
100
AcDbCircle
 10
-80.0
 20
108.006
 30
0.0
 40
53.5
100
AcDbArc
 50
40.79874799999998
 51
49.201264
  0
ARC
  5
D0
330
A
100
AcDbEntity
  8
PV
  6
Continuous
 62
     7
100
AcDbCircle
 10
-80.0
 20
108.006
 30
0.0
 40
53.5
100
AcDbArc
 50
310.7987459999999
 51
319.201252
  0
ARC
  5
D1
330
A
100
AcDbEntity
  8
PV
  6
Continuous
 62
     7
100
AcDbCircle
 10
-80.0
 20
108.006
 30
0.0
 40
53.5
100
AcDbArc
 50
220.79875
 51
229.201249
  0
ARC
  5
D2
330
A
100
AcDbEntity
  8
PV
  6
Continuous
 62
     7
100
AcDbCircle
 10
54.92899999999998
 20
-153.151
 30
0.0
 40
1.5
100
AcDbArc
 50
105.000006
 51
179.999937
  0
ARC
  5
D3
330
A
100
AcDbEntity
  8
PV
  6
Continuous
 62
     7
100
AcDbCircle
 10
106.929
 20
-153.151
 30
0.0
 40
1.5
100
AcDbArc
 50
0.000027
 51
74.99995799999997
  0
CIRCLE
  5
D4
330
A
100
AcDbEntity
  8
PV
  6
Continuous
 62
     7
100
AcDbCircle
 10
80.929
 20
-37.5
 30
0.0
 40
4.849999999999998
  0
CIRCLE
  5
D5
330
A
100
AcDbEntity
  8
PV
  6
Continuous
 62
     7
100
AcDbCircle
 10
80.929
 20
-37.5
 30
0.0
 40
3.85
  0
CIRCLE
  5
D6
330
A
100
AcDbEntity
  8
PV
  6
Continuous
 62
     7
100
AcDbCircle
 10
80.929
 20
-4.5
 30
0.0
 40
3.85
  0
CIRCLE
  5
D7
330
A
100
AcDbEntity
  8
PV
  6
Continuous
 62
     7
100
AcDbCircle
 10
80.929
 20
-4.5
 30
0.0
 40
4.849999999999998
  0
CIRCLE
  5
D8
330
A
100
AcDbEntity
  8
PV
  6
Continuous
 62
     7
100
AcDbCircle
 10
68.929
 20
9.0
 30
0.0
 40
1.5
  0
CIRCLE
  5
D9
330
A
100
AcDbEntity
  8
PV
  6
Continuous
 62
     7
100
AcDbCircle
 10
68.929
 20
9.0
 30
0.0
 40
1.199999999999999
  0
CIRCLE
  5
DA
330
A
100
AcDbEntity
  8
PV
  6
Continuous
 62
     7
100
AcDbCircle
 10
92.92900000000001
 20
9.0
 30
0.0
 40
1.5
  0
CIRCLE
  5
DB
330
A
100
AcDbEntity
  8
PV
  6
Continuous
 62
     7
100
AcDbCircle
 10
92.92900000000001
 20
9.0
 30
0.0
 40
1.199999999999999
  0
CIRCLE
  5
DC
330
A
100
AcDbEntity
  8
PV
  6
Continuous
 62
     7
100
AcDbCircle
 10
68.929
 20
-42.5
 30
0.0
 40
1.5
  0
CIRCLE
  5
DD
330
A
100
AcDbEntity
  8
PV
  6
Continuous
 62
     7
100
AcDbCircle
 10
68.929
 20
-42.5
 30
0.0
 40
1.199999999999999
  0
CIRCLE
  5
DE
330
A
100
AcDbEntity
  8
PV
  6
Continuous
 62
     7
100
AcDbCircle
 10
92.92900000000001
 20
-42.5
 30
0.0
 40
1.5
  0
CIRCLE
  5
DF
330
A
100
AcDbEntity
  8
PV
  6
Continuous
 62
     7
100
AcDbCircle
 10
92.92900000000001
 20
-42.5
 30
0.0
 40
1.199999999999999
  0
LINE
  5
E0
330
A
100
AcDbEntity
  8
PV
  6
Continuous
 62
     7
100
AcDbLine
 10
-54.11
 20
125.506
 30
0.0
 11
-105.8899999999999
 21
125.506
 31
0.0
  0
LINE
  5
E1
330
A
100
AcDbEntity
  8
PV
  6
Continuous
 62
   254
100
AcDbLine
 10
-88.90799999999998
 20
127.81
 30
0.0
 11
-88.61
 21
127.81
 31
0.0
  0
LINE
  5
E2
330
A
100
AcDbEntity
  8
PV
  6
Continuous
 62
     7
100
AcDbLine
 10
-81.15
 20
135.366
 30
0.0
 11
-81.15
 21
131.8159999999999
 31
0.0
  0
LINE
  5
E3
330
A
100
AcDbEntity
  8
PV
  6
Continuous
 62
     7
100
AcDbLine
 10
-85.28399999999997
 20
134.416
 30
0.0
 11
-83.384
 21
134.416
 31
0.0
  0
LINE
  5
E4
330
A
100
AcDbEntity
  8
PV
  6
Continuous
 62
     7
100
AcDbLine
 10
-85.28399999999997
 20
134.416
 30
0.0
 11
-85.28399999999997
 21
131.8159999999999
 31
0.0
  0
LINE
  5
E5
330
A
100
AcDbEntity
  8
PV
  6
Continuous
 62
     7
100
AcDbLine
 10
-83.384
 20
134.416
 30
0.0
 11
-83.384
 21
131.8159999999999
 31
0.0
  0
LINE
  5
E6
330
A
100
AcDbEntity
  8
PV
  6
Continuous
 62
     7
100
AcDbLine
 10
-85.28399999999997
 20
131.8159999999999
 30
0.0
 11
-83.384
 21
131.8159999999999
 31
0.0
  0
LINE
  5
E7
330
A
100
AcDbEntity
  8
PV
  6
Continuous
 62
     7
100
AcDbLine
 10
-82.70000000000001
 20
135.366
 30
0.0
 11
-82.70000000000001
 21
131.8159999999999
 31
0.0
  0
LINE
  5
E8
330
A
100
AcDbEntity
  8
PV
  6
Continuous
 62
     7
100
AcDbLine
 10
-82.70000000000001
 20
135.366
 30
0.0
 11
-81.15
 21
135.366
 31
0.0
  0
LINE
  5
E9
330
A
100
AcDbEntity
  8
PV
  6
Continuous
 62
     7
100
AcDbLine
 10
-82.70000000000001
 20
131.8159999999999
 30
0.0
 11
-81.15
 21
131.8159999999999
 31
0.0
  0
LINE
  5
EA
330
A
100
AcDbEntity
  8
PV
  6
Continuous
 62
     7
100
AcDbLine
 10
-79.375
 20
135.366
 30
0.0
 11
-79.375
 21
134.566
 31
0.0
  0
LINE
  5
EB
330
A
100
AcDbEntity
  8
PV
  6
Continuous
 62
     7
100
AcDbLine
 10
-74.59899999999997
 20
134.591
 30
0.0
 11
-74.59899999999997
 21
132.591
 31
0.0
  0
LINE
  5
EC
330
A
100
AcDbEntity
  8
PV
  6
Continuous
 62
     7
100
AcDbLine
 10
-79.375
 20
132.616
 30
0.0
 11
-79.375
 21
131.8159999999999
 31
0.0
  0
LINE
  5
ED
330
A
100
AcDbEntity
  8
PV
  6
Continuous
 62
     7
100
AcDbLine
 10
-79.375
 20
134.566
 30
0.0
 11
-79.375
 21
132.616
 31
0.0
  0
LINE
  5
EE
330
A
100
AcDbEntity
  8
PV
  6
Continuous
 62
   254
100
AcDbLine
 10
-91.34
 20
128.1419999999999
 30
0.0
 11
-90.333
 21
128.1419999999999
 31
0.0
  0
LINE
  5
EF
330
A
100
AcDbEntity
  8
PV
  6
Continuous
 62
   254
100
AcDbLine
 10
-96.60099999999999
 20
128.59
 30
0.0
 11
-96.15300000000001
 21
128.59
 31
0.0
  0
LINE
  5
F0
330
A
100
AcDbEntity
  8
PV
  6
Continuous
 62
   254
100
AcDbLine
 10
-96.60099999999999
 20
126.3509999999999
 30
0.0
 11
-96.15300000000001
 21
126.3509999999999
 31
0.0
  0
LINE
  5
F1
330
A
100
AcDbEntity
  8
PV
  6
Continuous
 62
   254
100
AcDbLine
 10
-96.60099999999999
 20
128.59
 30
0.0
 11
-96.60099999999999
 21
126.3509999999999
 31
0.0
  0
LINE
  5
F2
330
A
100
AcDbEntity
  8
PV
  6
Continuous
 62
   254
100
AcDbLine
 10
-96.15300000000001
 20
128.59
 30
0.0
 11
-96.15300000000001
 21
126.3509999999999
 31
0.0
  0
LINE
  5
F3
330
A
100
AcDbEntity
  8
PV
  6
Continuous
 62
   254
100
AcDbLine
 10
-95.706
 20
128.59
 30
0.0
 11
-95.706
 21
127.9179999999999
 31
0.0
  0
LINE
  5
F4
330
A
100
AcDbEntity
  8
PV
  6
Continuous
 62
   254
100
AcDbLine
 10
-95.258
 20
128.1419999999999
 30
0.0
 11
-95.258
 21
127.9179999999999
 31
0.0
  0
LINE
  5
F5
330
A
100
AcDbEntity
  8
PV
  6
Continuous
 62
   254
100
AcDbLine
 10
-79.69800000000002
 20
128.59
 30
0.0
 11
-79.69800000000002
 21
128.1419999999999
 31
0.0
  0
LINE
  5
F6
330
A
100
AcDbEntity
  8
PV
  6
Continuous
 62
   254
100
AcDbLine
 10
-95.258
 20
127.247
 30
0.0
 11
-94.641
 21
127.247
 31
0.0
  0
LINE
  5
F7
330
A
100
AcDbEntity
  8
PV
  6
Continuous
 62
   254
100
AcDbLine
 10
-94.13899999999999
 20
128.1419999999999
 30
0.0
 11
-95.258
 21
128.1419999999999
 31
0.0
  0
LINE
  5
F8
330
A
100
AcDbEntity
  8
PV
  6
Continuous
 62
   254
100
AcDbLine
 10
-94.13899999999999
 20
127.6939999999999
 30
0.0
 11
-95.258
 21
127.6939999999999
 31
0.0
  0
LINE
  5
F9
330
A
100
AcDbEntity
  8
PV
  6
Continuous
 62
   254
100
AcDbLine
 10
-95.706
 20
126.3509999999999
 30
0.0
 11
-95.258
 21
126.3509999999999
 31
0.0
  0
LINE
  5
FA
330
A
100
AcDbEntity
  8
PV
  6
Continuous
 62
   254
100
AcDbLine
 10
-95.706
 20
128.59
 30
0.0
 11
-94.13899999999999
 21
128.59
 31
0.0
  0
LINE
  5
FB
330
A
100
AcDbEntity
  8
PV
  6
Continuous
 62
   254
100
AcDbLine
 10
-95.258
 20
127.247
 30
0.0
 11
-95.258
 21
126.3509999999999
 31
0.0
  0
LINE
  5
FC
330
A
100
AcDbEntity
  8
PV
  6
Continuous
 62
   254
100
AcDbLine
 10
-94.013
 20
126.3509999999999
 30
0.0
 11
-93.46700000000002
 21
126.3509999999999
 31
0.0
  0
LINE
  5
FD
330
A
100
AcDbEntity
  8
PV
  6
Continuous
 62
   254
100
AcDbLine
 10
-93.131
 20
128.59
 30
0.0
 11
-92.68300000000001
 21
128.59
 31
0.0
  0
LINE
  5
FE
330
A
100
AcDbEntity
  8
PV
  6
Continuous
 62
   254
100
AcDbLine
 10
-93.131
 20
126.3509999999999
 30
0.0
 11
-92.68300000000001
 21
126.3509999999999
 31
0.0
  0
LINE
  5
FF
330
A
100
AcDbEntity
  8
PV
  6
Continuous
 62
   254
100
AcDbLine
 10
-93.131
 20
128.59
 30
0.0
 11
-93.131
 21
126.3509999999999
 31
0.0
  0
LINE
  5
100
330
A
100
AcDbEntity
  8
PV
  6
Continuous
 62
   254
100
AcDbLine
 10
-92.68300000000001
 20
128.59
 30
0.0
 11
-92.68300000000001
 21
126.3509999999999
 31
0.0
  0
LINE
  5
101
330
A
100
AcDbEntity
  8
PV
  6
Continuous
 62
   254
100
AcDbLine
 10
-80.706
 20
128.59
 30
0.0
 11
-79.69800000000002
 21
128.59
 31
0.0
  0
LINE
  5
102
330
A
100
AcDbEntity
  8
PV
  6
Continuous
 62
   254
100
AcDbLine
 10
-80.706
 20
126.3509999999999
 30
0.0
 11
-79.69800000000002
 21
126.3509999999999
 31
0.0
  0
LINE
  5
103
330
A
100
AcDbEntity
  8
PV
  6
Continuous
 62
   254
100
AcDbLine
 10
-84.06399999999997
 20
128.59
 30
0.0
 11
-83.61600000000001
 21
128.59
 31
0.0
  0
LINE
  5
104
330
A
100
AcDbEntity
  8
PV
  6
Continuous
 62
   254
100
AcDbLine
 10
-84.06399999999997
 20
126.3509999999999
 30
0.0
 11
-83.61600000000001
 21
126.3509999999999
 31
0.0
  0
LINE
  5
105
330
A
100
AcDbEntity
  8
PV
  6
Continuous
 62
   254
100
AcDbLine
 10
-81.339
 20
127.247
 30
0.0
 11
-79.69800000000002
 21
127.247
 31
0.0
  0
LINE
  5
106
330
A
100
AcDbEntity
  8
PV
  6
Continuous
 62
   254
100
AcDbLine
 10
-81.339
 20
127.6939999999999
 30
0.0
 11
-79.69800000000002
 21
127.6939999999999
 31
0.0
  0
LINE
  5
107
330
A
100
AcDbEntity
  8
PV
  6
Continuous
 62
   254
100
AcDbLine
 10
-80.706
 20
126.7989999999999
 30
0.0
 11
-79.69800000000002
 21
126.7989999999999
 31
0.0
  0
LINE
  5
108
330
A
100
AcDbEntity
  8
PV
  6
Continuous
 62
   254
100
AcDbLine
 10
-80.706
 20
128.1419999999999
 30
0.0
 11
-79.69800000000002
 21
128.1419999999999
 31
0.0
  0
LINE
  5
109
330
A
100
AcDbEntity
  8
PV
  6
Continuous
 62
   254
100
AcDbLine
 10
-79.69800000000002
 20
127.6939999999999
 30
0.0
 11
-79.69800000000002
 21
127.247
 31
0.0
  0
LINE
  5
10A
330
A
100
AcDbEntity
  8
PV
  6
Continuous
 62
   254
100
AcDbLine
 10
-79.69800000000002
 20
126.7989999999999
 30
0.0
 11
-79.69800000000002
 21
126.3509999999999
 31
0.0
  0
LINE
  5
10B
330
A
100
AcDbEntity
  8
PV
  6
Continuous
 62
   254
100
AcDbLine
 10
-84.06399999999997
 20
128.59
 30
0.0
 11
-84.06399999999997
 21
126.3509999999999
 31
0.0
  0
LINE
  5
10C
330
A
100
AcDbEntity
  8
PV
  6
Continuous
 62
   254
100
AcDbLine
 10
-83.61600000000001
 20
128.59
 30
0.0
 11
-83.61600000000001
 21
127.804
 31
0.0
  0
LINE
  5
10D
330
A
100
AcDbEntity
  8
PV
  6
Continuous
 62
   254
100
AcDbLine
 10
-93.46700000000002
 20
126.3509999999999
 30
0.0
 11
-94.09499999999999
 21
127.2479999999999
 31
0.0
  0
LINE
  5
10E
330
A
100
AcDbEntity
  8
PV
  6
Continuous
 62
   254
100
AcDbLine
 10
-94.013
 20
126.3509999999999
 30
0.0
 11
-94.641
 21
127.247
 31
0.0
  0
LINE
  5
10F
330
A
100
AcDbEntity
  8
PV
  6
Continuous
 62
   254
100
AcDbLine
 10
-81.713
 20
126.3509999999999
 30
0.0
 11
-82.634
 21
127.9449999999999
 31
0.0
  0
LINE
  5
110
330
A
100
AcDbEntity
  8
PV
  6
Continuous
 62
   254
100
AcDbLine
 10
-81.713
 20
128.59
 30
0.0
 11
-82.634
 21
127.9449999999999
 31
0.0
  0
LINE
  5
111
330
A
100
AcDbEntity
  8
PV
  6
Continuous
 62
   254
100
AcDbLine
 10
-82.49399999999999
 20
128.59
 30
0.0
 11
-83.61600000000001
 21
127.804
 31
0.0
  0
LINE
  5
112
330
A
100
AcDbEntity
  8
PV
  6
Continuous
 62
   254
100
AcDbLine
 10
-82.23
 20
126.3509999999999
 30
0.0
 11
-83.00200000000002
 21
127.688
 31
0.0
  0
LINE
  5
113
330
A
100
AcDbEntity
  8
PV
  6
Continuous
 62
   254
100
AcDbLine
 10
-83.00200000000002
 20
127.688
 30
0.0
 11
-83.61600000000001
 21
127.2569999999999
 31
0.0
  0
LINE
  5
114
330
A
100
AcDbEntity
  8
PV
  6
Continuous
 62
   254
100
AcDbLine
 10
-83.61600000000001
 20
127.2569999999999
 30
0.0
 11
-83.61600000000001
 21
126.3509999999999
 31
0.0
  0
LINE
  5
115
330
A
100
AcDbEntity
  8
PV
  6
Continuous
 62
   254
100
AcDbLine
 10
-82.49399999999999
 20
128.59
 30
0.0
 11
-81.713
 21
128.59
 31
0.0
  0
LINE
  5
116
330
A
100
AcDbEntity
  8
PV
  6
Continuous
 62
   254
100
AcDbLine
 10
-82.23
 20
126.3509999999999
 30
0.0
 11
-81.713
 21
126.3509999999999
 31
0.0
  0
LINE
  5
117
330
A
100
AcDbEntity
  8
PV
  6
Continuous
 62
   254
100
AcDbLine
 10
-72.646
 20
126.3509999999999
 30
0.0
 11
-72.422
 21
126.3509999999999
 31
0.0
  0
LINE
  5
118
330
A
100
AcDbEntity
  8
PV
  6
Continuous
 62
   254
100
AcDbLine
 10
-72.646
 20
128.59
 30
0.0
 11
-72.422
 21
128.59
 31
0.0
  0
LINE
  5
119
330
A
100
AcDbEntity
  8
PV
  6
Continuous
 62
   254
100
AcDbLine
 10
-73.87699999999998
 20
126.354
 30
0.0
 11
-73.87699999999998
 21
126.7989999999999
 31
0.0
  0
LINE
  5
11A
330
A
100
AcDbEntity
  8
PV
  6
Continuous
 62
   254
100
AcDbLine
 10
-72.646
 20
126.7989999999999
 30
0.0
 11
-72.422
 21
126.7989999999999
 31
0.0
  0
LINE
  5
11B
330
A
100
AcDbEntity
  8
PV
  6
Continuous
 62
   254
100
AcDbLine
 10
-72.646
 20
128.1419999999999
 30
0.0
 11
-72.422
 21
128.1419999999999
 31
0.0
  0
LINE
  5
11C
330
A
100
AcDbEntity
  8
PV
  6
Continuous
 62
   254
100
AcDbLine
 10
-88.98899999999997
 20
128.59
 30
0.0
 11
-88.541
 21
128.59
 31
0.0
  0
LINE
  5
11D
330
A
100
AcDbEntity
  8
PV
  6
Continuous
 62
   254
100
AcDbLine
 10
-88.98899999999997
 20
126.3509999999999
 30
0.0
 11
-88.541
 21
126.3509999999999
 31
0.0
  0
LINE
  5
11E
330
A
100
AcDbEntity
  8
PV
  6
Continuous
 62
   254
100
AcDbLine
 10
-88.98899999999997
 20
128.59
 30
0.0
 11
-88.98899999999997
 21
126.3509999999999
 31
0.0
  0
LINE
  5
11F
330
A
100
AcDbEntity
  8
PV
  6
Continuous
 62
   254
100
AcDbLine
 10
-88.541
 20
128.59
 30
0.0
 11
-88.541
 21
127.804
 31
0.0
  0
LINE
  5
120
330
A
100
AcDbEntity
  8
PV
  6
Continuous
 62
   254
100
AcDbLine
 10
-86.63899999999998
 20
126.3509999999999
 30
0.0
 11
-87.559
 21
127.9449999999999
 31
0.0
  0
LINE
  5
121
330
A
100
AcDbEntity
  8
PV
  6
Continuous
 62
   254
100
AcDbLine
 10
-86.638
 20
128.59
 30
0.0
 11
-87.559
 21
127.9449999999999
 31
0.0
  0
LINE
  5
122
330
A
100
AcDbEntity
  8
PV
  6
Continuous
 62
   254
100
AcDbLine
 10
-87.41899999999999
 20
128.59
 30
0.0
 11
-88.541
 21
127.804
 31
0.0
  0
LINE
  5
123
330
A
100
AcDbEntity
  8
PV
  6
Continuous
 62
   254
100
AcDbLine
 10
-87.156
 20
126.3509999999999
 30
0.0
 11
-87.92700000000001
 21
127.688
 31
0.0
  0
LINE
  5
124
330
A
100
AcDbEntity
  8
PV
  6
Continuous
 62
   254
100
AcDbLine
 10
-87.92700000000001
 20
127.688
 30
0.0
 11
-88.541
 21
127.2569999999999
 31
0.0
  0
LINE
  5
125
330
A
100
AcDbEntity
  8
PV
  6
Continuous
 62
   254
100
AcDbLine
 10
-88.541
 20
127.2569999999999
 30
0.0
 11
-88.541
 21
126.3509999999999
 31
0.0
  0
LINE
  5
126
330
A
100
AcDbEntity
  8
PV
  6
Continuous
 62
   254
100
AcDbLine
 10
-87.41899999999999
 20
128.59
 30
0.0
 11
-86.63899999999998
 21
128.59
 31
0.0
  0
LINE
  5
127
330
A
100
AcDbEntity
  8
PV
  6
Continuous
 62
   254
100
AcDbLine
 10
-87.156
 20
126.3509999999999
 30
0.0
 11
-86.63899999999998
 21
126.3509999999999
 31
0.0
  0
LINE
  5
128
330
A
100
AcDbEntity
  8
PV
  6
Continuous
 62
   254
100
AcDbLine
 10
-90.333
 20
128.59
 30
0.0
 11
-90.333
 21
128.1419999999999
 31
0.0
  0
LINE
  5
129
330
A
100
AcDbEntity
  8
PV
  6
Continuous
 62
   254
100
AcDbLine
 10
-91.34
 20
128.59
 30
0.0
 11
-90.333
 21
128.59
 31
0.0
  0
LINE
  5
12A
330
A
100
AcDbEntity
  8
PV
  6
Continuous
 62
   254
100
AcDbLine
 10
-91.34
 20
126.3509999999999
 30
0.0
 11
-90.333
 21
126.3509999999999
 31
0.0
  0
LINE
  5
12B
330
A
100
AcDbEntity
  8
PV
  6
Continuous
 62
   254
100
AcDbLine
 10
-91.973
 20
127.247
 30
0.0
 11
-90.333
 21
127.247
 31
0.0
  0
LINE
  5
12C
330
A
100
AcDbEntity
  8
PV
  6
Continuous
 62
   254
100
AcDbLine
 10
-91.973
 20
127.6939999999999
 30
0.0
 11
-90.333
 21
127.6939999999999
 31
0.0
  0
LINE
  5
12D
330
A
100
AcDbEntity
  8
PV
  6
Continuous
 62
   254
100
AcDbLine
 10
-91.34
 20
126.7989999999999
 30
0.0
 11
-90.333
 21
126.7989999999999
 31
0.0
  0
LINE
  5
12E
330
A
100
AcDbEntity
  8
PV
  6
Continuous
 62
   254
100
AcDbLine
 10
-90.333
 20
127.6939999999999
 30
0.0
 11
-90.333
 21
127.247
 31
0.0
  0
LINE
  5
12F
330
A
100
AcDbEntity
  8
PV
  6
Continuous
 62
   254
100
AcDbLine
 10
-90.333
 20
126.7989999999999
 30
0.0
 11
-90.333
 21
126.3509999999999
 31
0.0
  0
LINE
  5
130
330
A
100
AcDbEntity
  8
PV
  6
Continuous
 62
   254
100
AcDbLine
 10
-74.997
 20
126.3509999999999
 30
0.0
 11
-73.87699999999998
 21
126.3509999999999
 31
0.0
  0
LINE
  5
131
330
A
100
AcDbEntity
  8
PV
  6
Continuous
 62
   254
100
AcDbLine
 10
-74.997
 20
128.59
 30
0.0
 11
-73.87699999999998
 21
128.59
 31
0.0
  0
LINE
  5
132
330
A
100
AcDbEntity
  8
PV
  6
Continuous
 62
   254
100
AcDbLine
 10
-74.997
 20
126.7989999999999
 30
0.0
 11
-73.87699999999998
 21
126.7989999999999
 31
0.0
  0
LINE
  5
133
330
A
100
AcDbEntity
  8
PV
  6
Continuous
 62
   254
100
AcDbLine
 10
-74.997
 20
128.1419999999999
 30
0.0
 11
-73.87699999999998
 21
128.1419999999999
 31
0.0
  0
LINE
  5
134
330
A
100
AcDbEntity
  8
PV
  6
Continuous
 62
   254
100
AcDbLine
 10
-73.87699999999998
 20
128.1419999999999
 30
0.0
 11
-73.87699999999998
 21
128.59
 31
0.0
  0
LINE
  5
135
330
A
100
AcDbEntity
  8
PV
  6
Continuous
 62
   254
100
AcDbLine
 10
-68.95199999999999
 20
126.3509999999999
 30
0.0
 11
-67.833
 21
126.3509999999999
 31
0.0
  0
LINE
  5
136
330
A
100
AcDbEntity
  8
PV
  6
Continuous
 62
   254
100
AcDbLine
 10
-79.35999999999999
 20
126.3509999999999
 30
0.0
 11
-78.915
 21
126.3509999999999
 31
0.0
  0
LINE
  5
137
330
A
100
AcDbEntity
  8
PV
  6
Continuous
 62
   254
100
AcDbLine
 10
-78.355
 20
128.59
 30
0.0
 11
-78.131
 21
128.59
 31
0.0
  0
LINE
  5
138
330
A
100
AcDbEntity
  8
PV
  6
Continuous
 62
   254
100
AcDbLine
 10
-79.36199999999998
 20
127.583
 30
0.0
 11
-79.36199999999998
 21
126.3509999999999
 31
0.0
  0
LINE
  5
139
330
A
100
AcDbEntity
  8
PV
  6
Continuous
 62
   254
100
AcDbLine
 10
-77.12399999999998
 20
127.583
 30
0.0
 11
-77.12399999999998
 21
126.3509999999999
 31
0.0
  0
LINE
  5
13A
330
A
100
AcDbEntity
  8
PV
  6
Continuous
 62
   254
100
AcDbLine
 10
-78.355
 20
128.1419999999999
 30
0.0
 11
-78.131
 21
128.1419999999999
 31
0.0
  0
LINE
  5
13B
330
A
100
AcDbEntity
  8
PV
  6
Continuous
 62
   254
100
AcDbLine
 10
-78.915
 20
127.583
 30
0.0
 11
-78.915
 21
126.3509999999999
 31
0.0
  0
LINE
  5
13C
330
A
100
AcDbEntity
  8
PV
  6
Continuous
 62
   254
100
AcDbLine
 10
-77.571
 20
127.583
 30
0.0
 11
-77.571
 21
126.3509999999999
 31
0.0
  0
LINE
  5
13D
330
A
100
AcDbEntity
  8
PV
  6
Continuous
 62
   254
100
AcDbLine
 10
-77.571
 20
126.3509999999999
 30
0.0
 11
-77.12399999999998
 21
126.3509999999999
 31
0.0
  0
LINE
  5
13E
330
A
100
AcDbEntity
  8
PV
  6
Continuous
 62
   254
100
AcDbLine
 10
-85.631
 20
126.3509999999999
 30
0.0
 11
-85.40700000000002
 21
126.3509999999999
 31
0.0
  0
LINE
  5
13F
330
A
100
AcDbEntity
  8
PV
  6
Continuous
 62
   254
100
AcDbLine
 10
-85.631
 20
128.59
 30
0.0
 11
-85.40700000000002
 21
128.59
 31
0.0
  0
LINE
  5
140
330
A
100
AcDbEntity
  8
PV
  6
Continuous
 62
   254
100
AcDbLine
 10
-85.631
 20
126.7989999999999
 30
0.0
 11
-85.40700000000002
 21
126.7989999999999
 31
0.0
  0
LINE
  5
141
330
A
100
AcDbEntity
  8
PV
  6
Continuous
 62
   254
100
AcDbLine
 10
-70.514
 20
126.015
 30
0.0
 11
-70.148
 21
126.451
 31
0.0
  0
LINE
  5
142
330
A
100
AcDbEntity
  8
PV
  6
Continuous
 62
   254
100
AcDbLine
 10
-70.685
 20
126.1589999999999
 30
0.0
 11
-70.49600000000002
 21
126.385
 31
0.0
  0
LINE
  5
143
330
A
100
AcDbEntity
  8
PV
  6
Continuous
 62
   254
100
AcDbLine
 10
-70.685
 20
126.1589999999999
 30
0.0
 11
-70.514
 21
126.015
 31
0.0
  0
LINE
  5
144
330
A
100
AcDbEntity
  8
PV
  6
Continuous
 62
   254
100
AcDbLine
 10
-69.847
 20
128.59
 30
0.0
 11
-69.847
 21
127.247
 31
0.0
  0
LINE
  5
145
330
A
100
AcDbEntity
  8
PV
  6
Continuous
 62
   254
100
AcDbLine
 10
-67.833
 20
126.7989999999999
 30
0.0
 11
-67.833
 21
126.3509999999999
 31
0.0
  0
LINE
  5
146
330
A
100
AcDbEntity
  8
PV
  6
Continuous
 62
   254
100
AcDbLine
 10
-69.40000000000001
 20
128.59
 30
0.0
 11
-69.40000000000001
 21
127.247
 31
0.0
  0
LINE
  5
147
330
A
100
AcDbEntity
  8
PV
  6
Continuous
 62
   254
100
AcDbLine
 10
-68.95199999999999
 20
126.7989999999999
 30
0.0
 11
-67.833
 21
126.7989999999999
 31
0.0
  0
LINE
  5
148
330
A
100
AcDbEntity
  8
PV
  6
Continuous
 62
   254
100
AcDbLine
 10
-65.594
 20
126.3509999999999
 30
0.0
 11
-64.36199999999999
 21
126.3509999999999
 31
0.0
  0
LINE
  5
149
330
A
100
AcDbEntity
  8
PV
  6
Continuous
 62
   254
100
AcDbLine
 10
-69.847
 20
128.59
 30
0.0
 11
-69.40000000000001
 21
128.59
 31
0.0
  0
LINE
  5
14A
330
A
100
AcDbEntity
  8
PV
  6
Continuous
 62
   254
100
AcDbLine
 10
-68.056
 20
128.59
 30
0.0
 11
-65.818
 21
128.59
 31
0.0
  0
LINE
  5
14B
330
A
100
AcDbEntity
  8
PV
  6
Continuous
 62
   254
100
AcDbLine
 10
-68.056
 20
128.59
 30
0.0
 11
-68.056
 21
128.1419999999999
 31
0.0
  0
LINE
  5
14C
330
A
100
AcDbEntity
  8
PV
  6
Continuous
 62
   254
100
AcDbLine
 10
-65.818
 20
128.59
 30
0.0
 11
-65.818
 21
128.1419999999999
 31
0.0
  0
LINE
  5
14D
330
A
100
AcDbEntity
  8
PV
  6
Continuous
 62
   254
100
AcDbLine
 10
-68.056
 20
128.1419999999999
 30
0.0
 11
-67.161
 21
128.1419999999999
 31
0.0
  0
LINE
  5
14E
330
A
100
AcDbEntity
  8
PV
  6
Continuous
 62
   254
100
AcDbLine
 10
-66.71300000000001
 20
128.1419999999999
 30
0.0
 11
-66.71300000000001
 21
126.3509999999999
 31
0.0
  0
LINE
  5
14F
330
A
100
AcDbEntity
  8
PV
  6
Continuous
 62
   254
100
AcDbLine
 10
-67.161
 20
128.1419999999999
 30
0.0
 11
-67.161
 21
126.3509999999999
 31
0.0
  0
LINE
  5
150
330
A
100
AcDbEntity
  8
PV
  6
Continuous
 62
   254
100
AcDbLine
 10
-65.146
 20
128.1419999999999
 30
0.0
 11
-64.36199999999999
 21
128.1419999999999
 31
0.0
  0
LINE
  5
151
330
A
100
AcDbEntity
  8
PV
  6
Continuous
 62
   254
100
AcDbLine
 10
-65.594
 20
128.59
 30
0.0
 11
-64.36199999999999
 21
128.59
 31
0.0
  0
LINE
  5
152
330
A
100
AcDbEntity
  8
PV
  6
Continuous
 62
   254
100
AcDbLine
 10
-66.71300000000001
 20
128.1419999999999
 30
0.0
 11
-65.818
 21
128.1419999999999
 31
0.0
  0
LINE
  5
153
330
A
100
AcDbEntity
  8
PV
  6
Continuous
 62
   254
100
AcDbLine
 10
-67.161
 20
126.3509999999999
 30
0.0
 11
-66.71300000000001
 21
126.3509999999999
 31
0.0
  0
LINE
  5
154
330
A
100
AcDbEntity
  8
PV
  6
Continuous
 62
   254
100
AcDbLine
 10
-65.594
 20
128.59
 30
0.0
 11
-65.594
 21
127.471
 31
0.0
  0
LINE
  5
155
330
A
100
AcDbEntity
  8
PV
  6
Continuous
 62
   254
100
AcDbLine
 10
-65.146
 20
126.7989999999999
 30
0.0
 11
-64.36199999999999
 21
126.7989999999999
 31
0.0
  0
LINE
  5
156
330
A
100
AcDbEntity
  8
PV
  6
Continuous
 62
   254
100
AcDbLine
 10
-65.146
 20
128.1419999999999
 30
0.0
 11
-65.146
 21
127.471
 31
0.0
  0
LINE
  5
157
330
A
100
AcDbEntity
  8
PV
  6
Continuous
 62
   254
100
AcDbLine
 10
-95.706
 20
127.9179999999999
 30
0.0
 11
-95.706
 21
126.3509999999999
 31
0.0
  0
LINE
  5
158
330
A
100
AcDbEntity
  8
PV
  6
Continuous
 62
   254
100
AcDbLine
 10
-95.258
 20
127.9179999999999
 30
0.0
 11
-95.258
 21
127.6939999999999
 31
0.0
  0
LINE
  5
159
330
A
100
AcDbEntity
  8
PV
  6
Continuous
 62
   254
100
AcDbLine
 10
-65.594
 20
127.471
 30
0.0
 11
-65.594
 21
126.3509999999999
 31
0.0
  0
LINE
  5
15A
330
A
100
AcDbEntity
  8
PV
  6
Continuous
 62
   254
100
AcDbLine
 10
-65.146
 20
127.471
 30
0.0
 11
-65.146
 21
126.7989999999999
 31
0.0
  0
LINE
  5
15B
330
A
100
AcDbEntity
  8
PV
  6
Continuous
 62
   254
100
AcDbLine
 10
-85.631
 20
128.1419999999999
 30
0.0
 11
-85.40700000000002
 21
128.1419999999999
 31
0.0
  0
ARC
  5
15C
330
A
100
AcDbEntity
  8
PV
  6
Continuous
 62
     7
100
AcDbCircle
 10
-84.334
 20
134.416
 30
0.0
 40
0.95
100
AcDbArc
 50
0.0
 51
180.000005
  0
ARC
  5
15D
330
A
100
AcDbEntity
  8
PV
  6
Continuous
 62
     7
100
AcDbCircle
 10
-84.334
 20
134.416
 30
0.0
 40
0.95
100
AcDbArc
 50
179.9999909999999
 51
0.0
  0
ARC
  5
15E
330
A
100
AcDbEntity
  8
PV
  6
Continuous
 62
     7
100
AcDbCircle
 10
-79.375
 20
133.591
 30
0.0
 40
1.774999999999999
100
AcDbArc
 50
90.00000300000001
 51
270.000001
  0
ARC
  5
15F
330
A
100
AcDbEntity
  8
PV
  6
Continuous
 62
     7
100
AcDbCircle
 10
-79.375
 20
133.591
 30
0.0
 40
0.975
100
AcDbArc
 50
90.00000300000001
 51
270.000001
  0
ARC
  5
160
330
A
100
AcDbEntity
  8
PV
  6
Continuous
 62
     7
100
AcDbCircle
 10
-79.375
 20
133.591
 30
0.0
 40
0.975
100
AcDbArc
 50
269.9999969999999
 51
90.00000300000001
  0
ARC
  5
161
330
A
100
AcDbEntity
  8
PV
  6
Continuous
 62
     7
100
AcDbCircle
 10
-76.124
 20
133.591
 30
0.0
 40
1.774999999999999
100
AcDbArc
 50
34.225552
 51
325.774451
  0
ARC
  5
162
330
A
100
AcDbEntity
  8
PV
  6
Continuous
 62
     7
100
AcDbCircle
 10
-74.59899999999997
 20
133.591
 30
0.0
 40
1.0
100
AcDbArc
 50
90.00000300000001
 51
270.000001
  0
ARC
  5
163
330
A
100
AcDbEntity
  8
PV
  6
Continuous
 62
     7
100
AcDbCircle
 10
-74.59899999999997
 20
133.591
 30
0.0
 40
1.0
100
AcDbArc
 50
269.9999969999999
 51
90.00000300000001
  0
ARC
  5
164
330
A
100
AcDbEntity
  8
PV
  6
Continuous
 62
   254
100
AcDbCircle
 10
-94.13899999999999
 20
127.9179999999999
 30
0.0
 40
0.6720000000000002
100
AcDbArc
 50
273.7218359999999
 51
359.999996
  0
ARC
  5
165
330
A
100
AcDbEntity
  8
PV
  6
Continuous
 62
   254
100
AcDbCircle
 10
-94.13899999999999
 20
127.9179999999999
 30
0.0
 40
0.224
100
AcDbArc
 50
270.0000109999999
 51
359.999996
  0
ARC
  5
166
330
A
100
AcDbEntity
  8
PV
  6
Continuous
 62
   254
100
AcDbCircle
 10
-80.706
 20
127.471
 30
0.0
 40
1.118999999999998
100
AcDbArc
 50
89.999975
 51
270.000001
  0
ARC
  5
167
330
A
100
AcDbEntity
  8
PV
  6
Continuous
 62
   254
100
AcDbCircle
 10
-80.706
 20
127.471
 30
0.0
 40
0.6720000000000002
100
AcDbArc
 50
89.999975
 51
160.528775
  0
ARC
  5
168
330
A
100
AcDbEntity
  8
PV
  6
Continuous
 62
   254
100
AcDbCircle
 10
-80.706
 20
127.471
 30
0.0
 40
0.6720000000000002
100
AcDbArc
 50
199.471211
 51
270.0000109999999
  0
ARC
  5
169
330
A
100
AcDbEntity
  8
PV
  6
Continuous
 62
   254
100
AcDbCircle
 10
-72.646
 20
127.471
 30
0.0
 40
1.118999999999998
100
AcDbArc
 50
89.999975
 51
179.99995
  0
ARC
  5
16A
330
A
100
AcDbEntity
  8
PV
  6
Continuous
 62
   254
100
AcDbCircle
 10
-72.422
 20
127.471
 30
0.0
 40
1.118999999999998
100
AcDbArc
 50
270.0000109999999
 51
359.999996
  0
ARC
  5
16B
330
A
100
AcDbEntity
  8
PV
  6
Continuous
 62
   254
100
AcDbCircle
 10
-72.646
 20
127.471
 30
0.0
 40
0.6720000000000002
100
AcDbArc
 50
89.999975
 51
179.99995
  0
ARC
  5
16C
330
A
100
AcDbEntity
  8
PV
  6
Continuous
 62
   254
100
AcDbCircle
 10
-72.422
 20
127.471
 30
0.0
 40
0.6720000000000002
100
AcDbArc
 50
270.0000109999999
 51
359.999996
  0
ARC
  5
16D
330
A
100
AcDbEntity
  8
PV
  6
Continuous
 62
   254
100
AcDbCircle
 10
-91.34
 20
127.471
 30
0.0
 40
1.118999999999998
100
AcDbArc
 50
89.999975
 51
270.000001
  0
ARC
  5
16E
330
A
100
AcDbEntity
  8
PV
  6
Continuous
 62
   254
100
AcDbCircle
 10
-91.34
 20
127.471
 30
0.0
 40
0.6720000000000002
100
AcDbArc
 50
89.999975
 51
160.528775
  0
ARC
  5
16F
330
A
100
AcDbEntity
  8
PV
  6
Continuous
 62
   254
100
AcDbCircle
 10
-91.34
 20
127.471
 30
0.0
 40
0.6720000000000002
100
AcDbArc
 50
199.471211
 51
270.0000109999999
  0
ARC
  5
170
330
A
100
AcDbEntity
  8
PV
  6
Continuous
 62
   254
100
AcDbCircle
 10
-78.355
 20
127.583
 30
0.0
 40
1.007
100
AcDbArc
 50
89.999975
 51
179.99995
  0
ARC
  5
171
330
A
100
AcDbEntity
  8
PV
  6
Continuous
 62
   254
100
AcDbCircle
 10
-78.131
 20
127.583
 30
0.0
 40
1.007
100
AcDbArc
 50
359.999996
 51
89.999975
  0
ARC
  5
172
330
A
100
AcDbEntity
  8
PV
  6
Continuous
 62
   254
100
AcDbCircle
 10
-78.355
 20
127.583
 30
0.0
 40
0.5600000000000001
100
AcDbArc
 50
89.999975
 51
179.99995
  0
ARC
  5
173
330
A
100
AcDbEntity
  8
PV
  6
Continuous
 62
   254
100
AcDbCircle
 10
-78.131
 20
127.583
 30
0.0
 40
0.5600000000000001
100
AcDbArc
 50
359.999996
 51
89.999975
  0
ARC
  5
174
330
A
100
AcDbEntity
  8
PV
  6
Continuous
 62
   254
100
AcDbCircle
 10
-85.631
 20
127.471
 30
0.0
 40
1.118999999999998
100
AcDbArc
 50
89.999975
 51
179.99995
  0
ARC
  5
175
330
A
100
AcDbEntity
  8
PV
  6
Continuous
 62
   254
100
AcDbCircle
 10
-85.40700000000002
 20
127.471
 30
0.0
 40
1.118999999999998
100
AcDbArc
 50
270.0000109999999
 51
359.999996
  0
ARC
  5
176
330
A
100
AcDbEntity
  8
PV
  6
Continuous
 62
   254
100
AcDbCircle
 10
-85.631
 20
127.471
 30
0.0
 40
0.6720000000000002
100
AcDbArc
 50
89.999975
 51
179.99995
  0
ARC
  5
177
330
A
100
AcDbEntity
  8
PV
  6
Continuous
 62
   254
100
AcDbCircle
 10
-85.40700000000002
 20
127.471
 30
0.0
 40
0.6720000000000002
100
AcDbArc
 50
270.0000109999999
 51
359.999996
  0
ARC
  5
178
330
A
100
AcDbEntity
  8
PV
  6
Continuous
 62
   254
100
AcDbCircle
 10
-70.362
 20
126.631
 30
0.0
 40
0.28
100
AcDbArc
 50
319.9999189999998
 51
241.536827
  0
CIRCLE
  5
179
330
A
100
AcDbEntity
  8
PV
  6
Continuous
 62
   254
100
AcDbCircle
 10
-71.07899999999998
 20
126.631
 30
0.0
 40
0.28
  0
ARC
  5
17A
330
A
100
AcDbEntity
  8
PV
  6
Continuous
 62
   254
100
AcDbCircle
 10
-68.95199999999999
 20
127.247
 30
0.0
 40
0.8959999999999999
100
AcDbArc
 50
179.999978
 51
270.000001
  0
ARC
  5
17B
330
A
100
AcDbEntity
  8
PV
  6
Continuous
 62
   254
100
AcDbCircle
 10
-68.95199999999999
 20
127.247
 30
0.0
 40
0.448
100
AcDbArc
 50
179.999978
 51
270.000001
  0
ARC
  5
17C
330
A
100
AcDbEntity
  8
PV
  6
Continuous
 62
   254
100
AcDbCircle
 10
-64.36199999999999
 20
127.471
 30
0.0
 40
1.118999999999998
100
AcDbArc
 50
270.0000109999999
 51
359.999996
  0
ARC
  5
17D
330
A
100
AcDbEntity
  8
PV
  6
Continuous
 62
   254
100
AcDbCircle
 10
-64.36199999999999
 20
127.471
 30
0.0
 40
0.6720000000000002
100
AcDbArc
 50
270.0000109999999
 51
359.999996
  0
ARC
  5
17E
330
A
100
AcDbEntity
  8
PV
  6
Continuous
 62
   254
100
AcDbCircle
 10
-74.997
 20
127.471
 30
0.0
 40
1.118999999999998
100
AcDbArc
 50
89.999975
 51
270.000001
  0
ARC
  5
17F
330
A
100
AcDbEntity
  8
PV
  6
Continuous
 62
   254
100
AcDbCircle
 10
-74.997
 20
127.471
 30
0.0
 40
0.6720000000000002
100
AcDbArc
 50
89.999975
 51
270.000001
  0
ARC
  5
180
330
A
100
AcDbEntity
  8
PV
  6
Continuous
 62
   254
100
AcDbCircle
 10
-94.13899999999999
 20
127.9179999999999
 30
0.0
 40
0.224
100
AcDbArc
 50
359.999996
 51
89.999975
  0
ARC
  5
181
330
A
100
AcDbEntity
  8
PV
  6
Continuous
 62
   254
100
AcDbCircle
 10
-94.13899999999999
 20
127.9179999999999
 30
0.0
 40
0.6720000000000002
100
AcDbArc
 50
359.999996
 51
89.999975
  0
ARC
  5
182
330
A
100
AcDbEntity
  8
PV
  6
Continuous
 62
   254
100
AcDbCircle
 10
-85.40700000000002
 20
127.471
 30
0.0
 40
1.118999999999998
100
AcDbArc
 50
359.999996
 51
89.999975
  0
ARC
  5
183
330
A
100
AcDbEntity
  8
PV
  6
Continuous
 62
   254
100
AcDbCircle
 10
-85.40700000000002
 20
127.471
 30
0.0
 40
0.6720000000000002
100
AcDbArc
 50
359.999996
 51
89.999975
  0
ARC
  5
184
330
A
100
AcDbEntity
  8
PV
  6
Continuous
 62
   254
100
AcDbCircle
 10
-85.631
 20
127.471
 30
0.0
 40
0.6720000000000002
100
AcDbArc
 50
179.999978
 51
270.000001
  0
ARC
  5
185
330
A
100
AcDbEntity
  8
PV
  6
Continuous
 62
   254
100
AcDbCircle
 10
-85.631
 20
127.471
 30
0.0
 40
1.118999999999998
100
AcDbArc
 50
179.999978
 51
270.000001
  0
ARC
  5
186
330
A
100
AcDbEntity
  8
PV
  6
Continuous
 62
   254
100
AcDbCircle
 10
-72.646
 20
127.471
 30
0.0
 40
1.118999999999998
100
AcDbArc
 50
179.999978
 51
270.000001
  0
ARC
  5
187
330
A
100
AcDbEntity
  8
PV
  6
Continuous
 62
   254
100
AcDbCircle
 10
-72.646
 20
127.471
 30
0.0
 40
0.6720000000000002
100
AcDbArc
 50
179.999978
 51
270.000001
  0
ARC
  5
188
330
A
100
AcDbEntity
  8
PV
  6
Continuous
 62
   254
100
AcDbCircle
 10
-72.422
 20
127.471
 30
0.0
 40
0.6720000000000002
100
AcDbArc
 50
359.999996
 51
89.999975
  0
ARC
  5
189
330
A
100
AcDbEntity
  8
PV
  6
Continuous
 62
   254
100
AcDbCircle
 10
-72.422
 20
127.471
 30
0.0
 40
1.118999999999998
100
AcDbArc
 50
359.999996
 51
89.999975
  0
ARC
  5
18A
330
A
100
AcDbEntity
  8
PV
  6
Continuous
 62
   254
100
AcDbCircle
 10
-64.36199999999999
 20
127.471
 30
0.0
 40
0.6720000000000002
100
AcDbArc
 50
359.999996
 51
90.00003000000003
  0
ARC
  5
18B
330
A
100
AcDbEntity
  8
PV
  6
Continuous
 62
   254
100
AcDbCircle
 10
-64.36199999999999
 20
127.471
 30
0.0
 40
1.118999999999998
100
AcDbArc
 50
359.999996
 51
90.00003000000003
  0
CIRCLE
  5
18C
330
A
100
AcDbEntity
  8
PV
  6
Continuous
 62
     7
100
AcDbCircle
 10
-80.0
 20
108.006
 30
0.0
 40
31.5
  0
CIRCLE
  5
18D
330
A
100
AcDbEntity
  8
PV
  6
Continuous
 62
     7
100
AcDbCircle
 10
-80.0
 20
108.006
 30
0.0
 40
31.25
  0
MTEXT
  5
18E
330
A
100
AcDbEntity
  8
PV
  6
Continuous
 62
     7
100
AcDbMText
 10
-79.997
 20
100.0929999999998
 30
0.0
 40
2.6
 41
0.0
 71
     2
 72
     1
  1
\W0.925;\A1;HIGH VACUUM VALVES
 73
     1
 44
1.0
  0
MTEXT
  5
18F
330
A
100
AcDbEntity
  8
PV
  6
Continuous
 62
     7
100
AcDbMText
 10
-79.637
 20
93.506
 30
0.0
 40
2.6
 41
0.0
 71
     2
 72
     1
  1
\W0.930;\A1;METAL BELLOWS
 73
     1
 44
1.0
  0
MTEXT
  5
190
330
A
100
AcDbEntity
  8
PV
  6
Continuous
 62
     7
100
AcDbMText
 10
-80.363
 20
86.22200000000002
 30
0.0
 40
1.5
 41
0.0
 71
     2
 72
     1
  1
\W0.980;\A1;MADE IN JAPAN
 73
     1
 44
1.0
  0
SOLID
  5
191
330
A
100
AcDbEntity
  8
PV
  6
Continuous
 62
     7
100
AcDbTrace
 10
-82.70000000000001
 20
131.8159999999999
 30
0.0
 11
-81.15
 21
131.8159999999999
 31
0.0
 12
-82.70000000000001
 22
135.366
 32
0.0
 13
-81.15
 23
135.366
 33
0.0
  0
SOLID
  5
192
330
A
100
AcDbEntity
  8
PV
  6
Continuous
 62
     7
100
AcDbTrace
 10
-96.60099999999999
 20
126.3509999999999
 30
0.0
 11
-96.15300000000001
 21
126.3509999999999
 31
0.0
 12
-96.60099999999999
 22
128.59
 32
0.0
 13
-96.15300000000001
 23
128.59
 33
0.0
  0
SOLID
  5
193
330
A
100
AcDbEntity
  8
PV
  6
Continuous
 62
     7
100
AcDbTrace
 10
-93.131
 20
126.3509999999999
 30
0.0
 11
-92.68300000000001
 21
126.3509999999999
 31
0.0
 12
-93.131
 22
128.59
 32
0.0
 13
-92.68300000000001
 23
128.59
 33
0.0
  0
LINE
  5
194
330
A
100
AcDbEntity
  8
PV
  6
Continuous
 62
     7
100
AcDbLine
 10
-54.977
 20
116.006
 30
0.0
 11
-53.748
 21
116.006
 31
0.0
  0
LINE
  5
195
330
A
100
AcDbEntity
  8
PV
  6
Continuous
 62
     7
100
AcDbLine
 10
-59.628
 20
116.006
 30
0.0
 11
-57.495
 21
116.006
 31
0.0
  0
LINE
  5
196
330
A
100
AcDbEntity
  8
PV
  6
Continuous
 62
     7
100
AcDbLine
 10
-62.475
 20
116.006
 30
0.0
 11
-61.98199999999999
 21
116.006
 31
0.0
  0
LINE
  5
197
330
A
100
AcDbEntity
  8
PV
  6
Continuous
 62
     7
100
AcDbLine
 10
-64.98000000000001
 20
116.006
 30
0.0
 11
-64.50499999999999
 21
116.006
 31
0.0
  0
LINE
  5
198
330
A
100
AcDbEntity
  8
PV
  6
Continuous
 62
     7
100
AcDbLine
 10
-68.44
 20
116.006
 30
0.0
 11
-67.965
 21
116.006
 31
0.0
  0
LINE
  5
199
330
A
100
AcDbEntity
  8
PV
  6
Continuous
 62
     7
100
AcDbLine
 10
-72.733
 20
116.006
 30
0.0
 11
-72.182
 21
116.006
 31
0.0
  0
LINE
  5
19A
330
A
100
AcDbEntity
  8
PV
  6
Continuous
 62
     7
100
AcDbLine
 10
-75.975
 20
116.006
 30
0.0
 11
-75.482
 21
116.006
 31
0.0
  0
LINE
  5
19B
330
A
100
AcDbEntity
  8
PV
  6
Continuous
 62
     7
100
AcDbLine
 10
-78.48
 20
116.006
 30
0.0
 11
-78.00499999999998
 21
116.006
 31
0.0
  0
LINE
  5
19C
330
A
100
AcDbEntity
  8
PV
  6
Continuous
 62
     7
100
AcDbLine
 10
-85.18799999999997
 20
116.006
 30
0.0
 11
-83.055
 21
116.006
 31
0.0
  0
LINE
  5
19D
330
A
100
AcDbEntity
  8
PV
  6
Continuous
 62
     7
100
AcDbLine
 10
-89.8
 20
116.006
 30
0.0
 11
-89.325
 21
116.006
 31
0.0
  0
LINE
  5
19E
330
A
100
AcDbEntity
  8
PV
  6
Continuous
 62
     7
100
AcDbLine
 10
-94.687
 20
116.006
 30
0.0
 11
-93.665
 21
116.006
 31
0.0
  0
LINE
  5
19F
330
A
100
AcDbEntity
  8
PV
  6
Continuous
 62
     7
100
AcDbLine
 10
-98.259
 20
116.006
 30
0.0
 11
-97.795
 21
116.006
 31
0.0
  0
LINE
  5
1A0
330
A
100
AcDbEntity
  8
PV
  6
Continuous
 62
     7
100
AcDbLine
 10
-100.896
 20
116.006
 30
0.0
 11
-100.4379999999998
 21
116.006
 31
0.0
  0
LINE
  5
1A1
330
A
100
AcDbEntity
  8
PV
  6
Continuous
 62
     7
100
AcDbLine
 10
-105.4929999999999
 20
116.006
 30
0.0
 11
-104.942
 21
116.006
 31
0.0
  0
LINE
  5
1A2
330
A
100
AcDbEntity
  8
PV
  6
Continuous
 62
     7
100
AcDbLine
 10
-55.61399999999999
 20
115.006
 30
0.0
 11
-55.19
 21
115.006
 31
0.0
  0
LINE
  5
1A3
330
A
100
AcDbEntity
  8
PV
  6
Continuous
 62
     7
100
AcDbLine
 10
-59.805
 20
115.006
 30
0.0
 11
-59.33600000000001
 21
115.006
 31
0.0
  0
LINE
  5
1A4
330
A
100
AcDbEntity
  8
PV
  6
Continuous
 62
     7
100
AcDbLine
 10
-62.839
 20
115.006
 30
0.0
 11
-62.346
 21
115.006
 31
0.0
  0
LINE
  5
1A5
330
A
100
AcDbEntity
  8
PV
  6
Continuous
 62
     7
100
AcDbLine
 10
-64.80299999999999
 20
115.006
 30
0.0
 11
-64.329
 21
115.006
 31
0.0
  0
LINE
  5
1A6
330
A
100
AcDbEntity
  8
PV
  6
Continuous
 62
     7
100
AcDbLine
 10
-68.617
 20
115.006
 30
0.0
 11
-68.14199999999999
 21
115.006
 31
0.0
  0
LINE
  5
1A7
330
A
100
AcDbEntity
  8
PV
  6
Continuous
 62
     7
100
AcDbLine
 10
-72.38600000000002
 20
115.006
 30
0.0
 11
-71.914
 21
115.006
 31
0.0
  0
LINE
  5
1A8
330
A
100
AcDbEntity
  8
PV
  6
Continuous
 62
     7
100
AcDbLine
 10
-73.09699999999998
 20
115.006
 30
0.0
 11
-72.611
 21
115.006
 31
0.0
  0
LINE
  5
1A9
330
A
100
AcDbEntity
  8
PV
  6
Continuous
 62
     7
100
AcDbLine
 10
-76.339
 20
115.006
 30
0.0
 11
-75.846
 21
115.006
 31
0.0
  0
LINE
  5
1AA
330
A
100
AcDbEntity
  8
PV
  6
Continuous
 62
     7
100
AcDbLine
 10
-78.303
 20
115.006
 30
0.0
 11
-77.82899999999997
 21
115.006
 31
0.0
  0
LINE
  5
1AB
330
A
100
AcDbEntity
  8
PV
  6
Continuous
 62
     7
100
AcDbLine
 10
-85.365
 20
115.006
 30
0.0
 11
-84.89600000000001
 21
115.006
 31
0.0
  0
LINE
  5
1AC
330
A
100
AcDbEntity
  8
PV
  6
Continuous
 62
     7
100
AcDbLine
 10
-89.977
 20
115.006
 30
0.0
 11
-89.502
 21
115.006
 31
0.0
  0
LINE
  5
1AD
330
A
100
AcDbEntity
  8
PV
  6
Continuous
 62
     7
100
AcDbLine
 10
-93.08699999999999
 20
115.006
 30
0.0
 11
-92.52799999999998
 21
115.006
 31
0.0
  0
LINE
  5
1AE
330
A
100
AcDbEntity
  8
PV
  6
Continuous
 62
     7
100
AcDbLine
 10
-95.90799999999999
 20
115.006
 30
0.0
 11
-95.325
 21
115.006
 31
0.0
  0
LINE
  5
1AF
330
A
100
AcDbEntity
  8
PV
  6
Continuous
 62
     7
100
AcDbLine
 10
-98.43600000000002
 20
115.006
 30
0.0
 11
-97.971
 21
115.006
 31
0.0
  0
LINE
  5
1B0
330
A
100
AcDbEntity
  8
PV
  6
Continuous
 62
     7
100
AcDbLine
 10
-100.5349999999999
 20
115.006
 30
0.0
 11
-100.014
 21
115.006
 31
0.0
  0
LINE
  5
1B1
330
A
100
AcDbEntity
  8
PV
  6
Continuous
 62
     7
100
AcDbLine
 10
-101.072
 20
115.006
 30
0.0
 11
-100.591
 21
115.006
 31
0.0
  0
LINE
  5
1B2
330
A
100
AcDbEntity
  8
PV
  6
Continuous
 62
     7
100
AcDbLine
 10
-105.146
 20
115.006
 30
0.0
 11
-104.674
 21
115.006
 31
0.0
  0
LINE
  5
1B3
330
A
100
AcDbEntity
  8
PV
  6
Continuous
 62
     7
100
AcDbLine
 10
-105.857
 20
115.006
 30
0.0
 11
-105.371
 21
115.006
 31
0.0
  0
LINE
  5
1B4
330
A
100
AcDbEntity
  8
PV
  6
Continuous
 62
     7
100
AcDbLine
 10
-55.328
 20
114.006
 30
0.0
 11
-54.295
 21
114.006
 31
0.0
  0
LINE
  5
1B5
330
A
100
AcDbEntity
  8
PV
  6
Continuous
 62
     7
100
AcDbLine
 10
-59.981
 20
114.006
 30
0.0
 11
-57.848
 21
114.006
 31
0.0
  0
LINE
  5
1B6
330
A
100
AcDbEntity
  8
PV
  6
Continuous
 62
     7
100
AcDbLine
 10
-63.203
 20
114.006
 30
0.0
 11
-62.71
 21
114.006
 31
0.0
  0
LINE
  5
1B7
330
A
100
AcDbEntity
  8
PV
  6
Continuous
 62
     7
100
AcDbLine
 10
-64.62699999999999
 20
114.006
 30
0.0
 11
-64.152
 21
114.006
 31
0.0
  0
LINE
  5
1B8
330
A
100
AcDbEntity
  8
PV
  6
Continuous
 62
     7
100
AcDbLine
 10
-68.793
 20
114.006
 30
0.0
 11
-68.318
 21
114.006
 31
0.0
  0
LINE
  5
1B9
330
A
100
AcDbEntity
  8
PV
  6
Continuous
 62
     7
100
AcDbLine
 10
-72.118
 20
114.006
 30
0.0
 11
-71.646
 21
114.006
 31
0.0
  0
LINE
  5
1BA
330
A
100
AcDbEntity
  8
PV
  6
Continuous
 62
     7
100
AcDbLine
 10
-73.46099999999998
 20
114.006
 30
0.0
 11
-72.97499999999998
 21
114.006
 31
0.0
  0
LINE
  5
1BB
330
A
100
AcDbEntity
  8
PV
  6
Continuous
 62
     7
100
AcDbLine
 10
-76.70300000000001
 20
114.006
 30
0.0
 11
-76.20999999999998
 21
114.006
 31
0.0
  0
LINE
  5
1BC
330
A
100
AcDbEntity
  8
PV
  6
Continuous
 62
     7
100
AcDbLine
 10
-78.12699999999998
 20
114.006
 30
0.0
 11
-77.652
 21
114.006
 31
0.0
  0
LINE
  5
1BD
330
A
100
AcDbEntity
  8
PV
  6
Continuous
 62
     7
100
AcDbLine
 10
-85.541
 20
114.006
 30
0.0
 11
-83.40799999999999
 21
114.006
 31
0.0
  0
LINE
  5
1BE
330
A
100
AcDbEntity
  8
PV
  6
Continuous
 62
     7
100
AcDbLine
 10
-90.15300000000001
 20
114.006
 30
0.0
 11
-89.678
 21
114.006
 31
0.0
  0
LINE
  5
1BF
330
A
100
AcDbEntity
  8
PV
  6
Continuous
 62
     7
100
AcDbLine
 10
-96.241
 20
114.006
 30
0.0
 11
-95.75499999999999
 21
114.006
 31
0.0
  0
LINE
  5
1C0
330
A
100
AcDbEntity
  8
PV
  6
Continuous
 62
     7
100
AcDbLine
 10
-98.612
 20
114.006
 30
0.0
 11
-98.14700000000001
 21
114.006
 31
0.0
  0
LINE
  5
1C1
330
A
100
AcDbEntity
  8
PV
  6
Continuous
 62
     7
100
AcDbLine
 10
-100.111
 20
114.006
 30
0.0
 11
-99.58899999999999
 21
114.006
 31
0.0
  0
LINE
  5
1C2
330
A
100
AcDbEntity
  8
PV
  6
Continuous
 62
     7
100
AcDbLine
 10
-101.2479999999999
 20
114.006
 30
0.0
 11
-100.7679999999999
 21
114.006
 31
0.0
  0
LINE
  5
1C3
330
A
100
AcDbEntity
  8
PV
  6
Continuous
 62
     7
100
AcDbLine
 10
-104.8779999999998
 20
114.006
 30
0.0
 11
-104.4059999999999
 21
114.006
 31
0.0
  0
LINE
  5
1C4
330
A
100
AcDbEntity
  8
PV
  6
Continuous
 62
     7
100
AcDbLine
 10
-106.221
 20
114.006
 30
0.0
 11
-105.735
 21
114.006
 31
0.0
  0
LINE
  5
1C5
330
A
100
AcDbEntity
  8
PV
  6
Continuous
 62
     7
100
AcDbLine
 10
-54.022
 20
113.006
 30
0.0
 11
-53.596
 21
113.006
 31
0.0
  0
LINE
  5
1C6
330
A
100
AcDbEntity
  8
PV
  6
Continuous
 62
     7
100
AcDbLine
 10
-60.15699999999998
 20
113.006
 30
0.0
 11
-59.68899999999999
 21
113.006
 31
0.0
  0
LINE
  5
1C7
330
A
100
AcDbEntity
  8
PV
  6
Continuous
 62
     7
100
AcDbLine
 10
-63.567
 20
113.006
 30
0.0
 11
-63.074
 21
113.006
 31
0.0
  0
LINE
  5
1C8
330
A
100
AcDbEntity
  8
PV
  6
Continuous
 62
     7
100
AcDbLine
 10
-64.451
 20
113.006
 30
0.0
 11
-63.976
 21
113.006
 31
0.0
  0
LINE
  5
1C9
330
A
100
AcDbEntity
  8
PV
  6
Continuous
 62
     7
100
AcDbLine
 10
-68.96899999999999
 20
113.006
 30
0.0
 11
-68.494
 21
113.006
 31
0.0
  0
LINE
  5
1CA
330
A
100
AcDbEntity
  8
PV
  6
Continuous
 62
     7
100
AcDbLine
 10
-71.84999999999998
 20
113.006
 30
0.0
 11
-71.378
 21
113.006
 31
0.0
  0
LINE
  5
1CB
330
A
100
AcDbEntity
  8
PV
  6
Continuous
 62
     7
100
AcDbLine
 10
-73.825
 20
113.006
 30
0.0
 11
-73.33899999999998
 21
113.006
 31
0.0
  0
LINE
  5
1CC
330
A
100
AcDbEntity
  8
PV
  6
Continuous
 62
     7
100
AcDbLine
 10
-77.06699999999997
 20
113.006
 30
0.0
 11
-76.57399999999999
 21
113.006
 31
0.0
  0
LINE
  5
1CD
330
A
100
AcDbEntity
  8
PV
  6
Continuous
 62
     7
100
AcDbLine
 10
-77.95100000000002
 20
113.006
 30
0.0
 11
-77.476
 21
113.006
 31
0.0
  0
LINE
  5
1CE
330
A
100
AcDbEntity
  8
PV
  6
Continuous
 62
     7
100
AcDbLine
 10
-85.71700000000001
 20
113.006
 30
0.0
 11
-85.249
 21
113.006
 31
0.0
  0
LINE
  5
1CF
330
A
100
AcDbEntity
  8
PV
  6
Continuous
 62
     7
100
AcDbLine
 10
-90.32899999999999
 20
113.006
 30
0.0
 11
-89.854
 21
113.006
 31
0.0
  0
LINE
  5
1D0
330
A
100
AcDbEntity
  8
PV
  6
Continuous
 62
     7
100
AcDbLine
 10
-92.96699999999999
 20
113.006
 30
0.0
 11
-92.445
 21
113.006
 31
0.0
  0
LINE
  5
1D1
330
A
100
AcDbEntity
  8
PV
  6
Continuous
 62
     7
100
AcDbLine
 10
-96.162
 20
113.006
 30
0.0
 11
-95.65600000000001
 21
113.006
 31
0.0
  0
LINE
  5
1D2
330
A
100
AcDbEntity
  8
PV
  6
Continuous
 62
     7
100
AcDbLine
 10
-98.788
 20
113.006
 30
0.0
 11
-98.32399999999999
 21
113.006
 31
0.0
  0
LINE
  5
1D3
330
A
100
AcDbEntity
  8
PV
  6
Continuous
 62
     7
100
AcDbLine
 10
-99.68600000000002
 20
113.006
 30
0.0
 11
-99.165
 21
113.006
 31
0.0
  0
LINE
  5
1D4
330
A
100
AcDbEntity
  8
PV
  6
Continuous
 62
     7
100
AcDbLine
 10
-101.424
 20
113.006
 30
0.0
 11
-100.944
 21
113.006
 31
0.0
  0
LINE
  5
1D5
330
A
100
AcDbEntity
  8
PV
  6
Continuous
 62
     7
100
AcDbLine
 10
-104.61
 20
113.006
 30
0.0
 11
-104.1379999999999
 21
113.006
 31
0.0
  0
LINE
  5
1D6
330
A
100
AcDbEntity
  8
PV
  6
Continuous
 62
     7
100
AcDbLine
 10
-106.5849999999999
 20
113.006
 30
0.0
 11
-106.0989999999998
 21
113.006
 31
0.0
  0
LINE
  5
1D7
330
A
100
AcDbEntity
  8
PV
  6
Continuous
 62
     7
100
AcDbLine
 10
-54.481
 20
112.006
 30
0.0
 11
-53.848
 21
112.006
 31
0.0
  0
LINE
  5
1D8
330
A
100
AcDbEntity
  8
PV
  6
Continuous
 62
     7
100
AcDbLine
 10
-55.837
 20
112.006
 30
0.0
 11
-55.20399999999999
 21
112.006
 31
0.0
  0
LINE
  5
1D9
330
A
100
AcDbEntity
  8
PV
  6
Continuous
 62
     7
100
AcDbLine
 10
-60.334
 20
112.006
 30
0.0
 11
-59.865
 21
112.006
 31
0.0
  0
LINE
  5
1DA
330
A
100
AcDbEntity
  8
PV
  6
Continuous
 62
     7
100
AcDbLine
 10
-64.274
 20
112.006
 30
0.0
 11
-63.438
 21
112.006
 31
0.0
  0
LINE
  5
1DB
330
A
100
AcDbEntity
  8
PV
  6
Continuous
 62
     7
100
AcDbLine
 10
-69.146
 20
112.006
 30
0.0
 11
-66.675
 21
112.006
 31
0.0
  0
LINE
  5
1DC
330
A
100
AcDbEntity
  8
PV
  6
Continuous
 62
     7
100
AcDbLine
 10
-71.58199999999998
 20
112.006
 30
0.0
 11
-71.11
 21
112.006
 31
0.0
  0
LINE
  5
1DD
330
A
100
AcDbEntity
  8
PV
  6
Continuous
 62
     7
100
AcDbLine
 10
-74.188
 20
112.006
 30
0.0
 11
-73.703
 21
112.006
 31
0.0
  0
LINE
  5
1DE
330
A
100
AcDbEntity
  8
PV
  6
Continuous
 62
     7
100
AcDbLine
 10
-77.774
 20
112.006
 30
0.0
 11
-76.938
 21
112.006
 31
0.0
  0
LINE
  5
1DF
330
A
100
AcDbEntity
  8
PV
  6
Continuous
 62
     7
100
AcDbLine
 10
-85.89399999999997
 20
112.006
 30
0.0
 11
-85.425
 21
112.006
 31
0.0
  0
LINE
  5
1E0
330
A
100
AcDbEntity
  8
PV
  6
Continuous
 62
     7
100
AcDbLine
 10
-90.50600000000001
 20
112.006
 30
0.0
 11
-88.03499999999997
 21
112.006
 31
0.0
  0
LINE
  5
1E1
330
A
100
AcDbEntity
  8
PV
  6
Continuous
 62
     7
100
AcDbLine
 10
-95.55200000000001
 20
112.006
 30
0.0
 11
-93.139
 21
112.006
 31
0.0
  0
LINE
  5
1E2
330
A
100
AcDbEntity
  8
PV
  6
Continuous
 62
     7
100
AcDbLine
 10
-99.26200000000001
 20
112.006
 30
0.0
 11
-98.50000000000001
 21
112.006
 31
0.0
  0
LINE
  5
1E3
330
A
100
AcDbEntity
  8
PV
  6
Continuous
 62
     7
100
AcDbLine
 10
-101.601
 20
112.006
 30
0.0
 11
-101.12
 21
112.006
 31
0.0
  0
LINE
  5
1E4
330
A
100
AcDbEntity
  8
PV
  6
Continuous
 62
     7
100
AcDbLine
 10
-104.342
 20
112.006
 30
0.0
 11
-103.8699999999999
 21
112.006
 31
0.0
  0
LINE
  5
1E5
330
A
100
AcDbEntity
  8
PV
  6
Continuous
 62
     7
100
AcDbLine
 10
-106.949
 20
112.006
 30
0.0
 11
-106.4629999999999
 21
112.006
 31
0.0
  0
LINE
  5
1E6
330
A
100
AcDbEntity
  8
PV
  6
Continuous
 62
     7
100
AcDbLine
 10
-101.685
 20
111.531
 30
0.0
 11
-101.204
 21
111.531
 31
0.0
  0
LINE
  5
1E7
330
A
100
AcDbEntity
  8
PV
  6
Continuous
 62
     7
100
AcDbLine
 10
-100.8809999999999
 20
116.091
 30
0.0
 11
-100.4739999999999
 21
116.091
 31
0.0
  0
LINE
  5
1E8
330
A
100
AcDbEntity
  8
PV
  6
Continuous
 62
     7
100
AcDbLine
 10
-98.58400000000001
 20
111.531
 30
0.0
 11
-97.78
 21
116.091
 31
0.0
  0
LINE
  5
1E9
330
A
100
AcDbEntity
  8
PV
  6
Continuous
 62
     7
100
AcDbLine
 10
-98.899
 20
112.3789999999999
 30
0.0
 11
-98.244
 21
116.091
 31
0.0
  0
LINE
  5
1EA
330
A
100
AcDbEntity
  8
PV
  6
Continuous
 62
     7
100
AcDbLine
 10
-101.204
 20
111.531
 30
0.0
 11
-100.575
 21
115.1
 31
0.0
  0
LINE
  5
1EB
330
A
100
AcDbEntity
  8
PV
  6
Continuous
 62
     7
100
AcDbLine
 10
-101.685
 20
111.531
 30
0.0
 11
-100.8809999999999
 21
116.091
 31
0.0
  0
LINE
  5
1EC
330
A
100
AcDbEntity
  8
PV
  6
Continuous
 62
     7
100
AcDbLine
 10
-100.575
 20
115.1
 30
0.0
 11
-99.06
 21
111.531
 31
0.0
  0
LINE
  5
1ED
330
A
100
AcDbEntity
  8
PV
  6
Continuous
 62
     7
100
AcDbLine
 10
-100.4739999999999
 20
116.091
 30
0.0
 11
-98.899
 21
112.3789999999999
 31
0.0
  0
LINE
  5
1EE
330
A
100
AcDbEntity
  8
PV
  6
Continuous
 62
     7
100
AcDbLine
 10
-99.06
 20
111.531
 30
0.0
 11
-98.58400000000001
 21
111.531
 31
0.0
  0
LINE
  5
1EF
330
A
100
AcDbEntity
  8
PV
  6
Continuous
 62
     7
100
AcDbLine
 10
-98.244
 20
116.091
 30
0.0
 11
-97.78
 21
116.091
 31
0.0
  0
LINE
  5
1F0
330
A
100
AcDbEntity
  8
PV
  6
Continuous
 62
     7
100
AcDbLine
 10
-93.663
 20
113.811
 30
0.0
 11
-92.28199999999999
 21
113.811
 31
0.0
  0
LINE
  5
1F1
330
A
100
AcDbEntity
  8
PV
  6
Continuous
 62
     7
100
AcDbLine
 10
-92.833
 20
114.4679999999999
 30
0.0
 11
-92.38100000000001
 21
114.632
 31
0.0
  0
LINE
  5
1F2
330
A
100
AcDbEntity
  8
PV
  6
Continuous
 62
     7
100
AcDbLine
 10
-93.74299999999999
 20
113.355
 30
0.0
 11
-93.663
 21
113.811
 31
0.0
  0
LINE
  5
1F3
330
A
100
AcDbEntity
  8
PV
  6
Continuous
 62
     7
100
AcDbLine
 10
-93.74299999999999
 20
113.355
 30
0.0
 11
-92.83599999999999
 21
113.355
 31
0.0
  0
LINE
  5
1F4
330
A
100
AcDbEntity
  8
PV
  6
Continuous
 62
     7
100
AcDbLine
 10
-107.121
 20
111.531
 30
0.0
 11
-106.636
 21
111.531
 31
0.0
  0
LINE
  5
1F5
330
A
100
AcDbEntity
  8
PV
  6
Continuous
 62
     7
100
AcDbLine
 10
-105.462
 20
116.091
 30
0.0
 11
-104.9649999999999
 21
116.091
 31
0.0
  0
LINE
  5
1F6
330
A
100
AcDbEntity
  8
PV
  6
Continuous
 62
     7
100
AcDbLine
 10
-107.121
 20
111.531
 30
0.0
 11
-105.462
 21
116.091
 31
0.0
  0
LINE
  5
1F7
330
A
100
AcDbEntity
  8
PV
  6
Continuous
 62
     7
100
AcDbLine
 10
-106.636
 20
111.531
 30
0.0
 11
-106.284
 21
112.4989999999999
 31
0.0
  0
LINE
  5
1F8
330
A
100
AcDbEntity
  8
PV
  6
Continuous
 62
     7
100
AcDbLine
 10
-104.9649999999999
 20
116.091
 30
0.0
 11
-103.743
 21
111.531
 31
0.0
  0
LINE
  5
1F9
330
A
100
AcDbEntity
  8
PV
  6
Continuous
 62
     7
100
AcDbLine
 10
-105.242
 20
115.3629999999999
 30
0.0
 11
-104.601
 21
112.9739999999999
 31
0.0
  0
LINE
  5
1FA
330
A
100
AcDbEntity
  8
PV
  6
Continuous
 62
     7
100
AcDbLine
 10
-104.215
 20
111.531
 30
0.0
 11
-103.743
 21
111.531
 31
0.0
  0
LINE
  5
1FB
330
A
100
AcDbEntity
  8
PV
  6
Continuous
 62
     7
100
AcDbLine
 10
-106.284
 20
112.4989999999999
 30
0.0
 11
-104.474
 21
112.4989999999999
 31
0.0
  0
LINE
  5
1FC
330
A
100
AcDbEntity
  8
PV
  6
Continuous
 62
     7
100
AcDbLine
 10
-106.1109999999999
 20
112.9739999999999
 30
0.0
 11
-104.601
 21
112.9739999999999
 31
0.0
  0
LINE
  5
1FD
330
A
100
AcDbEntity
  8
PV
  6
Continuous
 62
     7
100
AcDbLine
 10
-106.1109999999999
 20
112.9739999999999
 30
0.0
 11
-105.242
 21
115.3629999999999
 31
0.0
  0
LINE
  5
1FE
330
A
100
AcDbEntity
  8
PV
  6
Continuous
 62
     7
100
AcDbLine
 10
-104.474
 20
112.4989999999999
 30
0.0
 11
-104.215
 21
111.531
 31
0.0
  0
LINE
  5
1FF
330
A
100
AcDbEntity
  8
PV
  6
Continuous
 62
     7
100
AcDbLine
 10
-90.58899999999999
 20
111.531
 30
0.0
 11
-88.11899999999999
 21
111.531
 31
0.0
  0
LINE
  5
200
330
A
100
AcDbEntity
  8
PV
  6
Continuous
 62
     7
100
AcDbLine
 10
-89.785
 20
116.091
 30
0.0
 11
-89.31
 21
116.091
 31
0.0
  0
LINE
  5
201
330
A
100
AcDbEntity
  8
PV
  6
Continuous
 62
     7
100
AcDbLine
 10
-88.11899999999999
 20
111.531
 30
0.0
 11
-88.03299999999998
 21
112.016
 31
0.0
  0
LINE
  5
202
330
A
100
AcDbEntity
  8
PV
  6
Continuous
 62
     7
100
AcDbLine
 10
-90.58899999999999
 20
111.531
 30
0.0
 11
-89.785
 21
116.091
 31
0.0
  0
LINE
  5
203
330
A
100
AcDbEntity
  8
PV
  6
Continuous
 62
     7
100
AcDbLine
 10
-90.029
 20
112.016
 30
0.0
 11
-89.31
 21
116.091
 31
0.0
  0
LINE
  5
204
330
A
100
AcDbEntity
  8
PV
  6
Continuous
 62
     7
100
AcDbLine
 10
-90.029
 20
112.016
 30
0.0
 11
-88.03299999999998
 21
112.016
 31
0.0
  0
LINE
  5
205
330
A
100
AcDbEntity
  8
PV
  6
Continuous
 62
     7
100
AcDbLine
 10
-85.17299999999998
 20
116.091
 30
0.0
 11
-83.04
 21
116.091
 31
0.0
  0
LINE
  5
206
330
A
100
AcDbEntity
  8
PV
  6
Continuous
 62
     7
100
AcDbLine
 10
-85.97799999999997
 20
111.531
 30
0.0
 11
-83.84399999999997
 21
111.531
 31
0.0
  0
LINE
  5
207
330
A
100
AcDbEntity
  8
PV
  6
Continuous
 62
     7
100
AcDbLine
 10
-85.97799999999997
 20
111.531
 30
0.0
 11
-85.17299999999998
 21
116.091
 31
0.0
  0
LINE
  5
208
330
A
100
AcDbEntity
  8
PV
  6
Continuous
 62
     7
100
AcDbLine
 10
-83.84399999999997
 20
111.531
 30
0.0
 11
-83.76299999999998
 21
111.995
 31
0.0
  0
LINE
  5
209
330
A
100
AcDbEntity
  8
PV
  6
Continuous
 62
     7
100
AcDbLine
 10
-85.15
 20
113.565
 30
0.0
 11
-83.48600000000002
 21
113.565
 31
0.0
  0
LINE
  5
20A
330
A
100
AcDbEntity
  8
PV
  6
Continuous
 62
     7
100
AcDbLine
 10
-85.067
 20
114.036
 30
0.0
 11
-83.40299999999997
 21
114.036
 31
0.0
  0
LINE
  5
20B
330
A
100
AcDbEntity
  8
PV
  6
Continuous
 62
     7
100
AcDbLine
 10
-84.793
 20
115.59
 30
0.0
 11
-83.12899999999997
 21
115.59
 31
0.0
  0
LINE
  5
20C
330
A
100
AcDbEntity
  8
PV
  6
Continuous
 62
     7
100
AcDbLine
 10
-85.42700000000001
 20
111.995
 30
0.0
 11
-83.76299999999998
 21
111.995
 31
0.0
  0
LINE
  5
20D
330
A
100
AcDbEntity
  8
PV
  6
Continuous
 62
     7
100
AcDbLine
 10
-85.42700000000001
 20
111.995
 30
0.0
 11
-85.15
 21
113.565
 31
0.0
  0
LINE
  5
20E
330
A
100
AcDbEntity
  8
PV
  6
Continuous
 62
     7
100
AcDbLine
 10
-83.48600000000002
 20
113.565
 30
0.0
 11
-83.40299999999997
 21
114.036
 31
0.0
  0
LINE
  5
20F
330
A
100
AcDbEntity
  8
PV
  6
Continuous
 62
     7
100
AcDbLine
 10
-83.12899999999997
 20
115.59
 30
0.0
 11
-83.04
 21
116.091
 31
0.0
  0
LINE
  5
210
330
A
100
AcDbEntity
  8
PV
  6
Continuous
 62
     7
100
AcDbLine
 10
-85.067
 20
114.036
 30
0.0
 11
-84.793
 21
115.59
 31
0.0
  0
LINE
  5
211
330
A
100
AcDbEntity
  8
PV
  6
Continuous
 62
     7
100
AcDbLine
 10
-74.361
 20
111.531
 30
0.0
 11
-73.876
 21
111.531
 31
0.0
  0
LINE
  5
212
330
A
100
AcDbEntity
  8
PV
  6
Continuous
 62
     7
100
AcDbLine
 10
-72.70199999999999
 20
116.091
 30
0.0
 11
-72.205
 21
116.091
 31
0.0
  0
LINE
  5
213
330
A
100
AcDbEntity
  8
PV
  6
Continuous
 62
     7
100
AcDbLine
 10
-74.361
 20
111.531
 30
0.0
 11
-72.70199999999999
 21
116.091
 31
0.0
  0
LINE
  5
214
330
A
100
AcDbEntity
  8
PV
  6
Continuous
 62
     7
100
AcDbLine
 10
-73.876
 20
111.531
 30
0.0
 11
-73.524
 21
112.4989999999999
 31
0.0
  0
LINE
  5
215
330
A
100
AcDbEntity
  8
PV
  6
Continuous
 62
     7
100
AcDbLine
 10
-72.205
 20
116.091
 30
0.0
 11
-70.983
 21
111.531
 31
0.0
  0
LINE
  5
216
330
A
100
AcDbEntity
  8
PV
  6
Continuous
 62
     7
100
AcDbLine
 10
-72.482
 20
115.3629999999999
 30
0.0
 11
-71.841
 21
112.9739999999999
 31
0.0
  0
LINE
  5
217
330
A
100
AcDbEntity
  8
PV
  6
Continuous
 62
     7
100
AcDbLine
 10
-71.455
 20
111.531
 30
0.0
 11
-70.983
 21
111.531
 31
0.0
  0
LINE
  5
218
330
A
100
AcDbEntity
  8
PV
  6
Continuous
 62
     7
100
AcDbLine
 10
-73.524
 20
112.4989999999999
 30
0.0
 11
-71.714
 21
112.4989999999999
 31
0.0
  0
LINE
  5
219
330
A
100
AcDbEntity
  8
PV
  6
Continuous
 62
     7
100
AcDbLine
 10
-73.351
 20
112.9739999999999
 30
0.0
 11
-71.841
 21
112.9739999999999
 31
0.0
  0
LINE
  5
21A
330
A
100
AcDbEntity
  8
PV
  6
Continuous
 62
     7
100
AcDbLine
 10
-73.351
 20
112.9739999999999
 30
0.0
 11
-72.482
 21
115.3629999999999
 31
0.0
  0
LINE
  5
21B
330
A
100
AcDbEntity
  8
PV
  6
Continuous
 62
     7
100
AcDbLine
 10
-71.714
 20
112.4989999999999
 30
0.0
 11
-71.455
 21
111.531
 31
0.0
  0
LINE
  5
21C
330
A
100
AcDbEntity
  8
PV
  6
Continuous
 62
     7
100
AcDbLine
 10
-69.229
 20
111.531
 30
0.0
 11
-66.759
 21
111.531
 31
0.0
  0
LINE
  5
21D
330
A
100
AcDbEntity
  8
PV
  6
Continuous
 62
     7
100
AcDbLine
 10
-68.425
 20
116.091
 30
0.0
 11
-67.95
 21
116.091
 31
0.0
  0
LINE
  5
21E
330
A
100
AcDbEntity
  8
PV
  6
Continuous
 62
     7
100
AcDbLine
 10
-59.613
 20
116.091
 30
0.0
 11
-57.48
 21
116.091
 31
0.0
  0
LINE
  5
21F
330
A
100
AcDbEntity
  8
PV
  6
Continuous
 62
     7
100
AcDbLine
 10
-60.418
 20
111.531
 30
0.0
 11
-58.284
 21
111.531
 31
0.0
  0
LINE
  5
220
330
A
100
AcDbEntity
  8
PV
  6
Continuous
 62
     7
100
AcDbLine
 10
-66.759
 20
111.531
 30
0.0
 11
-66.673
 21
112.016
 31
0.0
  0
LINE
  5
221
330
A
100
AcDbEntity
  8
PV
  6
Continuous
 62
     7
100
AcDbLine
 10
-69.229
 20
111.531
 30
0.0
 11
-68.425
 21
116.091
 31
0.0
  0
LINE
  5
222
330
A
100
AcDbEntity
  8
PV
  6
Continuous
 62
     7
100
AcDbLine
 10
-68.669
 20
112.016
 30
0.0
 11
-67.95
 21
116.091
 31
0.0
  0
LINE
  5
223
330
A
100
AcDbEntity
  8
PV
  6
Continuous
 62
     7
100
AcDbLine
 10
-68.669
 20
112.016
 30
0.0
 11
-66.673
 21
112.016
 31
0.0
  0
LINE
  5
224
330
A
100
AcDbEntity
  8
PV
  6
Continuous
 62
     7
100
AcDbLine
 10
-60.418
 20
111.531
 30
0.0
 11
-59.613
 21
116.091
 31
0.0
  0
LINE
  5
225
330
A
100
AcDbEntity
  8
PV
  6
Continuous
 62
     7
100
AcDbLine
 10
-58.284
 20
111.531
 30
0.0
 11
-58.203
 21
111.995
 31
0.0
  0
LINE
  5
226
330
A
100
AcDbEntity
  8
PV
  6
Continuous
 62
     7
100
AcDbLine
 10
-59.59
 20
113.565
 30
0.0
 11
-57.926
 21
113.565
 31
0.0
  0
LINE
  5
227
330
A
100
AcDbEntity
  8
PV
  6
Continuous
 62
     7
100
AcDbLine
 10
-59.507
 20
114.036
 30
0.0
 11
-57.843
 21
114.036
 31
0.0
  0
LINE
  5
228
330
A
100
AcDbEntity
  8
PV
  6
Continuous
 62
     7
100
AcDbLine
 10
-59.23300000000001
 20
115.59
 30
0.0
 11
-57.56899999999999
 21
115.59
 31
0.0
  0
LINE
  5
229
330
A
100
AcDbEntity
  8
PV
  6
Continuous
 62
     7
100
AcDbLine
 10
-59.86699999999999
 20
111.995
 30
0.0
 11
-58.203
 21
111.995
 31
0.0
  0
LINE
  5
22A
330
A
100
AcDbEntity
  8
PV
  6
Continuous
 62
     7
100
AcDbLine
 10
-59.86699999999999
 20
111.995
 30
0.0
 11
-59.59
 21
113.565
 31
0.0
  0
LINE
  5
22B
330
A
100
AcDbEntity
  8
PV
  6
Continuous
 62
     7
100
AcDbLine
 10
-57.926
 20
113.565
 30
0.0
 11
-57.843
 21
114.036
 31
0.0
  0
LINE
  5
22C
330
A
100
AcDbEntity
  8
PV
  6
Continuous
 62
     7
100
AcDbLine
 10
-57.56899999999999
 20
115.59
 30
0.0
 11
-57.48
 21
116.091
 31
0.0
  0
LINE
  5
22D
330
A
100
AcDbEntity
  8
PV
  6
Continuous
 62
     7
100
AcDbLine
 10
-59.507
 20
114.036
 30
0.0
 11
-59.23300000000001
 21
115.59
 31
0.0
  0
LINE
  5
22E
330
A
100
AcDbEntity
  8
PV
  6
Continuous
 62
     7
100
AcDbLine
 10
-64.191
 20
111.531
 30
0.0
 11
-63.611
 21
111.531
 31
0.0
  0
LINE
  5
22F
330
A
100
AcDbEntity
  8
PV
  6
Continuous
 62
     7
100
AcDbLine
 10
-64.99500000000001
 20
116.091
 30
0.0
 11
-64.51999999999999
 21
116.091
 31
0.0
  0
LINE
  5
230
330
A
100
AcDbEntity
  8
PV
  6
Continuous
 62
     7
100
AcDbLine
 10
-63.611
 20
111.531
 30
0.0
 11
-61.951
 21
116.091
 31
0.0
  0
LINE
  5
231
330
A
100
AcDbEntity
  8
PV
  6
Continuous
 62
     7
100
AcDbLine
 10
-63.84199999999999
 20
112.2489999999999
 30
0.0
 11
-62.44399999999998
 21
116.091
 31
0.0
  0
LINE
  5
232
330
A
100
AcDbEntity
  8
PV
  6
Continuous
 62
     7
100
AcDbLine
 10
-64.51999999999999
 20
116.091
 30
0.0
 11
-63.84199999999999
 21
112.2489999999999
 31
0.0
  0
LINE
  5
233
330
A
100
AcDbEntity
  8
PV
  6
Continuous
 62
     7
100
AcDbLine
 10
-64.99500000000001
 20
116.091
 30
0.0
 11
-64.191
 21
111.531
 31
0.0
  0
LINE
  5
234
330
A
100
AcDbEntity
  8
PV
  6
Continuous
 62
     7
100
AcDbLine
 10
-62.44399999999998
 20
116.091
 30
0.0
 11
-61.951
 21
116.091
 31
0.0
  0
LINE
  5
235
330
A
100
AcDbEntity
  8
PV
  6
Continuous
 62
     7
100
AcDbLine
 10
-77.691
 20
111.531
 30
0.0
 11
-77.111
 21
111.531
 31
0.0
  0
LINE
  5
236
330
A
100
AcDbEntity
  8
PV
  6
Continuous
 62
     7
100
AcDbLine
 10
-78.495
 20
116.091
 30
0.0
 11
-78.01999999999998
 21
116.091
 31
0.0
  0
LINE
  5
237
330
A
100
AcDbEntity
  8
PV
  6
Continuous
 62
     7
100
AcDbLine
 10
-77.111
 20
111.531
 30
0.0
 11
-75.45100000000002
 21
116.091
 31
0.0
  0
LINE
  5
238
330
A
100
AcDbEntity
  8
PV
  6
Continuous
 62
     7
100
AcDbLine
 10
-77.342
 20
112.2489999999999
 30
0.0
 11
-75.944
 21
116.091
 31
0.0
  0
LINE
  5
239
330
A
100
AcDbEntity
  8
PV
  6
Continuous
 62
     7
100
AcDbLine
 10
-78.01999999999998
 20
116.091
 30
0.0
 11
-77.342
 21
112.2489999999999
 31
0.0
  0
LINE
  5
23A
330
A
100
AcDbEntity
  8
PV
  6
Continuous
 62
     7
100
AcDbLine
 10
-78.495
 20
116.091
 30
0.0
 11
-77.691
 21
111.531
 31
0.0
  0
LINE
  5
23B
330
A
100
AcDbEntity
  8
PV
  6
Continuous
 62
     7
100
AcDbLine
 10
-75.944
 20
116.091
 30
0.0
 11
-75.45100000000002
 21
116.091
 31
0.0
  0
LINE
  5
23C
330
A
100
AcDbEntity
  8
PV
  6
Continuous
 62
     7
100
AcDbLine
 10
-56.045
 20
112.4249999999999
 30
0.0
 11
-55.667
 21
112.6429999999998
 31
0.0
  0
LINE
  5
23D
330
A
100
AcDbEntity
  8
PV
  6
Continuous
 62
     7
100
AcDbLine
 10
-53.15999999999998
 20
115.247
 30
0.0
 11
-53.538
 21
115.0279999999999
 31
0.0
  0
LINE
  5
23E
330
A
100
AcDbEntity
  8
PV
  6
Continuous
 62
     7
100
AcDbLine
 10
-54.861
 20
113.641
 30
0.0
 11
-54.381
 21
113.569
 31
0.0
  0
LINE
  5
23F
330
A
100
AcDbEntity
  8
PV
  6
Continuous
 62
     7
100
AcDbLine
 10
-54.816
 20
114.098
 30
0.0
 11
-54.344
 21
114.03
 31
0.0
  0
LWPOLYLINE
  5
240
330
A
100
AcDbEntity
  8
PV
  6
Continuous
 62
     7
100
AcDbPolyline
 90
      113
 70
     0
 43
0.0
 10
-93.87300000000001
 20
116.057
 10
-93.95799999999999
 20
116.0689999999999
 10
-94.045
 20
116.0779999999999
 10
-94.131
 20
116.082
 10
-94.21800000000001
 20
116.082
 10
-94.304
 20
116.0779999999999
 10
-94.39100000000001
 20
116.0689999999999
 10
-94.47799999999999
 20
116.056
 10
-94.564
 20
116.039
 10
-94.649
 20
116.017
 10
-94.73399999999999
 20
115.9909999999999
 10
-94.81799999999999
 20
115.962
 10
-94.90099999999999
 20
115.928
 10
-94.98299999999998
 20
115.89
 10
-95.06300000000001
 20
115.8479999999999
 10
-95.142
 20
115.802
 10
-95.219
 20
115.752
 10
-95.294
 20
115.6989999999999
 10
-95.36799999999999
 20
115.642
 10
-95.43899999999998
 20
115.582
 10
-95.508
 20
115.5179999999998
 10
-95.575
 20
115.451
 10
-95.639
 20
115.381
 10
-95.701
 20
115.3079999999998
 10
-95.76
 20
115.232
 10
-95.81599999999999
 20
115.1529999999999
 10
-95.86899999999999
 20
115.0719999999999
 10
-95.919
 20
114.988
 10
-95.966
 20
114.9019999999999
 10
-96.01
 20
114.8139999999999
 10
-96.05
 20
114.7239999999999
 10
-96.087
 20
114.633
 10
-96.12099999999999
 20
114.54
 10
-96.15099999999999
 20
114.4449999999999
 10
-96.17700000000001
 20
114.3489999999999
 10
-96.2
 20
114.2529999999998
 10
-96.219
 20
114.155
 10
-96.234
 20
114.057
 10
-96.246
 20
113.958
 10
-96.254
 20
113.8589999999999
 10
-96.25799999999999
 20
113.76
 10
-96.25799999999999
 20
113.661
 10
-96.255
 20
113.562
 10
-96.248
 20
113.464
 10
-96.23699999999999
 20
113.366
 10
-96.22199999999999
 20
113.27
 10
-96.204
 20
113.1739999999999
 10
-96.181
 20
113.0789999999999
 10
-96.156
 20
112.986
 10
-96.126
 20
112.8949999999999
 10
-96.09300000000001
 20
112.8049999999999
 10
-96.057
 20
112.717
 10
-96.01700000000001
 20
112.6309999999999
 10
-95.97399999999998
 20
112.5479999999999
 10
-95.928
 20
112.467
 10
-95.87799999999999
 20
112.3879999999999
 10
-95.82599999999999
 20
112.312
 10
-95.76999999999999
 20
112.2389999999999
 10
-95.71200000000001
 20
112.169
 10
-95.65099999999999
 20
112.102
 10
-95.58699999999999
 20
112.0389999999999
 10
-95.52100000000001
 20
111.9779999999999
 10
-95.45199999999999
 20
111.922
 10
-95.381
 20
111.8679999999999
 10
-95.30800000000001
 20
111.819
 10
-95.23299999999997
 20
111.7729999999999
 10
-95.156
 20
111.731
 10
-95.07800000000001
 20
111.6929999999999
 10
-94.99700000000002
 20
111.66
 10
-94.916
 20
111.63
 10
-94.83299999999999
 20
111.6039999999999
 10
-94.74999999999999
 20
111.583
 10
-94.66500000000001
 20
111.566
 10
-94.579
 20
111.5529999999999
 10
-94.49299999999999
 20
111.5439999999999
 10
-94.40699999999999
 20
111.54
 10
-94.32
 20
111.54
 10
-94.23300000000001
 20
111.545
 10
-94.14700000000001
 20
111.5529999999999
 10
-94.06
 20
111.566
 10
-93.97400000000001
 20
111.584
 10
-93.88899999999999
 20
111.6049999999999
 10
-93.80399999999999
 20
111.631
 10
-93.71999999999999
 20
111.661
 10
-93.63699999999999
 20
111.6949999999998
 10
-93.55500000000001
 20
111.7329999999999
 10
-93.475
 20
111.775
 10
-93.396
 20
111.8209999999999
 10
-93.319
 20
111.87
 10
-93.244
 20
111.9229999999999
 10
-93.17
 20
111.98
 10
-93.09899999999997
 20
112.0409999999999
 10
-93.03
 20
112.105
 10
-92.963
 20
112.172
 10
-92.89900000000001
 20
112.2419999999999
 10
-92.83700000000001
 20
112.315
 10
-92.778
 20
112.391
 10
-92.72199999999999
 20
112.4689999999999
 10
-92.66899999999999
 20
112.551
 10
-92.619
 20
112.634
 10
-92.572
 20
112.7199999999999
 10
-92.52799999999998
 20
112.8079999999999
 10
-92.48800000000001
 20
112.898
 10
-92.451
 20
112.9899999999999
 10
-92.41699999999999
 20
113.083
 10
-92.38699999999999
 20
113.177
 10
-92.361
 20
113.273
 10
-92.338
 20
113.37
 10
-92.31900000000001
 20
113.467
 10
-92.30400000000001
 20
113.566
 10
-92.292
 20
113.664
 10
-92.28399999999998
 20
113.7629999999999
 10
-92.28199999999999
 20
113.811
  0
LWPOLYLINE
  5
241
330
A
100
AcDbEntity
  8
PV
  6
Continuous
 62
     7
100
AcDbPolyline
 90
       26
 70
     0
 43
0.0
 10
-92.38100000000001
 20
114.633
 10
-92.382
 20
114.636
 10
-92.412
 20
114.728
 10
-92.445
 20
114.817
 10
-92.481
 20
114.905
 10
-92.521
 20
114.9909999999999
 10
-92.56399999999999
 20
115.075
 10
-92.61000000000001
 20
115.156
 10
-92.66
 20
115.2339999999999
 10
-92.712
 20
115.31
 10
-92.76799999999999
 20
115.3829999999999
 10
-92.826
 20
115.4529999999999
 10
-92.887
 20
115.52
 10
-92.95099999999999
 20
115.5839999999999
 10
-93.01700000000002
 20
115.6439999999999
 10
-93.086
 20
115.701
 10
-93.15699999999999
 20
115.754
 10
-93.23
 20
115.8039999999999
 10
-93.305
 20
115.849
 10
-93.382
 20
115.891
 10
-93.46
 20
115.929
 10
-93.54
 20
115.9629999999999
 10
-93.62199999999999
 20
115.992
 10
-93.70499999999999
 20
116.0179999999999
 10
-93.788
 20
116.039
 10
-93.87300000000001
 20
116.057
  0
LWPOLYLINE
  5
242
330
A
100
AcDbEntity
  8
PV
  6
Continuous
 62
     7
100
AcDbPolyline
 90
       94
 70
     0
 43
0.0
 10
-56.04600000000001
 20
112.426
 10
-56.044
 20
112.42
 10
-56.027
 20
112.366
 10
-56.00699999999999
 20
112.312
 10
-55.985
 20
112.26
 10
-55.96
 20
112.2079999999999
 10
-55.93399999999999
 20
112.157
 10
-55.905
 20
112.1079999999998
 10
-55.875
 20
112.06
 10
-55.842
 20
112.0139999999999
 10
-55.80799999999999
 20
111.969
 10
-55.772
 20
111.926
 10
-55.73399999999999
 20
111.884
 10
-55.69399999999999
 20
111.8439999999999
 10
-55.652
 20
111.806
 10
-55.60999999999999
 20
111.7699999999999
 10
-55.56499999999999
 20
111.736
 10
-55.52
 20
111.704
 10
-55.47299999999999
 20
111.6739999999999
 10
-55.424
 20
111.647
 10
-55.375
 20
111.621
 10
-55.325
 20
111.5979999999999
 10
-55.274
 20
111.577
 10
-55.221
 20
111.559
 10
-55.16899999999999
 20
111.542
 10
-55.115
 20
111.5289999999999
 10
-55.061
 20
111.517
 10
-55.007
 20
111.509
 10
-54.952
 20
111.502
 10
-54.898
 20
111.4989999999999
 10
-54.84300000000001
 20
111.497
 10
-54.788
 20
111.4989999999999
 10
-54.733
 20
111.502
 10
-54.678
 20
111.509
 10
-54.62399999999998
 20
111.517
 10
-54.57
 20
111.5289999999999
 10
-54.516
 20
111.542
 10
-54.464
 20
111.559
 10
-54.412
 20
111.577
 10
-54.35999999999999
 20
111.5979999999999
 10
-54.31
 20
111.621
 10
-54.261
 20
111.647
 10
-54.213
 20
111.6739999999999
 10
-54.166
 20
111.704
 10
-54.11999999999999
 20
111.736
 10
-54.076
 20
111.7699999999999
 10
-54.033
 20
111.806
 10
-53.991
 20
111.8439999999999
 10
-53.95199999999999
 20
111.884
 10
-53.91399999999999
 20
111.926
 10
-53.87699999999998
 20
111.969
 10
-53.843
 20
112.0139999999999
 10
-53.81
 20
112.06
 10
-53.78
 20
112.1079999999998
 10
-53.751
 20
112.157
 10
-53.725
 20
112.2079999999999
 10
-53.701
 20
112.26
 10
-53.678
 20
112.312
 10
-53.65899999999999
 20
112.366
 10
-53.641
 20
112.42
 10
-53.625
 20
112.4759999999999
 10
-53.612
 20
112.532
 10
-53.60199999999998
 20
112.5879999999999
 10
-53.59300000000001
 20
112.6449999999999
 10
-53.58699999999998
 20
112.702
 10
-53.58399999999999
 20
112.76
 10
-53.58299999999999
 20
112.817
 10
-53.58399999999999
 20
112.8749999999999
 10
-53.58699999999998
 20
112.932
 10
-53.59300000000001
 20
112.9899999999999
 10
-53.60199999999998
 20
113.047
 10
-53.612
 20
113.1029999999999
 10
-53.625
 20
113.1589999999998
 10
-53.641
 20
113.2139999999999
 10
-53.65899999999999
 20
113.2689999999999
 10
-53.678
 20
113.3229999999999
 10
-53.701
 20
113.375
 10
-53.725
 20
113.427
 10
-53.751
 20
113.477
 10
-53.78
 20
113.527
 10
-53.81
 20
113.575
 10
-53.843
 20
113.621
 10
-53.87699999999998
 20
113.666
 10
-53.91399999999999
 20
113.709
 10
-53.95199999999999
 20
113.751
 10
-53.991
 20
113.7909999999999
 10
-54.033
 20
113.829
 10
-54.076
 20
113.8649999999999
 10
-54.11999999999999
 20
113.8989999999999
 10
-54.166
 20
113.931
 10
-54.213
 20
113.961
 10
-54.261
 20
113.988
 10
-54.31
 20
114.0139999999999
 10
-54.344
 20
114.029
  0
LWPOLYLINE
  5
243
330
A
100
AcDbEntity
  8
PV
  6
Continuous
 62
     7
100
AcDbPolyline
 90
       94
 70
     0
 43
0.0
 10
-53.159
 20
115.246
 10
-53.161
 20
115.251
 10
-53.17899999999998
 20
115.305
 10
-53.198
 20
115.3589999999999
 10
-53.221
 20
115.412
 10
-53.245
 20
115.464
 10
-53.271
 20
115.514
 10
-53.3
 20
115.5629999999999
 10
-53.33
 20
115.6109999999999
 10
-53.363
 20
115.6579999999999
 10
-53.397
 20
115.703
 10
-53.43399999999999
 20
115.746
 10
-53.472
 20
115.787
 10
-53.511
 20
115.827
 10
-53.553
 20
115.8649999999999
 10
-53.596
 20
115.901
 10
-53.64
 20
115.935
 10
-53.686
 20
115.967
 10
-53.733
 20
115.997
 10
-53.781
 20
116.025
 10
-53.83
 20
116.05
 10
-53.88
 20
116.074
 10
-53.932
 20
116.0939999999999
 10
-53.98399999999998
 20
116.1129999999999
 10
-54.036
 20
116.1289999999999
 10
-54.09
 20
116.1429999999999
 10
-54.144
 20
116.154
 10
-54.198
 20
116.1629999999999
 10
-54.253
 20
116.1689999999999
 10
-54.308
 20
116.1729999999999
 10
-54.363
 20
116.1739999999999
 10
-54.418
 20
116.1729999999999
 10
-54.472
 20
116.1689999999999
 10
-54.527
 20
116.1629999999999
 10
-54.581
 20
116.154
 10
-54.63499999999999
 20
116.1429999999999
 10
-54.68899999999999
 20
116.1289999999999
 10
-54.741
 20
116.1129999999999
 10
-54.793
 20
116.0939999999999
 10
-54.845
 20
116.074
 10
-54.895
 20
116.05
 10
-54.94399999999998
 20
116.025
 10
-54.993
 20
115.997
 10
-55.04
 20
115.967
 10
-55.085
 20
115.935
 10
-55.13
 20
115.901
 10
-55.17199999999998
 20
115.8649999999999
 10
-55.21399999999999
 20
115.827
 10
-55.254
 20
115.787
 10
-55.292
 20
115.746
 10
-55.328
 20
115.703
 10
-55.362
 20
115.6579999999999
 10
-55.395
 20
115.6109999999999
 10
-55.425
 20
115.5629999999999
 10
-55.45399999999999
 20
115.514
 10
-55.48
 20
115.464
 10
-55.50399999999999
 20
115.412
 10
-55.527
 20
115.3589999999999
 10
-55.547
 20
115.305
 10
-55.564
 20
115.251
 10
-55.57999999999999
 20
115.196
 10
-55.593
 20
115.1399999999999
 10
-55.603
 20
115.083
 10
-55.61199999999999
 20
115.026
 10
-55.618
 20
114.9689999999999
 10
-55.621
 20
114.912
 10
-55.623
 20
114.854
 10
-55.621
 20
114.796
 10
-55.618
 20
114.7389999999999
 10
-55.61199999999999
 20
114.6819999999999
 10
-55.603
 20
114.6249999999999
 10
-55.593
 20
114.568
 10
-55.57999999999999
 20
114.512
 10
-55.564
 20
114.457
 10
-55.547
 20
114.4029999999998
 10
-55.527
 20
114.3489999999999
 10
-55.50399999999999
 20
114.296
 10
-55.48
 20
114.2449999999999
 10
-55.45399999999999
 20
114.1939999999999
 10
-55.425
 20
114.145
 10
-55.395
 20
114.097
 10
-55.362
 20
114.05
 10
-55.328
 20
114.006
 10
-55.292
 20
113.962
 10
-55.254
 20
113.921
 10
-55.21399999999999
 20
113.881
 10
-55.17199999999998
 20
113.8429999999999
 10
-55.13
 20
113.807
 10
-55.085
 20
113.7729999999999
 10
-55.04
 20
113.741
 10
-54.993
 20
113.711
 10
-54.94399999999998
 20
113.683
 10
-54.895
 20
113.6579999999999
 10
-54.862
 20
113.642
  0
LINE
  5
244
330
A
100
AcDbEntity
  8
PV
  6
Continuous
 62
     7
100
AcDbLine
 10
-49.0
 20
135.542
 30
0.0
 11
-46.0
 21
137.274
 31
0.0
  0
LINE
  5
245
330
A
100
AcDbEntity
  8
PV
  6
Continuous
 62
     7
100
AcDbLine
 10
-52.0
 20
140.738
 30
0.0
 11
-49.0
 21
142.471
 31
0.0
  0
LINE
  5
246
330
A
100
AcDbEntity
  8
PV
  6
Continuous
 62
     7
100
AcDbLine
 10
-46.0
 20
140.738
 30
0.0
 11
-46.0
 21
137.274
 31
0.0
  0
LINE
  5
247
330
A
100
AcDbEntity
  8
PV
  6
Continuous
 62
     7
100
AcDbLine
 10
-52.0
 20
140.738
 30
0.0
 11
-52.0
 21
137.274
 31
0.0
  0
LINE
  5
248
330
A
100
AcDbEntity
  8
PV
  6
Continuous
 62
     7
100
AcDbLine
 10
-49.0
 20
142.471
 30
0.0
 11
-46.0
 21
140.738
 31
0.0
  0
LINE
  5
249
330
A
100
AcDbEntity
  8
PV
  6
Continuous
 62
     7
100
AcDbLine
 10
-52.0
 20
137.274
 30
0.0
 11
-49.0
 21
135.542
 31
0.0
  0
CIRCLE
  5
24A
330
A
100
AcDbEntity
  8
PV
  6
Continuous
 62
     7
100
AcDbCircle
 10
-49.0
 20
139.006
 30
0.0
 40
6.5
  0
CIRCLE
  5
24B
330
A
100
AcDbEntity
  8
PV
  6
Continuous
 62
     7
100
AcDbCircle
 10
-49.0
 20
139.006
 30
0.0
 40
5.633999999999998
  0
LINE
  5
24C
330
A
100
AcDbEntity
  8
PV
  6
Continuous
 62
     7
100
AcDbLine
 10
-111.0
 20
135.542
 30
0.0
 11
-108.0
 21
137.274
 31
0.0
  0
LINE
  5
24D
330
A
100
AcDbEntity
  8
PV
  6
Continuous
 62
     7
100
AcDbLine
 10
-114.0
 20
140.738
 30
0.0
 11
-111.0
 21
142.471
 31
0.0
  0
LINE
  5
24E
330
A
100
AcDbEntity
  8
PV
  6
Continuous
 62
     7
100
AcDbLine
 10
-108.0
 20
140.738
 30
0.0
 11
-108.0
 21
137.274
 31
0.0
  0
LINE
  5
24F
330
A
100
AcDbEntity
  8
PV
  6
Continuous
 62
     7
100
AcDbLine
 10
-114.0
 20
140.738
 30
0.0
 11
-114.0
 21
137.274
 31
0.0
  0
LINE
  5
250
330
A
100
AcDbEntity
  8
PV
  6
Continuous
 62
     7
100
AcDbLine
 10
-111.0
 20
142.471
 30
0.0
 11
-108.0
 21
140.738
 31
0.0
  0
LINE
  5
251
330
A
100
AcDbEntity
  8
PV
  6
Continuous
 62
     7
100
AcDbLine
 10
-114.0
 20
137.274
 30
0.0
 11
-111.0
 21
135.542
 31
0.0
  0
CIRCLE
  5
252
330
A
100
AcDbEntity
  8
PV
  6
Continuous
 62
     7
100
AcDbCircle
 10
-111.0
 20
139.006
 30
0.0
 40
6.5
  0
CIRCLE
  5
253
330
A
100
AcDbEntity
  8
PV
  6
Continuous
 62
     7
100
AcDbCircle
 10
-111.0
 20
139.006
 30
0.0
 40
5.633999999999998
  0
LINE
  5
254
330
A
100
AcDbEntity
  8
PV
  6
Continuous
 62
     7
100
AcDbLine
 10
-111.0
 20
135.542
 30
0.0
 11
-108.0
 21
137.274
 31
0.0
  0
LINE
  5
255
330
A
100
AcDbEntity
  8
PV
  6
Continuous
 62
     7
100
AcDbLine
 10
-114.0
 20
140.738
 30
0.0
 11
-111.0
 21
142.471
 31
0.0
  0
LINE
  5
256
330
A
100
AcDbEntity
  8
PV
  6
Continuous
 62
     7
100
AcDbLine
 10
-108.0
 20
140.738
 30
0.0
 11
-108.0
 21
137.274
 31
0.0
  0
LINE
  5
257
330
A
100
AcDbEntity
  8
PV
  6
Continuous
 62
     7
100
AcDbLine
 10
-114.0
 20
140.738
 30
0.0
 11
-114.0
 21
137.274
 31
0.0
  0
LINE
  5
258
330
A
100
AcDbEntity
  8
PV
  6
Continuous
 62
     7
100
AcDbLine
 10
-111.0
 20
142.471
 30
0.0
 11
-108.0
 21
140.738
 31
0.0
  0
LINE
  5
259
330
A
100
AcDbEntity
  8
PV
  6
Continuous
 62
     7
100
AcDbLine
 10
-114.0
 20
137.274
 30
0.0
 11
-111.0
 21
135.542
 31
0.0
  0
CIRCLE
  5
25A
330
A
100
AcDbEntity
  8
PV
  6
Continuous
 62
     7
100
AcDbCircle
 10
-111.0
 20
139.006
 30
0.0
 40
6.5
  0
CIRCLE
  5
25B
330
A
100
AcDbEntity
  8
PV
  6
Continuous
 62
     7
100
AcDbCircle
 10
-111.0
 20
139.006
 30
0.0
 40
5.633999999999998
  0
LINE
  5
25C
330
A
100
AcDbEntity
  8
PV
  6
Continuous
 62
     7
100
AcDbLine
 10
-111.0
 20
73.542
 30
0.0
 11
-108.0
 21
75.274
 31
0.0
  0
LINE
  5
25D
330
A
100
AcDbEntity
  8
PV
  6
Continuous
 62
     7
100
AcDbLine
 10
-114.0
 20
78.738
 30
0.0
 11
-111.0
 21
80.471
 31
0.0
  0
LINE
  5
25E
330
A
100
AcDbEntity
  8
PV
  6
Continuous
 62
     7
100
AcDbLine
 10
-108.0
 20
78.738
 30
0.0
 11
-108.0
 21
75.274
 31
0.0
  0
LINE
  5
25F
330
A
100
AcDbEntity
  8
PV
  6
Continuous
 62
     7
100
AcDbLine
 10
-114.0
 20
78.738
 30
0.0
 11
-114.0
 21
75.274
 31
0.0
  0
LINE
  5
260
330
A
100
AcDbEntity
  8
PV
  6
Continuous
 62
     7
100
AcDbLine
 10
-111.0
 20
80.471
 30
0.0
 11
-108.0
 21
78.738
 31
0.0
  0
LINE
  5
261
330
A
100
AcDbEntity
  8
PV
  6
Continuous
 62
     7
100
AcDbLine
 10
-114.0
 20
75.274
 30
0.0
 11
-111.0
 21
73.542
 31
0.0
  0
CIRCLE
  5
262
330
A
100
AcDbEntity
  8
PV
  6
Continuous
 62
     7
100
AcDbCircle
 10
-111.0
 20
77.006
 30
0.0
 40
6.5
  0
CIRCLE
  5
263
330
A
100
AcDbEntity
  8
PV
  6
Continuous
 62
     7
100
AcDbCircle
 10
-111.0
 20
77.006
 30
0.0
 40
5.633999999999998
  0
LINE
  5
264
330
A
100
AcDbEntity
  8
PV
  6
Continuous
 62
     7
100
AcDbLine
 10
-49.0
 20
73.542
 30
0.0
 11
-46.0
 21
75.274
 31
0.0
  0
LINE
  5
265
330
A
100
AcDbEntity
  8
PV
  6
Continuous
 62
     7
100
AcDbLine
 10
-52.0
 20
78.738
 30
0.0
 11
-49.0
 21
80.471
 31
0.0
  0
LINE
  5
266
330
A
100
AcDbEntity
  8
PV
  6
Continuous
 62
     7
100
AcDbLine
 10
-46.0
 20
78.738
 30
0.0
 11
-46.0
 21
75.274
 31
0.0
  0
LINE
  5
267
330
A
100
AcDbEntity
  8
PV
  6
Continuous
 62
     7
100
AcDbLine
 10
-52.0
 20
78.738
 30
0.0
 11
-52.0
 21
75.274
 31
0.0
  0
LINE
  5
268
330
A
100
AcDbEntity
  8
PV
  6
Continuous
 62
     7
100
AcDbLine
 10
-49.0
 20
80.471
 30
0.0
 11
-46.0
 21
78.738
 31
0.0
  0
LINE
  5
269
330
A
100
AcDbEntity
  8
PV
  6
Continuous
 62
     7
100
AcDbLine
 10
-52.0
 20
75.274
 30
0.0
 11
-49.0
 21
73.542
 31
0.0
  0
CIRCLE
  5
26A
330
A
100
AcDbEntity
  8
PV
  6
Continuous
 62
     7
100
AcDbCircle
 10
-49.0
 20
77.006
 30
0.0
 40
6.5
  0
CIRCLE
  5
26B
330
A
100
AcDbEntity
  8
PV
  6
Continuous
 62
     7
100
AcDbCircle
 10
-49.0
 20
77.006
 30
0.0
 40
5.633999999999998
  0
POINT
  5
26C
330
A
100
AcDbEntity
  8
PV
  6
Continuous
 62
     7
100
AcDbPoint
 10
-107.4999999999999
 20
-167.354
 30
0.0
  0
POINT
  5
26D
330
A
100
AcDbEntity
  8
PV
  6
Continuous
 62
     7
100
AcDbPoint
 10
-107.4999999999999
 20
-155.0
 30
0.0
  0
POINT
  5
26E
330
A
100
AcDbEntity
  8
PV
  6
Continuous
 62
     7
100
AcDbPoint
 10
-52.5
 20
-155.0
 30
0.0
  0
MTEXT
  5
26F
330
A
100
AcDbEntity
  8
PV
  6
Continuous
 62
     7
100
AcDbMText
 10
-70.059
 20
-159.2539989999998
 30
0.0
 40
6.5
 41
0.0
 71
     2
 72
     1
  1
\W0.909;\A1;\U+220555
 73
     1
 44
1.0
  0
LINE
  5
270
330
A
100
AcDbEntity
  8
PV
  6
Continuous
 62
     7
100
AcDbLine
 10
-107.4999999999999
 20
-157.5399999999999
 30
0.0
 11
-107.4999999999999
 21
-169.6399999999998
 31
0.0
  0
LINE
  5
271
330
A
100
AcDbEntity
  8
PV
  6
Continuous
 62
     7
100
AcDbLine
 10
-52.5
 20
-157.5399999999999
 30
0.0
 11
-52.5
 21
-169.6399999999998
 31
0.0
  0
LINE
  5
272
330
A
100
AcDbEntity
  8
PV
  6
Continuous
 62
     7
100
AcDbLine
 10
-52.5
 20
-167.354
 30
0.0
 11
-107.4999999999999
 21
-167.354
 31
0.0
  0
LINE
  5
273
330
A
100
AcDbEntity
  8
PV
  6
Continuous
 62
     7
100
AcDbLine
 10
-107.4999999999999
 20
-167.354
 30
0.0
 11
-104.73
 21
-167.354
 31
0.0
  0
LINE
  5
274
330
A
100
AcDbEntity
  8
PV
  6
Continuous
 62
     7
100
AcDbLine
 10
-107.4999999999999
 20
-167.354
 30
0.0
 11
-104.73
 21
-166.612
 31
0.0
  0
LINE
  5
275
330
A
100
AcDbEntity
  8
PV
  6
Continuous
 62
     7
100
AcDbLine
 10
-104.73
 20
-168.0959999999999
 30
0.0
 11
-107.4999999999999
 21
-167.354
 31
0.0
  0
LINE
  5
276
330
A
100
AcDbEntity
  8
PV
  6
Continuous
 62
     7
100
AcDbLine
 10
-52.5
 20
-167.354
 30
0.0
 11
-55.27000000000001
 21
-167.354
 31
0.0
  0
LINE
  5
277
330
A
100
AcDbEntity
  8
PV
  6
Continuous
 62
     7
100
AcDbLine
 10
-52.5
 20
-167.354
 30
0.0
 11
-55.27000000000001
 21
-168.0959999999999
 31
0.0
  0
LINE
  5
278
330
A
100
AcDbEntity
  8
PV
  6
Continuous
 62
     7
100
AcDbLine
 10
-55.27000000000001
 20
-166.612
 30
0.0
 11
-52.5
 21
-167.354
 31
0.0
  0
POINT
  5
279
330
A
100
AcDbEntity
  8
PV
  6
Continuous
 62
     7
100
AcDbPoint
 10
-154.96
 20
-62.5
 30
0.0
  0
POINT
  5
27A
330
A
100
AcDbEntity
  8
PV
  6
Continuous
 62
     7
100
AcDbPoint
 10
-145.0
 20
-62.5
 30
0.0
  0
POINT
  5
27B
330
A
100
AcDbEntity
  8
PV
  6
Continuous
 62
     7
100
AcDbPoint
 10
-145.0
 20
-117.5
 30
0.0
  0
MTEXT
  5
27C
330
A
100
AcDbEntity
  8
PV
  6
Continuous
 62
     7
100
AcDbMText
 10
-164.0600009999999
 20
-78.107
 30
0.0
 40
6.5
 41
0.0
 71
     2
 72
     1
  1
\W0.909;\A1;\U+220555
 11
0.0
 21
1.0
 31
0.0
 73
     1
 44
1.0
  0
LINE
  5
27D
330
A
100
AcDbEntity
  8
PV
  6
Continuous
 62
     7
100
AcDbLine
 10
-147.54
 20
-62.5
 30
0.0
 11
-157.246
 21
-62.5
 31
0.0
  0
LINE
  5
27E
330
A
100
AcDbEntity
  8
PV
  6
Continuous
 62
     7
100
AcDbLine
 10
-147.54
 20
-117.5
 30
0.0
 11
-157.246
 21
-117.5
 31
0.0
  0
LINE
  5
27F
330
A
100
AcDbEntity
  8
PV
  6
Continuous
 62
     7
100
AcDbLine
 10
-154.96
 20
-117.5
 30
0.0
 11
-154.96
 21
-62.5
 31
0.0
  0
LINE
  5
280
330
A
100
AcDbEntity
  8
PV
  6
Continuous
 62
     7
100
AcDbLine
 10
-154.96
 20
-62.5
 30
0.0
 11
-154.96
 21
-65.27
 31
0.0
  0
LINE
  5
281
330
A
100
AcDbEntity
  8
PV
  6
Continuous
 62
     7
100
AcDbLine
 10
-154.96
 20
-62.5
 30
0.0
 11
-154.2179999999999
 21
-65.27
 31
0.0
  0
LINE
  5
282
330
A
100
AcDbEntity
  8
PV
  6
Continuous
 62
     7
100
AcDbLine
 10
-155.703
 20
-65.27
 30
0.0
 11
-154.96
 21
-62.5
 31
0.0
  0
LINE
  5
283
330
A
100
AcDbEntity
  8
PV
  6
Continuous
 62
     7
100
AcDbLine
 10
-154.96
 20
-117.5
 30
0.0
 11
-154.96
 21
-114.7299999999999
 31
0.0
  0
LINE
  5
284
330
A
100
AcDbEntity
  8
PV
  6
Continuous
 62
     7
100
AcDbLine
 10
-154.96
 20
-117.5
 30
0.0
 11
-155.703
 21
-114.7299999999999
 31
0.0
  0
LINE
  5
285
330
A
100
AcDbEntity
  8
PV
  6
Continuous
 62
     7
100
AcDbLine
 10
-154.2179999999999
 20
-114.7299999999999
 30
0.0
 11
-154.96
 21
-117.5
 31
0.0
  0
POINT
  5
286
330
A
100
AcDbEntity
  8
PV
  6
Continuous
 62
     7
100
AcDbPoint
 10
-164.2159999999998
 20
-90.0
 30
0.0
  0
POINT
  5
287
330
A
100
AcDbEntity
  8
PV
  6
Continuous
 62
     7
100
AcDbPoint
 10
-151.7929999999998
 20
-90.0
 30
0.0
  0
POINT
  5
288
330
A
100
AcDbEntity
  8
PV
  6
Continuous
 62
     7
100
AcDbPoint
 10
-107.4999999999999
 20
-155.0
 30
0.0
  0
MTEXT
  5
289
330
A
100
AcDbEntity
  8
PV
  6
Continuous
 62
     7
100
AcDbMText
 10
-173.3160009999999
 20
-122.5
 30
0.0
 40
6.5
 41
0.0
 71
     2
 72
     1
  1
\W0.952;\A1;65
 11
0.0
 21
1.0
 31
0.0
 73
     1
 44
1.0
  0
LINE
  5
28A
330
A
100
AcDbEntity
  8
PV
  6
Continuous
 62
     7
100
AcDbLine
 10
-154.333
 20
-90.0
 30
0.0
 11
-166.502
 21
-90.0
 31
0.0
  0
LINE
  5
28B
330
A
100
AcDbEntity
  8
PV
  6
Continuous
 62
     7
100
AcDbLine
 10
-110.04
 20
-155.0
 30
0.0
 11
-166.502
 21
-155.0
 31
0.0
  0
LINE
  5
28C
330
A
100
AcDbEntity
  8
PV
  6
Continuous
 62
     7
100
AcDbLine
 10
-164.2159999999998
 20
-155.0
 30
0.0
 11
-164.2159999999998
 21
-90.0
 31
0.0
  0
LINE
  5
28D
330
A
100
AcDbEntity
  8
PV
  6
Continuous
 62
     7
100
AcDbLine
 10
-164.2159999999998
 20
-90.0
 30
0.0
 11
-164.2159999999998
 21
-92.76999999999999
 31
0.0
  0
LINE
  5
28E
330
A
100
AcDbEntity
  8
PV
  6
Continuous
 62
     7
100
AcDbLine
 10
-164.2159999999998
 20
-90.0
 30
0.0
 11
-163.4729999999999
 21
-92.76999999999999
 31
0.0
  0
LINE
  5
28F
330
A
100
AcDbEntity
  8
PV
  6
Continuous
 62
     7
100
AcDbLine
 10
-164.958
 20
-92.76999999999999
 30
0.0
 11
-164.2159999999998
 21
-90.0
 31
0.0
  0
LINE
  5
290
330
A
100
AcDbEntity
  8
PV
  6
Continuous
 62
     7
100
AcDbLine
 10
-164.2159999999998
 20
-155.0
 30
0.0
 11
-164.2159999999998
 21
-152.2299999999999
 31
0.0
  0
LINE
  5
291
330
A
100
AcDbEntity
  8
PV
  6
Continuous
 62
     7
100
AcDbLine
 10
-164.2159999999998
 20
-155.0
 30
0.0
 11
-164.958
 21
-152.2299999999999
 31
0.0
  0
LINE
  5
292
330
A
100
AcDbEntity
  8
PV
  6
Continuous
 62
     7
100
AcDbLine
 10
-163.4729999999999
 20
-152.2299999999999
 30
0.0
 11
-164.2159999999998
 21
-155.0
 31
0.0
  0
POINT
  5
293
330
A
100
AcDbEntity
  8
PV
  6
Continuous
 62
     7
100
AcDbPoint
 10
-145.0
 20
-178.287
 30
0.0
  0
POINT
  5
294
330
A
100
AcDbEntity
  8
PV
  6
Continuous
 62
     7
100
AcDbPoint
 10
-145.0
 20
-117.5
 30
0.0
  0
POINT
  5
295
330
A
100
AcDbEntity
  8
PV
  6
Continuous
 62
     7
100
AcDbPoint
 10
-80.0
 20
-161.432
 30
0.0
  0
MTEXT
  5
296
330
A
100
AcDbEntity
  8
PV
  6
Continuous
 62
     7
100
AcDbMText
 10
-112.5
 20
-170.1869989999998
 30
0.0
 40
6.5
 41
0.0
 71
     2
 72
     1
  1
\W0.952;\A1;65
 73
     1
 44
1.0
  0
LINE
  5
297
330
A
100
AcDbEntity
  8
PV
  6
Continuous
 62
     7
100
AcDbLine
 10
-145.0
 20
-120.04
 30
0.0
 11
-145.0
 21
-180.5729999999999
 31
0.0
  0
LINE
  5
298
330
A
100
AcDbEntity
  8
PV
  6
Continuous
 62
     7
100
AcDbLine
 10
-80.0
 20
-163.972
 30
0.0
 11
-80.0
 21
-180.5729999999999
 31
0.0
  0
LINE
  5
299
330
A
100
AcDbEntity
  8
PV
  6
Continuous
 62
     7
100
AcDbLine
 10
-80.0
 20
-178.287
 30
0.0
 11
-145.0
 21
-178.287
 31
0.0
  0
LINE
  5
29A
330
A
100
AcDbEntity
  8
PV
  6
Continuous
 62
     7
100
AcDbLine
 10
-145.0
 20
-178.287
 30
0.0
 11
-142.2299999999999
 21
-178.287
 31
0.0
  0
LINE
  5
29B
330
A
100
AcDbEntity
  8
PV
  6
Continuous
 62
     7
100
AcDbLine
 10
-145.0
 20
-178.287
 30
0.0
 11
-142.2299999999999
 21
-177.545
 31
0.0
  0
LINE
  5
29C
330
A
100
AcDbEntity
  8
PV
  6
Continuous
 62
     7
100
AcDbLine
 10
-142.2299999999999
 20
-179.03
 30
0.0
 11
-145.0
 21
-178.287
 31
0.0
  0
LINE
  5
29D
330
A
100
AcDbEntity
  8
PV
  6
Continuous
 62
     7
100
AcDbLine
 10
-80.0
 20
-178.287
 30
0.0
 11
-82.76999999999999
 21
-178.287
 31
0.0
  0
LINE
  5
29E
330
A
100
AcDbEntity
  8
PV
  6
Continuous
 62
     7
100
AcDbLine
 10
-80.0
 20
-178.287
 30
0.0
 11
-82.76999999999999
 21
-179.03
 31
0.0
  0
LINE
  5
29F
330
A
100
AcDbEntity
  8
PV
  6
Continuous
 62
     7
100
AcDbLine
 10
-82.76999999999999
 20
-177.545
 30
0.0
 11
-80.0
 21
-178.287
 31
0.0
  0
POINT
  5
2A0
330
A
100
AcDbEntity
  8
PV
  6
Continuous
 62
     7
100
AcDbPoint
 10
-12.24
 20
67.506
 30
0.0
  0
POINT
  5
2A1
330
A
100
AcDbEntity
  8
PV
  6
Continuous
 62
     7
100
AcDbPoint
 10
-44.5
 20
67.506
 30
0.0
  0
POINT
  5
2A2
330
A
100
AcDbEntity
  8
PV
  6
Continuous
 62
     7
100
AcDbPoint
 10
-44.5
 20
148.506
 30
0.0
  0
MTEXT
  5
2A3
330
A
100
AcDbEntity
  8
PV
  6
Continuous
 62
     7
100
AcDbMText
 10
-21.33999999999999
 20
108.006
 30
0.0
 40
6.5
 41
0.0
 71
     2
 72
     1
  1
\A1;□81
 11
0.0
 21
1.0
 31
0.0
 73
     1
 44
1.0
  0
LINE
  5
2A4
330
A
100
AcDbEntity
  8
PV
  6
Continuous
 62
     7
100
AcDbLine
 10
-41.96
 20
67.506
 30
0.0
 11
-9.954
 21
67.506
 31
0.0
  0
LINE
  5
2A5
330
A
100
AcDbEntity
  8
PV
  6
Continuous
 62
     7
100
AcDbLine
 10
-41.96
 20
148.506
 30
0.0
 11
-9.954
 21
148.506
 31
0.0
  0
LINE
  5
2A6
330
A
100
AcDbEntity
  8
PV
  6
Continuous
 62
     7
100
AcDbLine
 10
-12.24
 20
148.506
 30
0.0
 11
-12.24
 21
67.506
 31
0.0
  0
LINE
  5
2A7
330
A
100
AcDbEntity
  8
PV
  6
Continuous
 62
     7
100
AcDbLine
 10
-12.24
 20
67.506
 30
0.0
 11
-12.24
 21
70.27600000000001
 31
0.0
  0
LINE
  5
2A8
330
A
100
AcDbEntity
  8
PV
  6
Continuous
 62
     7
100
AcDbLine
 10
-12.24
 20
67.506
 30
0.0
 11
-12.982
 21
70.27600000000001
 31
0.0
  0
LINE
  5
2A9
330
A
100
AcDbEntity
  8
PV
  6
Continuous
 62
     7
100
AcDbLine
 10
-11.49799999999999
 20
70.27600000000001
 30
0.0
 11
-12.24
 21
67.506
 31
0.0
  0
LINE
  5
2AA
330
A
100
AcDbEntity
  8
PV
  6
Continuous
 62
     7
100
AcDbLine
 10
-12.24
 20
148.506
 30
0.0
 11
-12.24
 21
145.7359999999999
 31
0.0
  0
LINE
  5
2AB
330
A
100
AcDbEntity
  8
PV
  6
Continuous
 62
     7
100
AcDbLine
 10
-12.24
 20
148.506
 30
0.0
 11
-11.49799999999999
 21
145.7359999999999
 31
0.0
  0
LINE
  5
2AC
330
A
100
AcDbEntity
  8
PV
  6
Continuous
 62
     7
100
AcDbLine
 10
-12.982
 20
145.7359999999999
 30
0.0
 11
-12.24
 21
148.506
 31
0.0
  0
POINT
  5
2AD
330
A
100
AcDbEntity
  8
PV
  6
Continuous
 62
     7
100
AcDbPoint
 10
-118.0
 20
-131.772
 30
0.0
  0
POINT
  5
2AE
330
A
100
AcDbEntity
  8
PV
  6
Continuous
 62
     7
100
AcDbPoint
 10
-118.0
 20
-115.249
 30
0.0
  0
POINT
  5
2AF
330
A
100
AcDbEntity
  8
PV
  6
Continuous
 62
     7
100
AcDbPoint
 10
-42.0
 20
-115.0
 30
0.0
  0
MTEXT
  5
2B0
330
A
100
AcDbEntity
  8
PV
  6
Continuous
 62
     7
100
AcDbMText
 10
-69.16
 20
-123.671999
 30
0.0
 40
6.5
 41
0.0
 71
     2
 72
     1
  1
\W0.909;\A1;\U+220576
 73
     1
 44
1.0
  0
LINE
  5
2B1
330
A
100
AcDbEntity
  8
PV
  6
Continuous
 62
     7
100
AcDbLine
 10
-118.0
 20
-117.789
 30
0.0
 11
-118.0
 21
-134.0579999999998
 31
0.0
  0
LINE
  5
2B2
330
A
100
AcDbEntity
  8
PV
  6
Continuous
 62
     7
100
AcDbLine
 10
-42.0
 20
-117.54
 30
0.0
 11
-42.0
 21
-134.0579999999998
 31
0.0
  0
LINE
  5
2B3
330
A
100
AcDbEntity
  8
PV
  6
Continuous
 62
     7
100
AcDbLine
 10
-42.0
 20
-131.772
 30
0.0
 11
-118.0
 21
-131.772
 31
0.0
  0
LINE
  5
2B4
330
A
100
AcDbEntity
  8
PV
  6
Continuous
 62
     7
100
AcDbLine
 10
-118.0
 20
-131.772
 30
0.0
 11
-115.23
 21
-131.772
 31
0.0
  0
LINE
  5
2B5
330
A
100
AcDbEntity
  8
PV
  6
Continuous
 62
     7
100
AcDbLine
 10
-118.0
 20
-131.772
 30
0.0
 11
-115.23
 21
-131.03
 31
0.0
  0
LINE
  5
2B6
330
A
100
AcDbEntity
  8
PV
  6
Continuous
 62
     7
100
AcDbLine
 10
-115.23
 20
-132.514
 30
0.0
 11
-118.0
 21
-131.772
 31
0.0
  0
LINE
  5
2B7
330
A
100
AcDbEntity
  8
PV
  6
Continuous
 62
     7
100
AcDbLine
 10
-42.0
 20
-131.772
 30
0.0
 11
-44.77
 21
-131.772
 31
0.0
  0
LINE
  5
2B8
330
A
100
AcDbEntity
  8
PV
  6
Continuous
 62
     7
100
AcDbLine
 10
-42.0
 20
-131.772
 30
0.0
 11
-44.77
 21
-132.514
 31
0.0
  0
LINE
  5
2B9
330
A
100
AcDbEntity
  8
PV
  6
Continuous
 62
     7
100
AcDbLine
 10
-44.77
 20
-131.03
 30
0.0
 11
-42.0
 21
-131.772
 31
0.0
  0
POINT
  5
2BA
330
A
100
AcDbEntity
  8
PV
  6
Continuous
 62
     7
100
AcDbPoint
 10
-1.353
 20
-155.0
 30
0.0
  0
POINT
  5
2BB
330
A
100
AcDbEntity
  8
PV
  6
Continuous
 62
     7
100
AcDbPoint
 10
-52.5
 20
-155.0
 30
0.0
  0
POINT
  5
2BC
330
A
100
AcDbEntity
  8
PV
  6
Continuous
 62
     7
100
AcDbPoint
 10
-36.0
 20
13.0
 30
0.0
  0
MTEXT
  5
2BD
330
A
100
AcDbEntity
  8
PV
  6
Continuous
 62
     7
100
AcDbMText
 10
-9.453000999999996
 20
-70.634
 30
0.0
 40
6.5
 41
0.0
 71
     2
 72
     1
  1
\W1.071;\A1;168
 11
0.0
 21
1.0
 31
0.0
 73
     1
 44
1.0
  0
LINE
  5
2BE
330
A
100
AcDbEntity
  8
PV
  6
Continuous
 62
     7
100
AcDbLine
 10
-49.96
 20
-155.0
 30
0.0
 11
0.933
 21
-155.0
 31
0.0
  0
LINE
  5
2BF
330
A
100
AcDbEntity
  8
PV
  6
Continuous
 62
     7
100
AcDbLine
 10
-33.46
 20
13.0
 30
0.0
 11
0.933
 21
13.0
 31
0.0
  0
LINE
  5
2C0
330
A
100
AcDbEntity
  8
PV
  6
Continuous
 62
     7
100
AcDbLine
 10
-1.353
 20
13.0
 30
0.0
 11
-1.353
 21
-155.0
 31
0.0
  0
LINE
  5
2C1
330
A
100
AcDbEntity
  8
PV
  6
Continuous
 62
     7
100
AcDbLine
 10
-1.353
 20
-155.0
 30
0.0
 11
-1.353
 21
-152.2299999999999
 31
0.0
  0
LINE
  5
2C2
330
A
100
AcDbEntity
  8
PV
  6
Continuous
 62
     7
100
AcDbLine
 10
-1.353
 20
-155.0
 30
0.0
 11
-2.095
 21
-152.2299999999999
 31
0.0
  0
LINE
  5
2C3
330
A
100
AcDbEntity
  8
PV
  6
Continuous
 62
     7
100
AcDbLine
 10
-0.611
 20
-152.2299999999999
 30
0.0
 11
-1.353
 21
-155.0
 31
0.0
  0
LINE
  5
2C4
330
A
100
AcDbEntity
  8
PV
  6
Continuous
 62
     7
100
AcDbLine
 10
-1.353
 20
13.0
 30
0.0
 11
-1.353
 21
10.23
 31
0.0
  0
LINE
  5
2C5
330
A
100
AcDbEntity
  8
PV
  6
Continuous
 62
     7
100
AcDbLine
 10
-1.353
 20
13.0
 30
0.0
 11
-0.611
 21
10.23
 31
0.0
  0
LINE
  5
2C6
330
A
100
AcDbEntity
  8
PV
  6
Continuous
 62
     7
100
AcDbLine
 10
-2.095
 20
10.23
 30
0.0
 11
-1.353
 21
13.0
 31
0.0
  0
POINT
  5
2C7
330
A
100
AcDbEntity
  8
PV
  6
Continuous
 62
     7
100
AcDbPoint
 10
-12.24
 20
-46.5
 30
0.0
  0
POINT
  5
2C8
330
A
100
AcDbEntity
  8
PV
  6
Continuous
 62
     7
100
AcDbPoint
 10
-36.0
 20
-46.5
 30
0.0
  0
POINT
  5
2C9
330
A
100
AcDbEntity
  8
PV
  6
Continuous
 62
     7
100
AcDbPoint
 10
-36.0
 20
13.0
 30
0.0
  0
MTEXT
  5
2CA
330
A
100
AcDbEntity
  8
PV
  6
Continuous
 62
     7
100
AcDbMText
 10
-21.340001
 20
-16.75
 30
0.0
 40
6.5
 41
0.0
 71
     2
 72
     1
  1
\W1.142;\A1;59.5
 11
0.0
 21
1.0
 31
0.0
 73
     1
 44
1.0
  0
LINE
  5
2CB
330
A
100
AcDbEntity
  8
PV
  6
Continuous
 62
     7
100
AcDbLine
 10
-33.46
 20
-46.5
 30
0.0
 11
-9.954
 21
-46.5
 31
0.0
  0
LINE
  5
2CC
330
A
100
AcDbEntity
  8
PV
  6
Continuous
 62
     7
100
AcDbLine
 10
-12.24
 20
13.0
 30
0.0
 11
-12.24
 21
-46.5
 31
0.0
  0
LINE
  5
2CD
330
A
100
AcDbEntity
  8
PV
  6
Continuous
 62
     7
100
AcDbLine
 10
-12.24
 20
-46.5
 30
0.0
 11
-12.24
 21
-43.73
 31
0.0
  0
LINE
  5
2CE
330
A
100
AcDbEntity
  8
PV
  6
Continuous
 62
     7
100
AcDbLine
 10
-12.24
 20
-46.5
 30
0.0
 11
-12.982
 21
-43.73
 31
0.0
  0
LINE
  5
2CF
330
A
100
AcDbEntity
  8
PV
  6
Continuous
 62
     7
100
AcDbLine
 10
-11.49799999999999
 20
-43.73
 30
0.0
 11
-12.24
 21
-46.5
 31
0.0
  0
LINE
  5
2D0
330
A
100
AcDbEntity
  8
PV
  6
Continuous
 62
     7
100
AcDbLine
 10
-12.24
 20
13.0
 30
0.0
 11
-12.24
 21
10.23
 31
0.0
  0
LINE
  5
2D1
330
A
100
AcDbEntity
  8
PV
  6
Continuous
 62
     7
100
AcDbLine
 10
-12.24
 20
13.0
 30
0.0
 11
-11.49799999999999
 21
10.23
 31
0.0
  0
LINE
  5
2D2
330
A
100
AcDbEntity
  8
PV
  6
Continuous
 62
     7
100
AcDbLine
 10
-12.982
 20
10.23
 30
0.0
 11
-12.24
 21
13.0
 31
0.0
  0
POINT
  5
2D3
330
A
100
AcDbEntity
  8
PV
  6
Continuous
 62
     7
100
AcDbPoint
 10
-12.24
 20
-155.0
 30
0.0
  0
POINT
  5
2D4
330
A
100
AcDbEntity
  8
PV
  6
Continuous
 62
     7
100
AcDbPoint
 10
-52.5
 20
-155.0
 30
0.0
  0
POINT
  5
2D5
330
A
100
AcDbEntity
  8
PV
  6
Continuous
 62
     7
100
AcDbPoint
 10
-36.0
 20
-46.5
 30
0.0
  0
MTEXT
  5
2D6
330
A
100
AcDbEntity
  8
PV
  6
Continuous
 62
     7
100
AcDbMText
 10
-21.340001
 20
-100.75
 30
0.0
 40
6.5
 41
0.0
 71
     2
 72
     1
  1
\W1.242;\A1;108.5
 11
0.0
 21
1.0
 31
0.0
 73
     1
 44
1.0
  0
LINE
  5
2D7
330
A
100
AcDbEntity
  8
PV
  6
Continuous
 62
     7
100
AcDbLine
 10
-12.24
 20
-46.5
 30
0.0
 11
-12.24
 21
-155.0
 31
0.0
  0
LINE
  5
2D8
330
A
100
AcDbEntity
  8
PV
  6
Continuous
 62
     7
100
AcDbLine
 10
-12.24
 20
-155.0
 30
0.0
 11
-12.24
 21
-152.2299999999999
 31
0.0
  0
LINE
  5
2D9
330
A
100
AcDbEntity
  8
PV
  6
Continuous
 62
     7
100
AcDbLine
 10
-12.24
 20
-155.0
 30
0.0
 11
-12.982
 21
-152.2299999999999
 31
0.0
  0
LINE
  5
2DA
330
A
100
AcDbEntity
  8
PV
  6
Continuous
 62
     7
100
AcDbLine
 10
-11.49799999999999
 20
-152.2299999999999
 30
0.0
 11
-12.24
 21
-155.0
 31
0.0
  0
LINE
  5
2DB
330
A
100
AcDbEntity
  8
PV
  6
Continuous
 62
     7
100
AcDbLine
 10
-12.24
 20
-46.5
 30
0.0
 11
-12.24
 21
-49.27
 31
0.0
  0
LINE
  5
2DC
330
A
100
AcDbEntity
  8
PV
  6
Continuous
 62
     7
100
AcDbLine
 10
-12.24
 20
-46.5
 30
0.0
 11
-11.49799999999999
 21
-49.27
 31
0.0
  0
LINE
  5
2DD
330
A
100
AcDbEntity
  8
PV
  6
Continuous
 62
     7
100
AcDbLine
 10
-12.982
 20
-49.27
 30
0.0
 11
-12.24
 21
-46.5
 31
0.0
  0
POINT
  5
2DE
330
A
100
AcDbEntity
  8
PV
  6
Continuous
 62
     7
100
AcDbPoint
 10
145.556
 20
-37.5
 30
0.0
  0
POINT
  5
2DF
330
A
100
AcDbEntity
  8
PV
  6
Continuous
 62
     7
100
AcDbPoint
 10
88.36899999999998
 20
-37.5
 30
0.0
  0
POINT
  5
2E0
330
A
100
AcDbEntity
  8
PV
  6
Continuous
 62
     7
100
AcDbPoint
 10
88.12299999999998
 20
-4.5
 30
0.0
  0
MTEXT
  5
2E1
330
A
100
AcDbEntity
  8
PV
  6
Continuous
 62
     7
100
AcDbMText
 10
136.4559989999999
 20
-21.0
 30
0.0
 40
6.5
 41
0.0
 71
     2
 72
     1
  1
\W0.952;\A1;33
 11
0.0
 21
1.0
 31
0.0
 73
     1
 44
1.0
  0
LINE
  5
2E2
330
A
100
AcDbEntity
  8
PV
  6
Continuous
 62
     7
100
AcDbLine
 10
90.663
 20
-4.5
 30
0.0
 11
147.842
 21
-4.5
 31
0.0
  0
LINE
  5
2E3
330
A
100
AcDbEntity
  8
PV
  6
Continuous
 62
     7
100
AcDbLine
 10
145.556
 20
-4.5
 30
0.0
 11
145.556
 21
-37.5
 31
0.0
  0
LINE
  5
2E4
330
A
100
AcDbEntity
  8
PV
  6
Continuous
 62
     7
100
AcDbLine
 10
145.556
 20
-37.5
 30
0.0
 11
145.556
 21
-34.72999999999998
 31
0.0
  0
LINE
  5
2E5
330
A
100
AcDbEntity
  8
PV
  6
Continuous
 62
     7
100
AcDbLine
 10
145.556
 20
-37.5
 30
0.0
 11
144.8139999999999
 21
-34.72999999999998
 31
0.0
  0
LINE
  5
2E6
330
A
100
AcDbEntity
  8
PV
  6
Continuous
 62
     7
100
AcDbLine
 10
146.2979999999999
 20
-34.72999999999998
 30
0.0
 11
145.556
 21
-37.5
 31
0.0
  0
LINE
  5
2E7
330
A
100
AcDbEntity
  8
PV
  6
Continuous
 62
     7
100
AcDbLine
 10
145.556
 20
-4.5
 30
0.0
 11
145.556
 21
-7.269999999999998
 31
0.0
  0
LINE
  5
2E8
330
A
100
AcDbEntity
  8
PV
  6
Continuous
 62
     7
100
AcDbLine
 10
145.556
 20
-4.5
 30
0.0
 11
146.2979999999999
 21
-7.269999999999998
 31
0.0
  0
LINE
  5
2E9
330
A
100
AcDbEntity
  8
PV
  6
Continuous
 62
     7
100
AcDbLine
 10
144.8139999999999
 20
-7.269999999999998
 30
0.0
 11
145.556
 21
-4.5
 31
0.0
  0
POINT
  5
2EA
330
A
100
AcDbEntity
  8
PV
  6
Continuous
 62
     7
100
AcDbPoint
 10
145.556
 20
-155.0
 30
0.0
  0
POINT
  5
2EB
330
A
100
AcDbEntity
  8
PV
  6
Continuous
 62
     7
100
AcDbPoint
 10
108.4289999999999
 20
-155.0
 30
0.0
  0
POINT
  5
2EC
330
A
100
AcDbEntity
  8
PV
  6
Continuous
 62
     7
100
AcDbPoint
 10
88.36899999999998
 20
-37.5
 30
0.0
  0
MTEXT
  5
2ED
330
A
100
AcDbEntity
  8
PV
  6
Continuous
 62
     7
100
AcDbMText
 10
136.4559989999999
 20
-96.25
 30
0.0
 40
6.5
 41
0.0
 71
     2
 72
     1
  1
\W1.298;\A1;117.5
 11
0.0
 21
1.0
 31
0.0
 73
     1
 44
1.0
  0
LINE
  5
2EE
330
A
100
AcDbEntity
  8
PV
  6
Continuous
 62
     7
100
AcDbLine
 10
110.969
 20
-155.0
 30
0.0
 11
147.842
 21
-155.0
 31
0.0
  0
LINE
  5
2EF
330
A
100
AcDbEntity
  8
PV
  6
Continuous
 62
     7
100
AcDbLine
 10
90.90900000000001
 20
-37.5
 30
0.0
 11
147.842
 21
-37.5
 31
0.0
  0
LINE
  5
2F0
330
A
100
AcDbEntity
  8
PV
  6
Continuous
 62
     7
100
AcDbLine
 10
145.556
 20
-37.5
 30
0.0
 11
145.556
 21
-155.0
 31
0.0
  0
LINE
  5
2F1
330
A
100
AcDbEntity
  8
PV
  6
Continuous
 62
     7
100
AcDbLine
 10
145.556
 20
-155.0
 30
0.0
 11
145.556
 21
-152.2299999999999
 31
0.0
  0
LINE
  5
2F2
330
A
100
AcDbEntity
  8
PV
  6
Continuous
 62
     7
100
AcDbLine
 10
145.556
 20
-155.0
 30
0.0
 11
144.8139999999999
 21
-152.2299999999999
 31
0.0
  0
LINE
  5
2F3
330
A
100
AcDbEntity
  8
PV
  6
Continuous
 62
     7
100
AcDbLine
 10
146.2979999999999
 20
-152.2299999999999
 30
0.0
 11
145.556
 21
-155.0
 31
0.0
  0
LINE
  5
2F4
330
A
100
AcDbEntity
  8
PV
  6
Continuous
 62
     7
100
AcDbLine
 10
145.556
 20
-37.5
 30
0.0
 11
145.556
 21
-40.27
 31
0.0
  0
LINE
  5
2F5
330
A
100
AcDbEntity
  8
PV
  6
Continuous
 62
     7
100
AcDbLine
 10
145.556
 20
-37.5
 30
0.0
 11
146.2979999999999
 21
-40.27
 31
0.0
  0
LINE
  5
2F6
330
A
100
AcDbEntity
  8
PV
  6
Continuous
 62
     7
100
AcDbLine
 10
144.8139999999999
 20
-40.27
 30
0.0
 11
145.556
 21
-37.5
 31
0.0
  0
POINT
  5
2F7
330
A
100
AcDbEntity
  8
PV
  6
Continuous
 62
     7
100
AcDbPoint
 10
-36.0
 20
164.1979999999998
 30
0.0
  0
POINT
  5
2F8
330
A
100
AcDbEntity
  8
PV
  6
Continuous
 62
     7
100
AcDbPoint
 10
-36.0
 20
123.506
 30
0.0
  0
POINT
  5
2F9
330
A
100
AcDbEntity
  8
PV
  6
Continuous
 62
     7
100
AcDbPoint
 10
-145.0
 20
135.5059999999999
 30
0.0
  0
MTEXT
  5
2FA
330
A
100
AcDbEntity
  8
PV
  6
Continuous
 62
     7
100
AcDbMText
 10
-90.5
 20
172.298001
 30
0.0
 40
6.5
 41
0.0
 71
     2
 72
     1
  1
\A1;109
 73
     1
 44
1.0
  0
LINE
  5
2FB
330
A
100
AcDbEntity
  8
PV
  6
Continuous
 62
     7
100
AcDbLine
 10
-36.0
 20
126.046
 30
0.0
 11
-36.0
 21
166.484
 31
0.0
  0
LINE
  5
2FC
330
A
100
AcDbEntity
  8
PV
  6
Continuous
 62
     7
100
AcDbLine
 10
-145.0
 20
138.046
 30
0.0
 11
-145.0
 21
166.484
 31
0.0
  0
LINE
  5
2FD
330
A
100
AcDbEntity
  8
PV
  6
Continuous
 62
     7
100
AcDbLine
 10
-145.0
 20
164.1979999999998
 30
0.0
 11
-36.0
 21
164.1979999999998
 31
0.0
  0
LINE
  5
2FE
330
A
100
AcDbEntity
  8
PV
  6
Continuous
 62
     7
100
AcDbLine
 10
-36.0
 20
164.1979999999998
 30
0.0
 11
-38.77
 21
164.1979999999998
 31
0.0
  0
LINE
  5
2FF
330
A
100
AcDbEntity
  8
PV
  6
Continuous
 62
     7
100
AcDbLine
 10
-36.0
 20
164.1979999999998
 30
0.0
 11
-38.77
 21
163.456
 31
0.0
  0
LINE
  5
300
330
A
100
AcDbEntity
  8
PV
  6
Continuous
 62
     7
100
AcDbLine
 10
-38.77
 20
164.9409999999999
 30
0.0
 11
-36.0
 21
164.1979999999998
 31
0.0
  0
LINE
  5
301
330
A
100
AcDbEntity
  8
PV
  6
Continuous
 62
     7
100
AcDbLine
 10
-145.0
 20
164.1979999999998
 30
0.0
 11
-142.2299999999999
 21
164.1979999999998
 31
0.0
  0
LINE
  5
302
330
A
100
AcDbEntity
  8
PV
  6
Continuous
 62
     7
100
AcDbLine
 10
-145.0
 20
164.1979999999998
 30
0.0
 11
-142.2299999999999
 21
164.9409999999999
 31
0.0
  0
LINE
  5
303
330
A
100
AcDbEntity
  8
PV
  6
Continuous
 62
     7
100
AcDbLine
 10
-142.2299999999999
 20
163.456
 30
0.0
 11
-145.0
 21
164.1979999999998
 31
0.0
  0
ENDSEC
  0
SECTION
  2
OBJECTS
  0
DICTIONARY
  5
19
330
0
100
AcDbDictionary
281
     1
  3
ACAD_GROUP
350
1A
  3
ACAD_LAYOUT
350
1E
  3
ACAD_MLINESTYLE
350
1B
  3
ACAD_PLOTSETTINGS
350
22
  3
ACAD_PLOTSTYLENAME
350
1F
  0
DICTIONARY
  5
1A
102
{ACAD_REACTORS
330
19
102
}
330
19
100
AcDbDictionary
281
     1
  0
DICTIONARY
  5
1E
102
{ACAD_REACTORS
330
19
102
}
330
19
100
AcDbDictionary
281
     1
  3
Layout1
350
21
  3
Model
350
20
  0
DICTIONARY
  5
1B
102
{ACAD_REACTORS
330
19
102
}
330
19
100
AcDbDictionary
281
     1
  3
Standard
350
1C
  0
DICTIONARY
  5
22
102
{ACAD_REACTORS
330
19
102
}
330
19
100
AcDbDictionary
281
     1
  0
ACDBDICTIONARYWDFLT
  5
1F
102
{ACAD_REACTORS
330
19
102
}
330
19
100
AcDbDictionary
281
     1
  3
Normal
350
1D
100
AcDbDictionaryWithDefault
340
1D
  0
LAYOUT
  5
21
102
{ACAD_REACTORS
330
1E
102
}
330
1E
100
AcDbPlotSettings
  1

  2

  4

  6

 40
0.0
 41
0.0
 42
0.0
 43
0.0
 44
0.0
 45
0.0
 46
0.0
 47
0.0
 48
0.0
 49
0.0
140
0.0
141
0.0
142
1.0
143
1.0
 70
     0
 72
     0
 73
     0
 74
     0
  7

 75
     0
147
1.0
148
0.0
149
0.0
100
AcDbLayout
  1
Layout1
 70
     0
 71
     1
 10
0.0
 20
0.0
 11
12.0
 21
9.0
 12
0.0
 22
0.0
 32
0.0
 14
1.000000000000000E+20
 24
1.000000000000000E+20
 34
1.000000000000000E+20
 15
-1.000000000000000E+20
 25
-1.000000000000000E+20
 35
-1.000000000000000E+20
146
0.0
 13
0.0
 23
0.0
 33
0.0
 16
1.0
 26
0.0
 36
0.0
 17
0.0
 27
1.0
 37
0.0
 76
     0
330
B
  0
LAYOUT
  5
20
102
{ACAD_REACTORS
330
1E
102
}
330
1E
100
AcDbPlotSettings
  1

  2
Adobe PDF
  4
A3
  6

 40
3.174999952316283
 41
3.174999952316283
 42
3.17498779296875
 43
3.17498779296875
 44
297.0318298339843
 45
420.1583251953125
 46
0.0
 47
67.45
 48
0.0
 49
0.0
140
0.0
141
0.0
142
1.0
143
1.22139609907819
 70
 11284
 72
     1
 73
     1
 74
     2
  7

 75
     0
147
0.818735216818457
148
175.4826679999999
149
180.5729999999999
100
AcDbLayout
  1
Model
 70
     0
 71
     0
 10
0.0
 20
0.0
 11
0.0
 21
0.0
 12
0.0
 22
0.0
 32
0.0
 14
0.0
 24
0.0
 34
0.0
 15
0.0
 25
0.0
 35
0.0
146
0.0
 13
0.0
 23
0.0
 33
0.0
 16
0.0
 26
0.0
 36
0.0
 17
0.0
 27
0.0
 37
0.0
 76
     0
330
A
  0
MLINESTYLE
  5
1C
102
{ACAD_REACTORS
330
1B
102
}
330
1B
100
AcDbMlineStyle
  2
STANDARD
 70
     0
  3

 62
     0
 51
90.0
 52
90.0
 71
     2
 49
0.5
 62
   256
  6
BYLAYER
 49
-0.5
 62
   256
  6
BYLAYER
  0
ACDBPLACEHOLDER
  5
1D
102
{ACAD_REACTORS
330
1F
102
}
330
1F
  0
ENDSEC
  0
EOF
