  0
SECTION
  2
HEADER
  9
$ACADVER
  1
AC1015
  9
$ACADMAINTVER
 70
    10
  9
$DWGCODEPAGE
  3
ANSI_932
  9
$INSBASE
 10
0.0
 20
0.0
 30
0.0
  9
$EXTMIN
 10
-206.9550943337815
 20
-148.7306642354338
 30
-0.0000000349181948
  9
$EXTMAX
 10
-62.37106348235704
 20
138.8915003783189
 30
0.0000000814935746
  9
$LIMMIN
 10
-208.7825009999999
 20
-148.713
  9
$LIMMAX
 10
-62.38
 20
140.7154989999999
  9
$ORTHOMODE
 70
     0
  9
$REGENMODE
 70
     1
  9
$FILLMODE
 70
     1
  9
$QTEXTMODE
 70
     0
  9
$MIRRTEXT
 70
     1
  9
$LTSCALE
 40
0.1
  9
$ATTMODE
 70
     1
  9
$TEXTSIZE
 40
3.2
  9
$TRACEWID
 40
0.05
  9
$TEXTSTYLE
  7
MX_NOTE_STANDARD
  9
$CLAYER
  8
0
  9
$CELTYPE
  6
CONTINUOUS
  9
$CECOLOR
 62
   256
  9
$CELTSCALE
 40
1.0
  9
$DISPSILH
 70
     0
  9
$DIMSCALE
 40
1.0
  9
$DIMASZ
 40
2.5
  9
$DIMEXO
 40
2.54
  9
$DIMDLI
 40
3.75
  9
$DIMRND
 40
0.0
  9
$DIMDLE
 40
0.0
  9
$DIMEXE
 40
2.286
  9
$DIMTP
 40
0.0
  9
$DIMTM
 40
0.0
  9
$DIMTXT
 40
3.2
  9
$DIMCEN
 40
2.5
  9
$DIMTSZ
 40
0.0
  9
$DIMTOL
 70
     0
  9
$DIMLIM
 70
     0
  9
$DIMTIH
 70
     0
  9
$DIMTOH
 70
     0
  9
$DIMSE1
 70
     0
  9
$DIMSE2
 70
     0
  9
$DIMTAD
 70
     1
  9
$DIMZIN
 70
     8
  9
$DIMBLK
  1

  9
$DIMASO
 70
     1
  9
$DIMSHO
 70
     1
  9
$DIMPOST
  1

  9
$DIMAPOST
  1

  9
$DIMALT
 70
     0
  9
$DIMALTD
 70
     4
  9
$DIMALTF
 40
0.03937
  9
$DIMLFAC
 40
1.0
  9
$DIMTOFL
 70
     1
  9
$DIMTVP
 40
0.0
  9
$DIMTIX
 70
     0
  9
$DIMSOXD
 70
     0
  9
$DIMSAH
 70
     1
  9
$DIMBLK1
  1
OPEN30
  9
$DIMBLK2
  1
OPEN30
  9
$DIMSTYLE
  2
MXDIMSTYLE
  9
$DIMCLRD
 70
     0
  9
$DIMCLRE
 70
     0
  9
$DIMCLRT
 70
     0
  9
$DIMTFAC
 40
1.0
  9
$DIMGAP
 40
1.0
  9
$DIMJUST
 70
     0
  9
$DIMSD1
 70
     0
  9
$DIMSD2
 70
     0
  9
$DIMTOLJ
 70
     0
  9
$DIMTZIN
 70
     0
  9
$DIMALTZ
 70
     0
  9
$DIMALTTZ
 70
     0
  9
$DIMUPT
 70
     1
  9
$DIMDEC
 70
     2
  9
$DIMTDEC
 70
     2
  9
$DIMALTU
 70
     2
  9
$DIMALTTD
 70
     4
  9
$DIMTXSTY
  7
MX_NOTE_STANDARD
  9
$DIMAUNIT
 70
     0
  9
$DIMADEC
 70
     0
  9
$DIMALTRND
 40
0.0
  9
$DIMAZIN
 70
     0
  9
$DIMDSEP
 70
    46
  9
$DIMATFIT
 70
     3
  9
$DIMFRAC
 70
     0
  9
$DIMLDRBLK
  1
OPEN30
  9
$DIMLUNIT
 70
     2
  9
$DIMLWD
 70
    -2
  9
$DIMLWE
 70
    -2
  9
$DIMTMOVE
 70
     0
  9
$LUNITS
 70
     2
  9
$LUPREC
 70
     4
  9
$SKETCHINC
 40
0.1
  9
$FILLETRAD
 40
0.0
  9
$AUNITS
 70
     0
  9
$AUPREC
 70
     0
  9
$MENU
  1
acad
  9
$ELEVATION
 40
0.0
  9
$PELEVATION
 40
0.0
  9
$THICKNESS
 40
0.0
  9
$LIMCHECK
 70
     0
  9
$CHAMFERA
 40
0.0
  9
$CHAMFERB
 40
0.0
  9
$CHAMFERC
 40
0.0
  9
$CHAMFERD
 40
0.0
  9
$SKPOLY
 70
     0
  9
$TDCREATE
 40
2455288.601571875
  9
$TDUCREATE
 40
2455288.226571875
  9
$TDUPDATE
 40
2455288.603114826
  9
$TDUUPDATE
 40
2455288.228114826
  9
$TDINDWG
 40
0.0015434954
  9
$TDUSRTIMER
 40
0.0015434954
  9
$USRTIMER
 70
     1
  9
$ANGBASE
 50
0.0
  9
$ANGDIR
 70
     0
  9
$PDMODE
 70
     0
  9
$PDSIZE
 40
0.0
  9
$PLINEWID
 40
0.0
  9
$SPLFRAME
 70
     0
  9
$SPLINETYPE
 70
     6
  9
$SPLINESEGS
 70
     8
  9
$HANDSEED
  5
3BB
  9
$SURFTAB1
 70
     6
  9
$SURFTAB2
 70
     6
  9
$SURFTYPE
 70
     6
  9
$SURFU
 70
     6
  9
$SURFV
 70
     6
  9
$UCSBASE
  2

  9
$UCSNAME
  2

  9
$UCSORG
 10
0.0
 20
0.0
 30
0.0
  9
$UCSXDIR
 10
1.0
 20
0.0
 30
0.0
  9
$UCSYDIR
 10
0.0
 20
1.0
 30
0.0
  9
$UCSORTHOREF
  2

  9
$UCSORTHOVIEW
 70
     0
  9
$UCSORGTOP
 10
0.0
 20
0.0
 30
0.0
  9
$UCSORGBOTTOM
 10
0.0
 20
0.0
 30
0.0
  9
$UCSORGLEFT
 10
0.0
 20
0.0
 30
0.0
  9
$UCSORGRIGHT
 10
0.0
 20
0.0
 30
0.0
  9
$UCSORGFRONT
 10
0.0
 20
0.0
 30
0.0
  9
$UCSORGBACK
 10
0.0
 20
0.0
 30
0.0
  9
$PUCSBASE
  2

  9
$PUCSNAME
  2

  9
$PUCSORG
 10
0.0
 20
0.0
 30
0.0
  9
$PUCSXDIR
 10
1.0
 20
0.0
 30
0.0
  9
$PUCSYDIR
 10
0.0
 20
1.0
 30
0.0
  9
$PUCSORTHOREF
  2

  9
$PUCSORTHOVIEW
 70
     0
  9
$PUCSORGTOP
 10
0.0
 20
0.0
 30
0.0
  9
$PUCSORGBOTTOM
 10
0.0
 20
0.0
 30
0.0
  9
$PUCSORGLEFT
 10
0.0
 20
0.0
 30
0.0
  9
$PUCSORGRIGHT
 10
0.0
 20
0.0
 30
0.0
  9
$PUCSORGFRONT
 10
0.0
 20
0.0
 30
0.0
  9
$PUCSORGBACK
 10
0.0
 20
0.0
 30
0.0
  9
$USERI1
 70
     0
  9
$USERI2
 70
     0
  9
$USERI3
 70
     0
  9
$USERI4
 70
     0
  9
$USERI5
 70
     0
  9
$USERR1
 40
0.0
  9
$USERR2
 40
0.0
  9
$USERR3
 40
0.0
  9
$USERR4
 40
0.0
  9
$USERR5
 40
0.0
  9
$WORLDVIEW
 70
     1
  9
$SHADEDGE
 70
     3
  9
$SHADEDIF
 70
    70
  9
$TILEMODE
 70
     1
  9
$MAXACTVP
 70
    16
  9
$PINSBASE
 10
0.0
 20
0.0
 30
0.0
  9
$PLIMCHECK
 70
     0
  9
$PEXTMIN
 10
1.000000000000000E+20
 20
1.000000000000000E+20
 30
1.000000000000000E+20
  9
$PEXTMAX
 10
-1.000000000000000E+20
 20
-1.000000000000000E+20
 30
-1.000000000000000E+20
  9
$PLIMMIN
 10
0.0
 20
0.0
  9
$PLIMMAX
 10
12.0
 20
9.0
  9
$UNITMODE
 70
     0
  9
$VISRETAIN
 70
     0
  9
$PLINEGEN
 70
     1
  9
$PSLTSCALE
 70
     0
  9
$TREEDEPTH
 70
  3020
  9
$CMLSTYLE
  2
Standard
  9
$CMLJUST
 70
     0
  9
$CMLSCALE
 40
1.0
  9
$PROXYGRAPHICS
 70
     0
  9
$MEASUREMENT
 70
     1
  9
$CELWEIGHT
370
     0
  9
$ENDCAPS
280
     0
  9
$JOINSTYLE
280
     0
  9
$LWDISPLAY
290
     0
  9
$INSUNITS
 70
     0
  9
$HYPERLINKBASE
  1

  9
$STYLESHEET
  1

  9
$XEDIT
290
     1
  9
$CEPSNTYPE
380
     0
  9
$PSTYLEMODE
290
     1
  9
$FINGERPRINTGUID
  2

  9
$VERSIONGUID
  2
{C7AF5ED7-297D-400B-92D8-BA720D7D6C8F}
  9
$EXTNAMES
290
     1
  9
$PSVPSCALE
 40
0.0
  9
$OLESTARTUP
290
     0
  0
ENDSEC
  0
SECTION
  2
CLASSES
  0
CLASS
  1
LWPOLYLINE
  2
AcDbPolyline
  3
AutoCAD 2000
 90
    32768
280
     0
281
     1
  0
CLASS
  1
IMAGE
  2
AcDbRasterImage
  3
ISM
 90
    32895
280
     0
281
     1
  0
CLASS
  1
OLE2FRAME
  2
AcDbOle2Frame
  3
AutoCAD 2000
 90
    32768
280
     0
281
     1
  0
CLASS
  1
HATCH
  2
AcDbHatch
  3
AutoCAD 2000
 90
    32768
280
     0
281
     1
  0
CLASS
  1
DICTIONARYVAR
  2
AcDbDictionaryVar
  3
AutoCAD 2000
 90
    32768
280
     0
281
     0
  0
CLASS
  1
RASTERVARIABLES
  2
AcDbRasterVariables
  3
ISM
 90
    32768
280
     0
281
     0
  0
CLASS
  1
IMAGEDEF
  2
AcDbRasterImageDef
  3
ISM
 90
    32768
280
     0
281
     0
  0
CLASS
  1
IMAGEDEF_REACTOR
  2
AcDbRasterImageDefReactor
  3
ISM
 90
    32769
280
     0
281
     0
  0
CLASS
  1
IDBUFFER
  2
AcDbIdBuffer
  3
AutoCAD 2000
 90
    32768
280
     0
281
     0
  0
CLASS
  1
SPATIAL_FILTER
  2
AcDbSpatialFilter
  3
AutoCAD 2000
 90
    32768
280
     0
281
     0
  0
CLASS
  1
XRECORD
  2
AcDbXrecord
  3
AutoCAD 2000
 90
    32768
280
     0
281
     0
  0
CLASS
  1
SORTENTSTABLE
  2
AcDbSortentsTable
  3
AutoCAD 2000
 90
    32768
280
     0
281
     0
  0
CLASS
  1
LAYER_INDEX
  2
AcDbLayerIndex
  3
AutoCAD 2000
 90
    32768
280
     0
281
     0
  0
CLASS
  1
SPATIAL_INDEX
  2
AcDbSpatialIndex
  3
AutoCAD 2000
 90
    32768
280
     0
281
     0
  0
CLASS
  1
OBJECT_PTR
  2
CAseDLPNTableRecord
  3
"ASE-LPNTableRecord"
 90
    32769
280
     0
281
     0
  0
CLASS
  1
LAYOUT
  2
AcDbLayout
  3
AutoCAD 2000
 90
        0
280
     0
281
     0
  0
CLASS
  1
PLOTSETTINGS
  2
AcDbPlotSettings
  3
AutoCAD 2000
 90
    32768
280
     0
281
     0
  0
CLASS
  1
ACDBDICTIONARYWDFLT
  2
AcDbDictionaryWithDefault
  3
AutoCAD 2000
 90
        0
280
     0
281
     0
  0
CLASS
  1
ACDBPLACEHOLDER
  2
AcDbPlaceHolder
  3
AutoCAD 2000
 90
        0
280
     0
281
     0
  0
ENDSEC
  0
SECTION
  2
TABLES
  0
TABLE
  2
VPORT
  5
7
330
0
100
AcDbSymbolTable
 70
     3
  0
VPORT
  5
3BA
330
7
100
AcDbSymbolTableRecord
100
AcDbViewportTableRecord
  2
*Active
 70
     0
 10
0.0
 20
0.0
 11
1.0
 21
1.0
 12
-135.5812533577268
 22
14.68756774147499
 13
0.0
 23
0.0
 14
1.0
 24
1.0
 15
0.0
 25
0.0
 16
0.0
 26
0.0
 36
1.0
 17
0.0
 27
0.0
 37
0.0
 40
364.2537011427547
 41
1.535714285714286
 42
50.0
 43
0.0
 44
0.0
 50
0.0
 51
0.0
 71
     0
 72
   100
 73
     1
 74
     1
 75
     0
 76
     0
 77
     0
 78
     0
281
     0
 65
     0
110
0.0
120
0.0
130
0.0
111
1.0
121
0.0
131
0.0
112
0.0
122
1.0
132
0.0
 79
     0
146
0.0
  0
ENDTAB
  0
TABLE
  2
LTYPE
  5
4
330
0
100
AcDbSymbolTable
 70
     4
  0
LTYPE
  5
11
330
4
100
AcDbSymbolTableRecord
100
AcDbLinetypeTableRecord
  2
BYBLOCK
 70
     0
  3

 72
    65
 73
     0
 40
0.0
  0
LTYPE
  5
12
330
4
100
AcDbSymbolTableRecord
100
AcDbLinetypeTableRecord
  2
BYLAYER
 70
     0
  3

 72
    65
 73
     0
 40
0.0
  0
LTYPE
  5
13
330
4
100
AcDbSymbolTableRecord
100
AcDbLinetypeTableRecord
  2
CONTINUOUS
 70
     0
  3
Solid line
 72
    65
 73
     0
 40
0.0
  0
LTYPE
  5
319
330
4
100
AcDbSymbolTableRecord
100
AcDbLinetypeTableRecord
  2
PHANTOM
 70
     0
  3
Phantom ______  __  __  ______  __  __  ______
 72
    65
 73
     6
 40
63.5
 49
31.75
 74
     0
 49
-6.349999999999999
 74
     0
 49
6.349999999999999
 74
     0
 49
-6.349999999999999
 74
     0
 49
6.349999999999999
 74
     0
 49
-6.349999999999999
 74
     0
  0
LTYPE
  5
32C
330
4
100
AcDbSymbolTableRecord
100
AcDbLinetypeTableRecord
  2
DASHED
 70
     0
  3
Dashed __ __ __ __ __ __ __ __ __ __ __ __ __ _
 72
    65
 73
     2
 40
19.05
 49
12.7
 74
     0
 49
-6.349999999999999
 74
     0
  0
LTYPE
  5
34C
330
4
100
AcDbSymbolTableRecord
100
AcDbLinetypeTableRecord
  2
CENTER
 70
     0
  3
Center ____ _ ____ _ ____ _ ____ _ ____ _ ____
 72
    65
 73
     4
 40
50.8
 49
31.75
 74
     0
 49
-6.349999999999999
 74
     0
 49
6.349999999999999
 74
     0
 49
-6.349999999999999
 74
     0
  0
ENDTAB
  0
TABLE
  2
LAYER
  5
2
330
0
100
AcDbSymbolTable
 70
     4
  0
LAYER
  5
14
330
2
100
AcDbSymbolTableRecord
100
AcDbLayerTableRecord
  2
0
 70
     0
 62
     7
  6
CONTINUOUS
370
    -3
390
1D
  0
LAYER
  5
23
330
2
100
AcDbSymbolTableRecord
100
AcDbLayerTableRecord
  2
DEFPOINTS
 70
     0
 62
     7
  6
CONTINUOUS
290
     0
370
    -3
390
1D
  0
LAYER
  5
24
330
2
100
AcDbSymbolTableRecord
100
AcDbLayerTableRecord
  2
PV
 70
     0
 62
     7
  6
CONTINUOUS
370
    -3
390
1D
  0
LAYER
  5
25
330
2
100
AcDbSymbolTableRecord
100
AcDbLayerTableRecord
  2
WV
 70
     0
 62
     7
  6
CONTINUOUS
370
    -3
390
1D
  0
ENDTAB
  0
TABLE
  2
STYLE
  5
3
330
0
100
AcDbSymbolTable
 70
     2
  0
STYLE
  5
17
330
3
100
AcDbSymbolTableRecord
100
AcDbTextStyleTableRecord
  2
MX_NOTE_STANDARD
 70
     0
 40
0.0
 41
1.0
 50
0.0
 71
     0
 42
3.2
  3
txt.shx
  4
extfont.shx
  0
STYLE
  5
3B5
330
3
100
AcDbSymbolTableRecord
100
AcDbTextStyleTableRecord
  2
Standard
 70
     0
 40
0.0
 41
1.0
 50
0.0
 71
     0
 42
0.2
  3

  4

  0
ENDTAB
  0
TABLE
  2
VIEW
  5
5
330
0
100
AcDbSymbolTable
 70
     0
  0
ENDTAB
  0
TABLE
  2
UCS
  5
6
330
0
100
AcDbSymbolTable
 70
     0
  0
ENDTAB
  0
TABLE
  2
APPID
  5
8
330
0
100
AcDbSymbolTable
 70
     1
  0
APPID
  5
16
330
8
100
AcDbSymbolTableRecord
100
AcDbRegAppTableRecord
  2
ACAD
 70
     0
  0
ENDTAB
  0
TABLE
  2
DIMSTYLE
  5
9
330
0
100
AcDbSymbolTable
 70
     1
100
AcDbDimStyleTable
 71
     0
  0
DIMSTYLE
105
18
330
9
100
AcDbSymbolTableRecord
100
AcDbDimStyleTableRecord
  2
MXDIMSTYLE
 70
     0
 41
2.5
 42
2.54
 43
3.75
 44
2.286
 73
     0
 74
     0
 77
     1
 78
     8
140
3.2
141
2.5
143
0.03937
147
1.0
171
     4
172
     1
173
     1
271
     2
272
     2
274
     4
283
     0
288
     1
340
17
341
26
343
26
344
26
  0
ENDTAB
  0
TABLE
  2
BLOCK_RECORD
  5
1
330
0
100
AcDbSymbolTable
 70
     1
  0
BLOCK_RECORD
  5
A
330
1
100
AcDbSymbolTableRecord
100
AcDbBlockTableRecord
  2
*MODEL_SPACE
340
20
  0
BLOCK_RECORD
  5
B
330
1
100
AcDbSymbolTableRecord
100
AcDbBlockTableRecord
  2
*PAPER_SPACE
340
21
  0
BLOCK_RECORD
  5
26
330
1
100
AcDbSymbolTableRecord
100
AcDbBlockTableRecord
  2
_OPEN30
340
0
  0
ENDTAB
  0
ENDSEC
  0
SECTION
  2
BLOCKS
  0
BLOCK
  5
D
330
A
100
AcDbEntity
  8
0
100
AcDbBlockBegin
  2
*MODEL_SPACE
 70
     0
 10
0.0
 20
0.0
 30
0.0
  3
*MODEL_SPACE
  1

  0
ENDBLK
  5
E
330
A
100
AcDbEntity
  8
0
100
AcDbBlockEnd
  0
BLOCK
  5
F
330
B
100
AcDbEntity
 67
     1
  8
0
100
AcDbBlockBegin
  2
*PAPER_SPACE
 70
     0
 10
0.0
 20
0.0
 30
0.0
  3
*PAPER_SPACE
  1

  0
ENDBLK
  5
10
330
B
100
AcDbEntity
 67
     1
  8
0
100
AcDbBlockEnd
  0
BLOCK
  5
27
330
26
100
AcDbEntity
  8
0
  6
ByBlock
 62
     0
370
    -2
100
AcDbBlockBegin
  2
_OPEN30
 70
     2
 10
0.0
 20
0.0
 30
0.0
  3
_OPEN30
  1

  0
LINE
  5
28
330
26
100
AcDbEntity
  8
0
  6
ByBlock
 62
     0
370
    -2
100
AcDbLine
 10
-1.0
 20
0.267949
 30
0.0
 11
0.0
 21
0.0
 31
0.0
  0
LINE
  5
29
330
26
100
AcDbEntity
  8
0
  6
ByBlock
 62
     0
370
    -2
100
AcDbLine
 10
0.0
 20
0.0
 30
0.0
 11
-1.0
 21
-0.267949
 31
0.0
  0
LINE
  5
2A
330
26
100
AcDbEntity
  8
0
  6
ByBlock
 62
     0
370
    -2
100
AcDbLine
 10
0.0
 20
0.0
 30
0.0
 11
-1.0
 21
0.0
 31
0.0
  0
ENDBLK
  5
2B
330
26
100
AcDbEntity
  8
0
  6
ByBlock
 62
     0
370
    -2
100
AcDbBlockEnd
  0
ENDSEC
  0
SECTION
  2
ENTITIES
  0
LINE
  5
2C
330
A
100
AcDbEntity
  8
PV
  6
Continuous
 62
     7
100
AcDbLine
 10
-177.692
 20
130.708
 30
0.0
 11
-180.0
 21
131.3259999999999
 31
0.0
  0
LINE
  5
2D
330
A
100
AcDbEntity
  8
PV
  6
Continuous
 62
     7
100
AcDbLine
 10
-180.0
 20
131.3259999999999
 30
0.0
 11
-177.692
 21
131.945
 31
0.0
  0
LINE
  5
2E
330
A
100
AcDbEntity
  8
PV
  6
Continuous
 62
     7
100
AcDbLine
 10
-180.0
 20
131.3259999999999
 30
0.0
 11
-177.692
 21
131.3259999999999
 31
0.0
  0
LINE
  5
2F
330
A
100
AcDbEntity
  8
PV
  6
Continuous
 62
     7
100
AcDbLine
 10
-102.8079999999999
 20
131.945
 30
0.0
 11
-100.5
 21
131.3259999999999
 31
0.0
  0
LINE
  5
30
330
A
100
AcDbEntity
  8
PV
  6
Continuous
 62
     7
100
AcDbLine
 10
-100.5
 20
131.3259999999999
 30
0.0
 11
-102.8079999999999
 21
130.708
 31
0.0
  0
LINE
  5
31
330
A
100
AcDbEntity
  8
PV
  6
Continuous
 62
     7
100
AcDbLine
 10
-100.5
 20
131.3259999999999
 30
0.0
 11
-102.8079999999999
 21
131.3259999999999
 31
0.0
  0
LINE
  5
32
330
A
100
AcDbEntity
  8
PV
  6
Continuous
 62
     7
100
AcDbLine
 10
-180.0
 20
131.3259999999999
 30
0.0
 11
-100.5
 21
131.3259999999999
 31
0.0
  0
LINE
  5
33
330
A
100
AcDbEntity
  8
PV
  6
Continuous
 62
     7
100
AcDbLine
 10
-180.0
 20
105.1229999999999
 30
0.0
 11
-180.0
 21
133.2309999999999
 31
0.0
  0
LINE
  5
34
330
A
100
AcDbEntity
  8
PV
  6
Continuous
 62
     7
100
AcDbLine
 10
-100.5
 20
109.076
 30
0.0
 11
-100.5
 21
133.2309999999999
 31
0.0
  0
MTEXT
  5
35
330
A
100
AcDbEntity
  8
PV
  6
Continuous
 62
     7
100
AcDbMText
 10
-140.25
 20
138.8821659999999
 30
0.0
 40
5.5
 41
0.0
 71
     2
 72
     1
  1
\A1;79.5
 73
     1
 44
1.0
  0
POINT
  5
36
330
A
100
AcDbEntity
  8
PV
  6
Continuous
 62
     7
100
AcDbPoint
 10
-180.0
 20
103.0059999999999
 30
0.0
  0
POINT
  5
37
330
A
100
AcDbEntity
  8
PV
  6
Continuous
 62
     7
100
AcDbPoint
 10
-100.5
 20
106.959
 30
0.0
  0
POINT
  5
38
330
A
100
AcDbEntity
  8
PV
  6
Continuous
 62
     7
100
AcDbPoint
 10
-100.5
 20
131.3259999999999
 30
0.0
  0
LINE
  5
39
330
A
100
AcDbEntity
  8
PV
  6
Continuous
 62
     7
100
AcDbLine
 10
-81.61199999999999
 20
110.1979999999999
 30
0.0
 11
-80.99400000000001
 21
112.5059999999999
 31
0.0
  0
LINE
  5
3A
330
A
100
AcDbEntity
  8
PV
  6
Continuous
 62
     7
100
AcDbLine
 10
-80.99400000000001
 20
112.5059999999999
 30
0.0
 11
-80.37499999999999
 21
110.1979999999999
 31
0.0
  0
LINE
  5
3B
330
A
100
AcDbEntity
  8
PV
  6
Continuous
 62
     7
100
AcDbLine
 10
-80.99400000000001
 20
112.5059999999999
 30
0.0
 11
-80.99400000000001
 21
110.1979999999999
 31
0.0
  0
LINE
  5
3C
330
A
100
AcDbEntity
  8
PV
  6
Continuous
 62
     7
100
AcDbLine
 10
-80.37499999999999
 20
55.815
 30
0.0
 11
-80.99400000000001
 21
53.506
 31
0.0
  0
LINE
  5
3D
330
A
100
AcDbEntity
  8
PV
  6
Continuous
 62
     7
100
AcDbLine
 10
-80.99400000000001
 20
53.506
 30
0.0
 11
-81.61199999999999
 21
55.815
 31
0.0
  0
LINE
  5
3E
330
A
100
AcDbEntity
  8
PV
  6
Continuous
 62
     7
100
AcDbLine
 10
-80.99400000000001
 20
53.506
 30
0.0
 11
-80.99400000000001
 21
55.815
 31
0.0
  0
LINE
  5
3F
330
A
100
AcDbEntity
  8
PV
  6
Continuous
 62
     7
100
AcDbLine
 10
-80.99400000000001
 20
112.5059999999999
 30
0.0
 11
-80.99400000000001
 21
53.506
 31
0.0
  0
LINE
  5
40
330
A
100
AcDbEntity
  8
PV
  6
Continuous
 62
     7
100
AcDbLine
 10
-103.93
 20
112.5059999999999
 30
0.0
 11
-79.089
 21
112.5059999999999
 31
0.0
  0
LINE
  5
41
330
A
100
AcDbEntity
  8
PV
  6
Continuous
 62
     7
100
AcDbLine
 10
-103.93
 20
53.506
 30
0.0
 11
-79.089
 21
53.506
 31
0.0
  0
MTEXT
  5
42
330
A
100
AcDbEntity
  8
PV
  6
Continuous
 62
     7
100
AcDbMText
 10
-88.55016799999999
 20
83.00600000000001
 30
0.0
 40
5.5
 41
0.0
 71
     2
 72
     1
  1
\T0.823;\W1.177;\A1;□59
 11
0.0
 21
1.0
 31
0.0
 73
     1
 44
1.0
  0
POINT
  5
43
330
A
100
AcDbEntity
  8
PV
  6
Continuous
 62
     7
100
AcDbPoint
 10
-106.047
 20
112.5059999999999
 30
0.0
  0
POINT
  5
44
330
A
100
AcDbEntity
  8
PV
  6
Continuous
 62
     7
100
AcDbPoint
 10
-106.047
 20
53.506
 30
0.0
  0
POINT
  5
45
330
A
100
AcDbEntity
  8
PV
  6
Continuous
 62
     7
100
AcDbPoint
 10
-80.99400000000001
 20
53.506
 30
0.0
  0
LINE
  5
46
330
A
100
AcDbEntity
  8
PV
  6
Continuous
 62
     7
100
AcDbLine
 10
-90.045
 20
-15.88099999999999
 30
0.0
 11
-92.354
 21
-16.5
 31
0.0
  0
LINE
  5
47
330
A
100
AcDbEntity
  8
PV
  6
Continuous
 62
     7
100
AcDbLine
 10
-92.354
 20
-16.5
 30
0.0
 11
-90.66399999999999
 21
-14.81
 31
0.0
  0
LINE
  5
48
330
A
100
AcDbEntity
  8
PV
  6
Continuous
 62
     7
100
AcDbLine
 10
-92.354
 20
-16.5
 30
0.0
 11
-90.355
 21
-15.346
 31
0.0
  0
LINE
  5
49
330
A
100
AcDbEntity
  8
PV
  6
Continuous
 62
     7
100
AcDbLine
 10
-92.97200000000001
 20
-12.308
 30
0.0
 11
-92.354
 21
-10.0
 31
0.0
  0
LINE
  5
4A
330
A
100
AcDbEntity
  8
PV
  6
Continuous
 62
     7
100
AcDbLine
 10
-92.354
 20
-10.0
 30
0.0
 11
-91.735
 21
-12.308
 31
0.0
  0
LINE
  5
4B
330
A
100
AcDbEntity
  8
PV
  6
Continuous
 62
     7
100
AcDbLine
 10
-92.354
 20
-10.0
 30
0.0
 11
-92.354
 21
-12.308
 31
0.0
  0
LINE
  5
4C
330
A
100
AcDbEntity
  8
PV
  6
Continuous
 62
     7
100
AcDbLine
 10
-91.735
 20
-16.692
 30
0.0
 11
-92.354
 21
-19.0
 31
0.0
  0
LINE
  5
4D
330
A
100
AcDbEntity
  8
PV
  6
Continuous
 62
     7
100
AcDbLine
 10
-92.354
 20
-19.0
 30
0.0
 11
-92.97200000000001
 21
-16.692
 31
0.0
  0
LINE
  5
4E
330
A
100
AcDbEntity
  8
PV
  6
Continuous
 62
     7
100
AcDbLine
 10
-92.354
 20
-19.0
 30
0.0
 11
-92.354
 21
-16.692
 31
0.0
  0
LINE
  5
4F
330
A
100
AcDbEntity
  8
PV
  6
Continuous
 62
     7
100
AcDbLine
 10
-92.354
 20
-10.0
 30
0.0
 11
-92.354
 21
-19.0
 31
0.0
  0
LINE
  5
50
330
A
100
AcDbEntity
  8
PV
  6
Continuous
 62
     7
100
AcDbLine
 10
-107.8829999999999
 20
-19.0
 30
0.0
 11
-90.068
 21
-19.0
 31
0.0
  0
LINE
  5
51
330
A
100
AcDbEntity
  8
PV
  6
Continuous
 62
     7
100
AcDbLine
 10
-92.354
 20
-16.5
 30
0.0
 11
-84.16299999999999
 21
-11.771
 31
0.0
  0
LINE
  5
52
330
A
100
AcDbEntity
  8
PV
  6
Continuous
 62
     7
100
AcDbLine
 10
-84.16299999999999
 20
-11.771
 30
0.0
 11
-84.16299999999999
 21
8.698628999999998
 31
0.0
  0
MTEXT
  5
53
330
A
100
AcDbEntity
  8
PV
  6
Continuous
 62
     7
100
AcDbMText
 10
-89.885833
 20
-0.425
 30
0.0
 40
5.0
 41
0.0
 71
     2
 72
     1
  1
\A1;9～17
 11
-0.000001
 21
0.9999999999994999
 31
0.0
 73
     1
 44
1.0
  0
POINT
  5
54
330
A
100
AcDbEntity
  8
PV
  6
Continuous
 62
     7
100
AcDbPoint
 10
-108.4999999999999
 20
-10.0
 30
0.0
  0
POINT
  5
55
330
A
100
AcDbEntity
  8
PV
  6
Continuous
 62
     7
100
AcDbPoint
 10
-110.0
 20
-19.0
 30
0.0
  0
POINT
  5
56
330
A
100
AcDbEntity
  8
PV
  6
Continuous
 62
     7
100
AcDbPoint
 10
-92.354
 20
-19.0
 30
0.0
  0
LINE
  5
57
330
A
100
AcDbEntity
  8
PV
  6
Continuous
 62
     7
100
AcDbLine
 10
-65.28399999999999
 20
8.692
 30
0.0
 11
-64.66599999999999
 21
11.0
 31
0.0
  0
LINE
  5
58
330
A
100
AcDbEntity
  8
PV
  6
Continuous
 62
     7
100
AcDbLine
 10
-64.66599999999999
 20
11.0
 30
0.0
 11
-64.047
 21
8.692
 31
0.0
  0
LINE
  5
59
330
A
100
AcDbEntity
  8
PV
  6
Continuous
 62
     7
100
AcDbLine
 10
-64.66599999999999
 20
11.0
 30
0.0
 11
-64.66599999999999
 21
8.692
 31
0.0
  0
LINE
  5
5A
330
A
100
AcDbEntity
  8
PV
  6
Continuous
 62
     7
100
AcDbLine
 10
-64.047
 20
-122.692
 30
0.0
 11
-64.66599999999999
 21
-125.0
 31
0.0
  0
LINE
  5
5B
330
A
100
AcDbEntity
  8
PV
  6
Continuous
 62
     7
100
AcDbLine
 10
-64.66599999999999
 20
-125.0
 30
0.0
 11
-65.28399999999999
 21
-122.692
 31
0.0
  0
LINE
  5
5C
330
A
100
AcDbEntity
  8
PV
  6
Continuous
 62
     7
100
AcDbLine
 10
-64.66599999999999
 20
-125.0
 30
0.0
 11
-64.66599999999999
 21
-122.692
 31
0.0
  0
LINE
  5
5D
330
A
100
AcDbEntity
  8
PV
  6
Continuous
 62
     7
100
AcDbLine
 10
-64.66599999999999
 20
11.0
 30
0.0
 11
-64.66599999999999
 21
-125.0
 31
0.0
  0
LINE
  5
5E
330
A
100
AcDbEntity
  8
PV
  6
Continuous
 62
     7
100
AcDbLine
 10
-110.8829999999999
 20
11.0
 30
0.0
 11
-62.38
 21
11.0
 31
0.0
  0
LINE
  5
5F
330
A
100
AcDbEntity
  8
PV
  6
Continuous
 62
     7
100
AcDbLine
 10
-107.8829999999999
 20
-125.0
 30
0.0
 11
-62.38
 21
-125.0
 31
0.0
  0
MTEXT
  5
60
330
A
100
AcDbEntity
  8
PV
  6
Continuous
 62
     7
100
AcDbMText
 10
-72.221167
 20
-57.0
 30
0.0
 40
5.5
 41
0.0
 71
     2
 72
     1
  1
\A1;136～144
 11
0.0
 21
1.0
 31
0.0
 73
     1
 44
1.0
  0
POINT
  5
61
330
A
100
AcDbEntity
  8
PV
  6
Continuous
 62
     7
100
AcDbPoint
 10
-113.0
 20
11.0
 30
0.0
  0
POINT
  5
62
330
A
100
AcDbEntity
  8
PV
  6
Continuous
 62
     7
100
AcDbPoint
 10
-110.0
 20
-125.0
 30
0.0
  0
POINT
  5
63
330
A
100
AcDbEntity
  8
PV
  6
Continuous
 62
     7
100
AcDbPoint
 10
-64.66599999999999
 20
-125.0
 30
0.0
  0
POINT
  5
64
330
A
100
AcDbEntity
  8
PV
  6
Continuous
 62
     7
100
AcDbPoint
 10
-134.0
 20
-20.0
 30
0.0
  0
POINT
  5
65
330
A
100
AcDbEntity
  8
PV
  6
Continuous
 62
     7
100
AcDbPoint
 10
-126.0
 20
-20.0
 30
0.0
  0
LINE
  5
66
330
A
100
AcDbEntity
  8
PV
  6
Continuous
 62
     7
100
AcDbLine
 10
-92.97200000000001
 20
8.692
 30
0.0
 11
-92.354
 21
11.0
 31
0.0
  0
LINE
  5
67
330
A
100
AcDbEntity
  8
PV
  6
Continuous
 62
     7
100
AcDbLine
 10
-92.354
 20
11.0
 30
0.0
 11
-91.735
 21
8.692
 31
0.0
  0
LINE
  5
68
330
A
100
AcDbEntity
  8
PV
  6
Continuous
 62
     7
100
AcDbLine
 10
-92.354
 20
11.0
 30
0.0
 11
-92.354
 21
8.692
 31
0.0
  0
LINE
  5
69
330
A
100
AcDbEntity
  8
PV
  6
Continuous
 62
     7
100
AcDbLine
 10
-91.735
 20
-7.692
 30
0.0
 11
-92.354
 21
-10.0
 31
0.0
  0
LINE
  5
6A
330
A
100
AcDbEntity
  8
PV
  6
Continuous
 62
     7
100
AcDbLine
 10
-92.354
 20
-10.0
 30
0.0
 11
-92.97200000000001
 21
-7.692
 31
0.0
  0
LINE
  5
6B
330
A
100
AcDbEntity
  8
PV
  6
Continuous
 62
     7
100
AcDbLine
 10
-92.354
 20
-10.0
 30
0.0
 11
-92.354
 21
-7.692
 31
0.0
  0
LINE
  5
6C
330
A
100
AcDbEntity
  8
PV
  6
Continuous
 62
     7
100
AcDbLine
 10
-92.354
 20
11.0
 30
0.0
 11
-92.354
 21
-10.0
 31
0.0
  0
LINE
  5
6D
330
A
100
AcDbEntity
  8
PV
  6
Continuous
 62
     7
100
AcDbLine
 10
-106.383
 20
-10.0
 30
0.0
 11
-90.068
 21
-10.0
 31
0.0
  0
MTEXT
  5
6E
330
A
100
AcDbEntity
  8
PV
  6
Continuous
 62
     7
100
AcDbMText
 10
-99.07583299999998
 20
0.5
 30
0.0
 40
5.0
 41
0.0
 71
     2
 72
     1
  1
\A1;21
 11
0.0
 21
1.0
 31
0.0
 73
     1
 44
1.0
  0
POINT
  5
6F
330
A
100
AcDbEntity
  8
PV
  6
Continuous
 62
     7
100
AcDbPoint
 10
-113.0
 20
11.0
 30
0.0
  0
POINT
  5
70
330
A
100
AcDbEntity
  8
PV
  6
Continuous
 62
     7
100
AcDbPoint
 10
-108.4999999999999
 20
-10.0
 30
0.0
  0
POINT
  5
71
330
A
100
AcDbEntity
  8
PV
  6
Continuous
 62
     7
100
AcDbPoint
 10
-92.354
 20
-10.0
 30
0.0
  0
LINE
  5
72
330
A
100
AcDbEntity
  8
PV
  6
Continuous
 62
     7
100
AcDbLine
 10
-149.192
 20
21.459
 30
0.0
 11
-151.5
 21
22.078
 31
0.0
  0
LINE
  5
73
330
A
100
AcDbEntity
  8
PV
  6
Continuous
 62
     7
100
AcDbLine
 10
-151.5
 20
22.078
 30
0.0
 11
-149.192
 21
22.696
 31
0.0
  0
LINE
  5
74
330
A
100
AcDbEntity
  8
PV
  6
Continuous
 62
     7
100
AcDbLine
 10
-151.5
 20
22.078
 30
0.0
 11
-149.192
 21
22.078
 31
0.0
  0
LINE
  5
75
330
A
100
AcDbEntity
  8
PV
  6
Continuous
 62
     7
100
AcDbLine
 10
-110.8079999999999
 20
22.696
 30
0.0
 11
-108.4999999999999
 21
22.078
 31
0.0
  0
LINE
  5
76
330
A
100
AcDbEntity
  8
PV
  6
Continuous
 62
     7
100
AcDbLine
 10
-108.4999999999999
 20
22.078
 30
0.0
 11
-110.8079999999999
 21
21.459
 31
0.0
  0
LINE
  5
77
330
A
100
AcDbEntity
  8
PV
  6
Continuous
 62
     7
100
AcDbLine
 10
-108.4999999999999
 20
22.078
 30
0.0
 11
-110.8079999999999
 21
22.078
 31
0.0
  0
LINE
  5
78
330
A
100
AcDbEntity
  8
PV
  6
Continuous
 62
     7
100
AcDbLine
 10
-151.5
 20
22.078
 30
0.0
 11
-108.4999999999999
 21
22.078
 31
0.0
  0
LINE
  5
79
330
A
100
AcDbEntity
  8
PV
  6
Continuous
 62
     7
100
AcDbLine
 10
-151.5
 20
-7.882999999999999
 30
0.0
 11
-151.5
 21
24.364
 31
0.0
  0
LINE
  5
7A
330
A
100
AcDbEntity
  8
PV
  6
Continuous
 62
     7
100
AcDbLine
 10
-108.4999999999999
 20
-7.882999999999999
 30
0.0
 11
-108.4999999999999
 21
24.364
 31
0.0
  0
MTEXT
  5
7B
330
A
100
AcDbEntity
  8
PV
  6
Continuous
 62
     7
100
AcDbMText
 10
-130.0
 20
29.634168
 30
0.0
 40
5.5
 41
0.0
 71
     2
 72
     1
  1
\T0.871;\W1.115;\A1;\U+220543
 73
     1
 44
1.0
  0
POINT
  5
7C
330
A
100
AcDbEntity
  8
PV
  6
Continuous
 62
     7
100
AcDbPoint
 10
-151.5
 20
-10.0
 30
0.0
  0
POINT
  5
7D
330
A
100
AcDbEntity
  8
PV
  6
Continuous
 62
     7
100
AcDbPoint
 10
-108.4999999999999
 20
-10.0
 30
0.0
  0
POINT
  5
7E
330
A
100
AcDbEntity
  8
PV
  6
Continuous
 62
     7
100
AcDbPoint
 10
-108.4999999999999
 20
22.078
 30
0.0
  0
LINE
  5
7F
330
A
100
AcDbEntity
  8
PV
  6
Continuous
 62
     7
100
AcDbLine
 10
-75.29399999999999
 20
8.692
 30
0.0
 11
-74.675
 21
11.0
 31
0.0
  0
LINE
  5
80
330
A
100
AcDbEntity
  8
PV
  6
Continuous
 62
     7
100
AcDbLine
 10
-74.675
 20
11.0
 30
0.0
 11
-74.057
 21
8.692
 31
0.0
  0
LINE
  5
81
330
A
100
AcDbEntity
  8
PV
  6
Continuous
 62
     7
100
AcDbLine
 10
-74.675
 20
11.0
 30
0.0
 11
-74.675
 21
8.692
 31
0.0
  0
LINE
  5
82
330
A
100
AcDbEntity
  8
PV
  6
Continuous
 62
     7
100
AcDbLine
 10
-74.057
 20
-19.692
 30
0.0
 11
-74.675
 21
-22.0
 31
0.0
  0
LINE
  5
83
330
A
100
AcDbEntity
  8
PV
  6
Continuous
 62
     7
100
AcDbLine
 10
-74.675
 20
-22.0
 30
0.0
 11
-75.29399999999999
 21
-19.692
 31
0.0
  0
LINE
  5
84
330
A
100
AcDbEntity
  8
PV
  6
Continuous
 62
     7
100
AcDbLine
 10
-74.675
 20
-22.0
 30
0.0
 11
-74.675
 21
-19.692
 31
0.0
  0
LINE
  5
85
330
A
100
AcDbEntity
  8
PV
  6
Continuous
 62
     7
100
AcDbLine
 10
-74.675
 20
11.0
 30
0.0
 11
-74.675
 21
-22.0
 31
0.0
  0
MTEXT
  5
86
330
A
100
AcDbEntity
  8
PV
  6
Continuous
 62
     7
100
AcDbMText
 10
-81.39783299999999
 20
-5.5
 30
0.0
 40
5.0
 41
0.0
 71
     2
 72
     1
  1
\W0.990;\A1;33～41
 11
0.0
 21
1.0
 31
0.0
 73
     1
 44
1.0
  0
POINT
  5
87
330
A
100
AcDbEntity
  8
PV
  6
Continuous
 62
     7
100
AcDbPoint
 10
-113.0
 20
11.0
 30
0.0
  0
POINT
  5
88
330
A
100
AcDbEntity
  8
PV
  6
Continuous
 62
     7
100
AcDbPoint
 10
-77.389
 20
-22.0
 30
0.0
  0
POINT
  5
89
330
A
100
AcDbEntity
  8
PV
  6
Continuous
 62
     7
100
AcDbPoint
 10
-74.675
 20
-22.0
 30
0.0
  0
LINE
  5
8A
330
A
100
AcDbEntity
  8
PV
  6
Continuous
 62
     7
100
AcDbLine
 10
-75.29399999999999
 20
-24.308
 30
0.0
 11
-74.675
 21
-22.0
 31
0.0
  0
LINE
  5
8B
330
A
100
AcDbEntity
  8
PV
  6
Continuous
 62
     7
100
AcDbLine
 10
-74.675
 20
-22.0
 30
0.0
 11
-74.057
 21
-24.308
 31
0.0
  0
LINE
  5
8C
330
A
100
AcDbEntity
  8
PV
  6
Continuous
 62
     7
100
AcDbLine
 10
-74.675
 20
-22.0
 30
0.0
 11
-74.675
 21
-24.308
 31
0.0
  0
LINE
  5
8D
330
A
100
AcDbEntity
  8
PV
  6
Continuous
 62
     7
100
AcDbLine
 10
-74.057
 20
-122.692
 30
0.0
 11
-74.675
 21
-125.0
 31
0.0
  0
LINE
  5
8E
330
A
100
AcDbEntity
  8
PV
  6
Continuous
 62
     7
100
AcDbLine
 10
-74.675
 20
-125.0
 30
0.0
 11
-75.29399999999999
 21
-122.692
 31
0.0
  0
LINE
  5
8F
330
A
100
AcDbEntity
  8
PV
  6
Continuous
 62
     7
100
AcDbLine
 10
-74.675
 20
-125.0
 30
0.0
 11
-74.675
 21
-122.692
 31
0.0
  0
LINE
  5
90
330
A
100
AcDbEntity
  8
PV
  6
Continuous
 62
     7
100
AcDbLine
 10
-74.675
 20
-22.0
 30
0.0
 11
-74.675
 21
-125.0
 31
0.0
  0
LINE
  5
91
330
A
100
AcDbEntity
  8
PV
  6
Continuous
 62
     7
100
AcDbLine
 10
-99.15600000000001
 20
-22.0
 30
0.0
 11
-72.389
 21
-22.0
 31
0.0
  0
MTEXT
  5
92
330
A
100
AcDbEntity
  8
PV
  6
Continuous
 62
     7
100
AcDbMText
 10
-82.231166
 20
-73.5
 30
0.0
 40
5.5
 41
0.0
 71
     2
 72
     1
  1
\A1;103
 11
0.0
 21
1.0
 31
0.0
 73
     1
 44
1.0
  0
POINT
  5
93
330
A
100
AcDbEntity
  8
PV
  6
Continuous
 62
     7
100
AcDbPoint
 10
-101.2729999999999
 20
-22.0
 30
0.0
  0
POINT
  5
94
330
A
100
AcDbEntity
  8
PV
  6
Continuous
 62
     7
100
AcDbPoint
 10
-110.0
 20
-125.0
 30
0.0
  0
POINT
  5
95
330
A
100
AcDbEntity
  8
PV
  6
Continuous
 62
     7
100
AcDbPoint
 10
-74.675
 20
-125.0
 30
0.0
  0
LINE
  5
96
330
A
100
AcDbEntity
  8
PV
  6
Continuous
 62
     7
100
AcDbLine
 10
-198.775
 20
-122.692
 30
0.0
 11
-199.3929999999999
 21
-125.0
 31
0.0
  0
LINE
  5
97
330
A
100
AcDbEntity
  8
PV
  6
Continuous
 62
     7
100
AcDbLine
 10
-199.3929999999999
 20
-125.0
 30
0.0
 11
-200.0119999999999
 21
-122.692
 31
0.0
  0
LINE
  5
98
330
A
100
AcDbEntity
  8
PV
  6
Continuous
 62
     7
100
AcDbLine
 10
-199.3929999999999
 20
-125.0
 30
0.0
 11
-199.3929999999999
 21
-122.692
 31
0.0
  0
LINE
  5
99
330
A
100
AcDbEntity
  8
PV
  6
Continuous
 62
     7
100
AcDbLine
 10
-200.0119999999999
 20
-77.30800000000001
 30
0.0
 11
-199.3929999999999
 21
-75.0
 31
0.0
  0
LINE
  5
9A
330
A
100
AcDbEntity
  8
PV
  6
Continuous
 62
     7
100
AcDbLine
 10
-199.3929999999999
 20
-75.0
 30
0.0
 11
-198.775
 21
-77.30800000000001
 31
0.0
  0
LINE
  5
9B
330
A
100
AcDbEntity
  8
PV
  6
Continuous
 62
     7
100
AcDbLine
 10
-199.3929999999999
 20
-75.0
 30
0.0
 11
-199.3929999999999
 21
-77.30800000000001
 31
0.0
  0
LINE
  5
9C
330
A
100
AcDbEntity
  8
PV
  6
Continuous
 62
     7
100
AcDbLine
 10
-199.3929999999999
 20
-125.0
 30
0.0
 11
-199.3929999999999
 21
-75.0
 31
0.0
  0
LINE
  5
9D
330
A
100
AcDbEntity
  8
PV
  6
Continuous
 62
     7
100
AcDbLine
 10
-152.117
 20
-125.0
 30
0.0
 11
-201.6789999999999
 21
-125.0
 31
0.0
  0
LINE
  5
9E
330
A
100
AcDbEntity
  8
PV
  6
Continuous
 62
     7
100
AcDbLine
 10
-190.5049999999999
 20
-75.0
 30
0.0
 11
-201.6789999999999
 21
-75.0
 31
0.0
  0
MTEXT
  5
9F
330
A
100
AcDbEntity
  8
PV
  6
Continuous
 62
     7
100
AcDbMText
 10
-206.949168
 20
-100.0
 30
0.0
 40
5.5
 41
0.0
 71
     2
 72
     1
  1
\A1;50
 11
0.0
 21
1.0
 31
0.0
 73
     1
 44
1.0
  0
POINT
  5
A0
330
A
100
AcDbEntity
  8
PV
  6
Continuous
 62
     7
100
AcDbPoint
 10
-150.0
 20
-125.0
 30
0.0
  0
POINT
  5
A1
330
A
100
AcDbEntity
  8
PV
  6
Continuous
 62
     7
100
AcDbPoint
 10
-188.3879999999999
 20
-75.0
 30
0.0
  0
POINT
  5
A2
330
A
100
AcDbEntity
  8
PV
  6
Continuous
 62
     7
100
AcDbPoint
 10
-199.3929999999999
 20
-75.0
 30
0.0
  0
LINE
  5
A3
330
A
100
AcDbEntity
  8
PV
  6
Continuous
 62
     7
100
AcDbLine
 10
-188.905
 20
-92.69200000000001
 30
0.0
 11
-189.5229999999999
 21
-95.0
 31
0.0
  0
LINE
  5
A4
330
A
100
AcDbEntity
  8
PV
  6
Continuous
 62
     7
100
AcDbLine
 10
-189.5229999999999
 20
-95.0
 30
0.0
 11
-190.1419999999999
 21
-92.69200000000001
 31
0.0
  0
LINE
  5
A5
330
A
100
AcDbEntity
  8
PV
  6
Continuous
 62
     7
100
AcDbLine
 10
-189.5229999999999
 20
-95.0
 30
0.0
 11
-189.5229999999999
 21
-92.69200000000001
 31
0.0
  0
LINE
  5
A6
330
A
100
AcDbEntity
  8
PV
  6
Continuous
 62
     7
100
AcDbLine
 10
-190.1419999999999
 20
-57.308
 30
0.0
 11
-189.5229999999999
 21
-55.0
 31
0.0
  0
LINE
  5
A7
330
A
100
AcDbEntity
  8
PV
  6
Continuous
 62
     7
100
AcDbLine
 10
-189.5229999999999
 20
-55.0
 30
0.0
 11
-188.905
 21
-57.308
 31
0.0
  0
LINE
  5
A8
330
A
100
AcDbEntity
  8
PV
  6
Continuous
 62
     7
100
AcDbLine
 10
-189.5229999999999
 20
-55.0
 30
0.0
 11
-189.5229999999999
 21
-57.308
 31
0.0
  0
LINE
  5
A9
330
A
100
AcDbEntity
  8
PV
  6
Continuous
 62
     7
100
AcDbLine
 10
-189.5229999999999
 20
-95.0
 30
0.0
 11
-189.5229999999999
 21
-55.0
 31
0.0
  0
LINE
  5
AA
330
A
100
AcDbEntity
  8
PV
  6
Continuous
 62
     7
100
AcDbLine
 10
-182.117
 20
-95.0
 30
0.0
 11
-191.809
 21
-95.0
 31
0.0
  0
LINE
  5
AB
330
A
100
AcDbEntity
  8
PV
  6
Continuous
 62
     7
100
AcDbLine
 10
-182.117
 20
-55.0
 30
0.0
 11
-191.809
 21
-55.0
 31
0.0
  0
MTEXT
  5
AC
330
A
100
AcDbEntity
  8
PV
  6
Continuous
 62
     7
100
AcDbMText
 10
-197.0791679999999
 20
-65.72399999999999
 30
0.0
 40
5.5
 41
0.0
 71
     2
 72
     1
  1
\T1.024;\A1;\U+220540
 11
0.0
 21
1.0
 31
0.0
 73
     1
 44
1.0
  0
POINT
  5
AD
330
A
100
AcDbEntity
  8
PV
  6
Continuous
 62
     7
100
AcDbPoint
 10
-180.0
 20
-95.0
 30
0.0
  0
POINT
  5
AE
330
A
100
AcDbEntity
  8
PV
  6
Continuous
 62
     7
100
AcDbPoint
 10
-180.0
 20
-55.0
 30
0.0
  0
POINT
  5
AF
330
A
100
AcDbEntity
  8
PV
  6
Continuous
 62
     7
100
AcDbPoint
 10
-189.5229999999999
 20
-55.0
 30
0.0
  0
LINE
  5
B0
330
A
100
AcDbEntity
  8
PV
  6
Continuous
 62
     7
100
AcDbLine
 10
-132.308
 20
-145.8079999999999
 30
0.0
 11
-130.0
 21
-146.427
 31
0.0
  0
LINE
  5
B1
330
A
100
AcDbEntity
  8
PV
  6
Continuous
 62
     7
100
AcDbLine
 10
-130.0
 20
-146.427
 30
0.0
 11
-132.308
 21
-147.0449999999999
 31
0.0
  0
LINE
  5
B2
330
A
100
AcDbEntity
  8
PV
  6
Continuous
 62
     7
100
AcDbLine
 10
-130.0
 20
-146.427
 30
0.0
 11
-132.308
 21
-146.427
 31
0.0
  0
LINE
  5
B3
330
A
100
AcDbEntity
  8
PV
  6
Continuous
 62
     7
100
AcDbLine
 10
-177.692
 20
-147.0449999999999
 30
0.0
 11
-180.0
 21
-146.427
 31
0.0
  0
LINE
  5
B4
330
A
100
AcDbEntity
  8
PV
  6
Continuous
 62
     7
100
AcDbLine
 10
-180.0
 20
-146.427
 30
0.0
 11
-177.692
 21
-145.8079999999999
 31
0.0
  0
LINE
  5
B5
330
A
100
AcDbEntity
  8
PV
  6
Continuous
 62
     7
100
AcDbLine
 10
-180.0
 20
-146.427
 30
0.0
 11
-177.692
 21
-146.427
 31
0.0
  0
LINE
  5
B6
330
A
100
AcDbEntity
  8
PV
  6
Continuous
 62
     7
100
AcDbLine
 10
-130.0
 20
-146.427
 30
0.0
 11
-180.0
 21
-146.427
 31
0.0
  0
LINE
  5
B7
330
A
100
AcDbEntity
  8
PV
  6
Continuous
 62
     7
100
AcDbLine
 10
-130.0
 20
-133.277
 30
0.0
 11
-130.0
 21
-148.713
 31
0.0
  0
LINE
  5
B8
330
A
100
AcDbEntity
  8
PV
  6
Continuous
 62
     7
100
AcDbLine
 10
-180.0
 20
-97.117
 30
0.0
 11
-180.0
 21
-148.713
 31
0.0
  0
MTEXT
  5
B9
330
A
100
AcDbEntity
  8
PV
  6
Continuous
 62
     7
100
AcDbMText
 10
-155.0
 20
-138.870832
 30
0.0
 40
5.5
 41
0.0
 71
     2
 72
     1
  1
\A1;50
 73
     1
 44
1.0
  0
POINT
  5
BA
330
A
100
AcDbEntity
  8
PV
  6
Continuous
 62
     7
100
AcDbPoint
 10
-130.0
 20
-131.16
 30
0.0
  0
POINT
  5
BB
330
A
100
AcDbEntity
  8
PV
  6
Continuous
 62
     7
100
AcDbPoint
 10
-180.0
 20
-95.0
 30
0.0
  0
POINT
  5
BC
330
A
100
AcDbEntity
  8
PV
  6
Continuous
 62
     7
100
AcDbPoint
 10
-180.0
 20
-146.427
 30
0.0
  0
LINE
  5
BD
330
A
100
AcDbEntity
  8
PV
  6
Continuous
 62
     7
100
AcDbLine
 10
-154.692
 20
-53.119
 30
0.0
 11
-157.0
 21
-52.5
 31
0.0
  0
LINE
  5
BE
330
A
100
AcDbEntity
  8
PV
  6
Continuous
 62
     7
100
AcDbLine
 10
-157.0
 20
-52.5
 30
0.0
 11
-154.692
 21
-51.881
 31
0.0
  0
LINE
  5
BF
330
A
100
AcDbEntity
  8
PV
  6
Continuous
 62
     7
100
AcDbLine
 10
-157.0
 20
-52.5
 30
0.0
 11
-154.692
 21
-52.5
 31
0.0
  0
LINE
  5
C0
330
A
100
AcDbEntity
  8
PV
  6
Continuous
 62
     7
100
AcDbLine
 10
-105.308
 20
-51.881
 30
0.0
 11
-103.0
 21
-52.5
 31
0.0
  0
LINE
  5
C1
330
A
100
AcDbEntity
  8
PV
  6
Continuous
 62
     7
100
AcDbLine
 10
-103.0
 20
-52.5
 30
0.0
 11
-105.308
 21
-53.119
 31
0.0
  0
LINE
  5
C2
330
A
100
AcDbEntity
  8
PV
  6
Continuous
 62
     7
100
AcDbLine
 10
-103.0
 20
-52.5
 30
0.0
 11
-105.308
 21
-52.5
 31
0.0
  0
LINE
  5
C3
330
A
100
AcDbEntity
  8
PV
  6
Continuous
 62
     7
100
AcDbLine
 10
-157.0
 20
-52.5
 30
0.0
 11
-103.0
 21
-52.5
 31
0.0
  0
MTEXT
  5
C4
330
A
100
AcDbEntity
  8
PV
  6
Continuous
 62
     7
100
AcDbMText
 10
-120.056
 20
-45.943832
 30
0.0
 40
5.5
 41
0.0
 71
     2
 72
     1
  1
\T0.871;\W1.115;\A1;\U+220554
 73
     1
 44
1.0
  0
POINT
  5
C5
330
A
100
AcDbEntity
  8
PV
  6
Continuous
 62
     7
100
AcDbPoint
 10
-157.0
 20
-94.89299999999998
 30
0.0
  0
POINT
  5
C6
330
A
100
AcDbEntity
  8
PV
  6
Continuous
 62
     7
100
AcDbPoint
 10
-103.0
 20
-94.89299999999998
 30
0.0
  0
POINT
  5
C7
330
A
100
AcDbEntity
  8
PV
  6
Continuous
 62
     7
100
AcDbPoint
 10
-103.0
 20
-52.5
 30
0.0
  0
LINE
  5
C8
330
A
100
AcDbEntity
  8
PV
  6
Continuous
 62
     7
100
AcDbLine
 10
-112.3079999999999
 20
-135.6879999999999
 30
0.0
 11
-110.0
 21
-136.306
 31
0.0
  0
LINE
  5
C9
330
A
100
AcDbEntity
  8
PV
  6
Continuous
 62
     7
100
AcDbLine
 10
-110.0
 20
-136.306
 30
0.0
 11
-112.3079999999999
 21
-136.925
 31
0.0
  0
LINE
  5
CA
330
A
100
AcDbEntity
  8
PV
  6
Continuous
 62
     7
100
AcDbLine
 10
-110.0
 20
-136.306
 30
0.0
 11
-112.3079999999999
 21
-136.306
 31
0.0
  0
LINE
  5
CB
330
A
100
AcDbEntity
  8
PV
  6
Continuous
 62
     7
100
AcDbLine
 10
-147.6919999999999
 20
-136.925
 30
0.0
 11
-150.0
 21
-136.306
 31
0.0
  0
LINE
  5
CC
330
A
100
AcDbEntity
  8
PV
  6
Continuous
 62
     7
100
AcDbLine
 10
-150.0
 20
-136.306
 30
0.0
 11
-147.6919999999999
 21
-135.6879999999999
 31
0.0
  0
LINE
  5
CD
330
A
100
AcDbEntity
  8
PV
  6
Continuous
 62
     7
100
AcDbLine
 10
-150.0
 20
-136.306
 30
0.0
 11
-147.6919999999999
 21
-136.306
 31
0.0
  0
LINE
  5
CE
330
A
100
AcDbEntity
  8
PV
  6
Continuous
 62
     7
100
AcDbLine
 10
-110.0
 20
-136.306
 30
0.0
 11
-150.0
 21
-136.306
 31
0.0
  0
LINE
  5
CF
330
A
100
AcDbEntity
  8
PV
  6
Continuous
 62
     7
100
AcDbLine
 10
-110.0
 20
-127.117
 30
0.0
 11
-110.0
 21
-138.592
 31
0.0
  0
LINE
  5
D0
330
A
100
AcDbEntity
  8
PV
  6
Continuous
 62
     7
100
AcDbLine
 10
-150.0
 20
-127.117
 30
0.0
 11
-150.0
 21
-138.592
 31
0.0
  0
MTEXT
  5
D1
330
A
100
AcDbEntity
  8
PV
  6
Continuous
 62
     7
100
AcDbMText
 10
-120.472
 20
-129.749832
 30
0.0
 40
5.5
 41
0.0
 71
     2
 72
     1
  1
\T1.024;\A1;\U+220540
 73
     1
 44
1.0
  0
POINT
  5
D2
330
A
100
AcDbEntity
  8
PV
  6
Continuous
 62
     7
100
AcDbPoint
 10
-110.0
 20
-125.0
 30
0.0
  0
POINT
  5
D3
330
A
100
AcDbEntity
  8
PV
  6
Continuous
 62
     7
100
AcDbPoint
 10
-150.0
 20
-125.0
 30
0.0
  0
POINT
  5
D4
330
A
100
AcDbEntity
  8
PV
  6
Continuous
 62
     7
100
AcDbPoint
 10
-150.0
 20
-136.306
 30
0.0
  0
LINE
  5
D5
330
A
100
AcDbEntity
  8
PV
  6
Continuous
 62
     7
100
AcDbLine
 10
-111.3779999999999
 20
-3.653
 30
0.0
 11
-111.357
 21
-3.628
 31
0.0
  0
LINE
  5
D6
330
A
100
AcDbEntity
  8
PV
  6
Continuous
 62
     7
100
AcDbLine
 10
-111.357
 20
-3.628
 30
0.0
 11
-111.3369999999999
 21
-3.603
 31
0.0
  0
LINE
  5
D7
330
A
100
AcDbEntity
  8
PV
  6
Continuous
 62
     7
100
AcDbLine
 10
-111.3369999999999
 20
-3.603
 30
0.0
 11
-111.3169999999999
 21
-3.578
 31
0.0
  0
LINE
  5
D8
330
A
100
AcDbEntity
  8
PV
  6
Continuous
 62
     7
100
AcDbLine
 10
-111.3169999999999
 20
-3.578
 30
0.0
 11
-111.2979999999999
 21
-3.552
 31
0.0
  0
LINE
  5
D9
330
A
100
AcDbEntity
  8
PV
  6
Continuous
 62
     7
100
AcDbLine
 10
-111.2979999999999
 20
-3.552
 30
0.0
 11
-111.2789999999999
 21
-3.526
 31
0.0
  0
LINE
  5
DA
330
A
100
AcDbEntity
  8
PV
  6
Continuous
 62
     7
100
AcDbLine
 10
-111.2789999999999
 20
-3.526
 30
0.0
 11
-111.261
 21
-3.5
 31
0.0
  0
LINE
  5
DB
330
A
100
AcDbEntity
  8
PV
  6
Continuous
 62
     7
100
AcDbLine
 10
-111.261
 20
-3.5
 30
0.0
 11
-111.2419999999999
 21
-3.473999999999999
 31
0.0
  0
LINE
  5
DC
330
A
100
AcDbEntity
  8
PV
  6
Continuous
 62
     7
100
AcDbLine
 10
-111.2419999999999
 20
-3.473999999999999
 30
0.0
 11
-111.2239999999999
 21
-3.447
 31
0.0
  0
LINE
  5
DD
330
A
100
AcDbEntity
  8
PV
  6
Continuous
 62
     7
100
AcDbLine
 10
-111.2239999999999
 20
-3.447
 30
0.0
 11
-111.207
 21
-3.421
 31
0.0
  0
LINE
  5
DE
330
A
100
AcDbEntity
  8
PV
  6
Continuous
 62
     7
100
AcDbLine
 10
-111.207
 20
-3.421
 30
0.0
 11
-111.189
 21
-3.393999999999999
 31
0.0
  0
LINE
  5
DF
330
A
100
AcDbEntity
  8
PV
  6
Continuous
 62
     7
100
AcDbLine
 10
-111.189
 20
-3.393999999999999
 30
0.0
 11
-111.172
 21
-3.366
 31
0.0
  0
LINE
  5
E0
330
A
100
AcDbEntity
  8
PV
  6
Continuous
 62
     7
100
AcDbLine
 10
-111.172
 20
-3.366
 30
0.0
 11
-111.155
 21
-3.338999999999999
 31
0.0
  0
LINE
  5
E1
330
A
100
AcDbEntity
  8
PV
  6
Continuous
 62
     7
100
AcDbLine
 10
-111.155
 20
-3.338999999999999
 30
0.0
 11
-111.1389999999999
 21
-3.311999999999999
 31
0.0
  0
LINE
  5
E2
330
A
100
AcDbEntity
  8
PV
  6
Continuous
 62
     7
100
AcDbLine
 10
-111.1389999999999
 20
-3.311999999999999
 30
0.0
 11
-111.1229999999999
 21
-3.283999999999999
 31
0.0
  0
LINE
  5
E3
330
A
100
AcDbEntity
  8
PV
  6
Continuous
 62
     7
100
AcDbLine
 10
-111.1229999999999
 20
-3.283999999999999
 30
0.0
 11
-111.107
 21
-3.256
 31
0.0
  0
LINE
  5
E4
330
A
100
AcDbEntity
  8
PV
  6
Continuous
 62
     7
100
AcDbLine
 10
-111.107
 20
-3.256
 30
0.0
 11
-111.091
 21
-3.228
 31
0.0
  0
LINE
  5
E5
330
A
100
AcDbEntity
  8
PV
  6
Continuous
 62
     7
100
AcDbLine
 10
-111.091
 20
-3.228
 30
0.0
 11
-111.076
 21
-3.2
 31
0.0
  0
LINE
  5
E6
330
A
100
AcDbEntity
  8
PV
  6
Continuous
 62
     7
100
AcDbLine
 10
-111.076
 20
-3.2
 30
0.0
 11
-111.06
 21
-3.171
 31
0.0
  0
LINE
  5
E7
330
A
100
AcDbEntity
  8
PV
  6
Continuous
 62
     7
100
AcDbLine
 10
-111.06
 20
-3.171
 30
0.0
 11
-111.0449999999999
 21
-3.143
 31
0.0
  0
LINE
  5
E8
330
A
100
AcDbEntity
  8
PV
  6
Continuous
 62
     7
100
AcDbLine
 10
-111.0449999999999
 20
-3.143
 30
0.0
 11
-111.031
 21
-3.113999999999999
 31
0.0
  0
LINE
  5
E9
330
A
100
AcDbEntity
  8
PV
  6
Continuous
 62
     7
100
AcDbLine
 10
-111.031
 20
-3.113999999999999
 30
0.0
 11
-111.016
 21
-3.086
 31
0.0
  0
LINE
  5
EA
330
A
100
AcDbEntity
  8
PV
  6
Continuous
 62
     7
100
AcDbLine
 10
-111.016
 20
-3.086
 30
0.0
 11
-111.002
 21
-3.056999999999999
 31
0.0
  0
LINE
  5
EB
330
A
100
AcDbEntity
  8
PV
  6
Continuous
 62
     7
100
AcDbLine
 10
-111.002
 20
-3.056999999999999
 30
0.0
 11
-110.9879999999999
 21
-3.028
 31
0.0
  0
LINE
  5
EC
330
A
100
AcDbEntity
  8
PV
  6
Continuous
 62
     7
100
AcDbLine
 10
-110.9879999999999
 20
-3.028
 30
0.0
 11
-110.9739999999999
 21
-2.998999999999999
 31
0.0
  0
LINE
  5
ED
330
A
100
AcDbEntity
  8
PV
  6
Continuous
 62
     7
100
AcDbLine
 10
-110.9739999999999
 20
-2.998999999999999
 30
0.0
 11
-110.9609999999999
 21
-2.97
 31
0.0
  0
LINE
  5
EE
330
A
100
AcDbEntity
  8
PV
  6
Continuous
 62
     7
100
AcDbLine
 10
-110.9609999999999
 20
-2.97
 30
0.0
 11
-110.948
 21
-2.941
 31
0.0
  0
LINE
  5
EF
330
A
100
AcDbEntity
  8
PV
  6
Continuous
 62
     7
100
AcDbLine
 10
-110.948
 20
-2.941
 30
0.0
 11
-110.9339999999999
 21
-2.911999999999999
 31
0.0
  0
LINE
  5
F0
330
A
100
AcDbEntity
  8
PV
  6
Continuous
 62
     7
100
AcDbLine
 10
-110.9339999999999
 20
-2.911999999999999
 30
0.0
 11
-110.921
 21
-2.881999999999999
 31
0.0
  0
LINE
  5
F1
330
A
100
AcDbEntity
  8
PV
  6
Continuous
 62
     7
100
AcDbLine
 10
-110.921
 20
-2.881999999999999
 30
0.0
 11
-110.9089999999999
 21
-2.853
 31
0.0
  0
LINE
  5
F2
330
A
100
AcDbEntity
  8
PV
  6
Continuous
 62
     7
100
AcDbLine
 10
-110.9089999999999
 20
-2.853
 30
0.0
 11
-110.8959999999999
 21
-2.823
 31
0.0
  0
LINE
  5
F3
330
A
100
AcDbEntity
  8
PV
  6
Continuous
 62
     7
100
AcDbLine
 10
-110.8959999999999
 20
-2.823
 30
0.0
 11
-110.884
 21
-2.793999999999999
 31
0.0
  0
LINE
  5
F4
330
A
100
AcDbEntity
  8
PV
  6
Continuous
 62
     7
100
AcDbLine
 10
-110.884
 20
-2.793999999999999
 30
0.0
 11
-110.872
 21
-2.763999999999999
 31
0.0
  0
LINE
  5
F5
330
A
100
AcDbEntity
  8
PV
  6
Continuous
 62
     7
100
AcDbLine
 10
-110.872
 20
-2.763999999999999
 30
0.0
 11
-110.86
 21
-2.733999999999999
 31
0.0
  0
LINE
  5
F6
330
A
100
AcDbEntity
  8
PV
  6
Continuous
 62
     7
100
AcDbLine
 10
-110.86
 20
-2.733999999999999
 30
0.0
 11
-110.8479999999999
 21
-2.703999999999999
 31
0.0
  0
LINE
  5
F7
330
A
100
AcDbEntity
  8
PV
  6
Continuous
 62
     7
100
AcDbLine
 10
-110.8479999999999
 20
-2.703999999999999
 30
0.0
 11
-110.837
 21
-2.673999999999999
 31
0.0
  0
LINE
  5
F8
330
A
100
AcDbEntity
  8
PV
  6
Continuous
 62
     7
100
AcDbLine
 10
-110.837
 20
-2.673999999999999
 30
0.0
 11
-110.826
 21
-2.643999999999999
 31
0.0
  0
LINE
  5
F9
330
A
100
AcDbEntity
  8
PV
  6
Continuous
 62
     7
100
AcDbLine
 10
-110.826
 20
-2.643999999999999
 30
0.0
 11
-110.8139999999999
 21
-2.613999999999999
 31
0.0
  0
LINE
  5
FA
330
A
100
AcDbEntity
  8
PV
  6
Continuous
 62
     7
100
AcDbLine
 10
-110.8139999999999
 20
-2.613999999999999
 30
0.0
 11
-110.803
 21
-2.583999999999999
 31
0.0
  0
LINE
  5
FB
330
A
100
AcDbEntity
  8
PV
  6
Continuous
 62
     7
100
AcDbLine
 10
-110.803
 20
-2.583999999999999
 30
0.0
 11
-110.7929999999999
 21
-2.554
 31
0.0
  0
LINE
  5
FC
330
A
100
AcDbEntity
  8
PV
  6
Continuous
 62
     7
100
AcDbLine
 10
-110.7929999999999
 20
-2.554
 30
0.0
 11
-110.782
 21
-2.524
 31
0.0
  0
LINE
  5
FD
330
A
100
AcDbEntity
  8
PV
  6
Continuous
 62
     7
100
AcDbLine
 10
-110.782
 20
-2.524
 30
0.0
 11
-110.772
 21
-2.493
 31
0.0
  0
LINE
  5
FE
330
A
100
AcDbEntity
  8
PV
  6
Continuous
 62
     7
100
AcDbLine
 10
-110.772
 20
-2.493
 30
0.0
 11
-110.761
 21
-2.463
 31
0.0
  0
LINE
  5
FF
330
A
100
AcDbEntity
  8
PV
  6
Continuous
 62
     7
100
AcDbLine
 10
-110.761
 20
-2.463
 30
0.0
 11
-110.7509999999999
 21
-2.431999999999999
 31
0.0
  0
LINE
  5
100
330
A
100
AcDbEntity
  8
PV
  6
Continuous
 62
     7
100
AcDbLine
 10
-110.7509999999999
 20
-2.431999999999999
 30
0.0
 11
-110.741
 21
-2.401999999999999
 31
0.0
  0
LINE
  5
101
330
A
100
AcDbEntity
  8
PV
  6
Continuous
 62
     7
100
AcDbLine
 10
-110.741
 20
-2.401999999999999
 30
0.0
 11
-110.732
 21
-2.370999999999999
 31
0.0
  0
LINE
  5
102
330
A
100
AcDbEntity
  8
PV
  6
Continuous
 62
     7
100
AcDbLine
 10
-110.732
 20
-2.370999999999999
 30
0.0
 11
-110.722
 21
-2.340999999999999
 31
0.0
  0
LINE
  5
103
330
A
100
AcDbEntity
  8
PV
  6
Continuous
 62
     7
100
AcDbLine
 10
-110.722
 20
-2.340999999999999
 30
0.0
 11
-110.7129999999999
 21
-2.31
 31
0.0
  0
LINE
  5
104
330
A
100
AcDbEntity
  8
PV
  6
Continuous
 62
     7
100
AcDbLine
 10
-110.7129999999999
 20
-2.31
 30
0.0
 11
-110.7029999999999
 21
-2.278999999999999
 31
0.0
  0
LINE
  5
105
330
A
100
AcDbEntity
  8
PV
  6
Continuous
 62
     7
100
AcDbLine
 10
-110.7029999999999
 20
-2.278999999999999
 30
0.0
 11
-110.694
 21
-2.249
 31
0.0
  0
LINE
  5
106
330
A
100
AcDbEntity
  8
PV
  6
Continuous
 62
     7
100
AcDbLine
 10
-110.694
 20
-2.249
 30
0.0
 11
-110.685
 21
-2.217999999999999
 31
0.0
  0
LINE
  5
107
330
A
100
AcDbEntity
  8
PV
  6
Continuous
 62
     7
100
AcDbLine
 10
-110.685
 20
-2.217999999999999
 30
0.0
 11
-110.6759999999999
 21
-2.186999999999999
 31
0.0
  0
LINE
  5
108
330
A
100
AcDbEntity
  8
PV
  6
Continuous
 62
     7
100
AcDbLine
 10
-110.6759999999999
 20
-2.186999999999999
 30
0.0
 11
-110.6679999999999
 21
-2.156
 31
0.0
  0
LINE
  5
109
330
A
100
AcDbEntity
  8
PV
  6
Continuous
 62
     7
100
AcDbLine
 10
-110.6679999999999
 20
-2.156
 30
0.0
 11
-110.6589999999999
 21
-2.125
 31
0.0
  0
LINE
  5
10A
330
A
100
AcDbEntity
  8
PV
  6
Continuous
 62
     7
100
AcDbLine
 10
-110.6589999999999
 20
-2.125
 30
0.0
 11
-110.651
 21
-2.093999999999999
 31
0.0
  0
LINE
  5
10B
330
A
100
AcDbEntity
  8
PV
  6
Continuous
 62
     7
100
AcDbLine
 10
-110.651
 20
-2.093999999999999
 30
0.0
 11
-110.6429999999999
 21
-2.063
 31
0.0
  0
LINE
  5
10C
330
A
100
AcDbEntity
  8
PV
  6
Continuous
 62
     7
100
AcDbLine
 10
-110.6429999999999
 20
-2.063
 30
0.0
 11
-110.635
 21
-2.032
 31
0.0
  0
LINE
  5
10D
330
A
100
AcDbEntity
  8
PV
  6
Continuous
 62
     7
100
AcDbLine
 10
-110.635
 20
-2.032
 30
0.0
 11
-110.627
 21
-2.000999999999999
 31
0.0
  0
LINE
  5
10E
330
A
100
AcDbEntity
  8
PV
  6
Continuous
 62
     7
100
AcDbLine
 10
-110.627
 20
-2.000999999999999
 30
0.0
 11
-110.619
 21
-1.969999999999999
 31
0.0
  0
LINE
  5
10F
330
A
100
AcDbEntity
  8
PV
  6
Continuous
 62
     7
100
AcDbLine
 10
-110.619
 20
-1.969999999999999
 30
0.0
 11
-110.612
 21
-1.939
 31
0.0
  0
LINE
  5
110
330
A
100
AcDbEntity
  8
PV
  6
Continuous
 62
     7
100
AcDbLine
 10
-110.612
 20
-1.939
 30
0.0
 11
-110.6039999999999
 21
-1.908
 31
0.0
  0
LINE
  5
111
330
A
100
AcDbEntity
  8
PV
  6
Continuous
 62
     7
100
AcDbLine
 10
-110.6039999999999
 20
-1.908
 30
0.0
 11
-110.597
 21
-1.876999999999999
 31
0.0
  0
LINE
  5
112
330
A
100
AcDbEntity
  8
PV
  6
Continuous
 62
     7
100
AcDbLine
 10
-110.597
 20
-1.876999999999999
 30
0.0
 11
-110.59
 21
-1.844999999999999
 31
0.0
  0
LINE
  5
113
330
A
100
AcDbEntity
  8
PV
  6
Continuous
 62
     7
100
AcDbLine
 10
-110.59
 20
-1.844999999999999
 30
0.0
 11
-110.583
 21
-1.814
 31
0.0
  0
LINE
  5
114
330
A
100
AcDbEntity
  8
PV
  6
Continuous
 62
     7
100
AcDbLine
 10
-110.583
 20
-1.814
 30
0.0
 11
-110.576
 21
-1.783
 31
0.0
  0
LINE
  5
115
330
A
100
AcDbEntity
  8
PV
  6
Continuous
 62
     7
100
AcDbLine
 10
-110.576
 20
-1.783
 30
0.0
 11
-110.569
 21
-1.750999999999999
 31
0.0
  0
LINE
  5
116
330
A
100
AcDbEntity
  8
PV
  6
Continuous
 62
     7
100
AcDbLine
 10
-110.569
 20
-1.750999999999999
 30
0.0
 11
-110.562
 21
-1.719999999999999
 31
0.0
  0
LINE
  5
117
330
A
100
AcDbEntity
  8
PV
  6
Continuous
 62
     7
100
AcDbLine
 10
-110.562
 20
-1.719999999999999
 30
0.0
 11
-110.556
 21
-1.688
 31
0.0
  0
LINE
  5
118
330
A
100
AcDbEntity
  8
PV
  6
Continuous
 62
     7
100
AcDbLine
 10
-110.556
 20
-1.688
 30
0.0
 11
-110.5499999999999
 21
-1.656999999999999
 31
0.0
  0
LINE
  5
119
330
A
100
AcDbEntity
  8
PV
  6
Continuous
 62
     7
100
AcDbLine
 10
-110.5499999999999
 20
-1.656999999999999
 30
0.0
 11
-110.5429999999999
 21
-1.625999999999999
 31
0.0
  0
LINE
  5
11A
330
A
100
AcDbEntity
  8
PV
  6
Continuous
 62
     7
100
AcDbLine
 10
-110.5429999999999
 20
-1.625999999999999
 30
0.0
 11
-110.537
 21
-1.594
 31
0.0
  0
LINE
  5
11B
330
A
100
AcDbEntity
  8
PV
  6
Continuous
 62
     7
100
AcDbLine
 10
-110.537
 20
-1.594
 30
0.0
 11
-110.531
 21
-1.563
 31
0.0
  0
LINE
  5
11C
330
A
100
AcDbEntity
  8
PV
  6
Continuous
 62
     7
100
AcDbLine
 10
-110.531
 20
-1.563
 30
0.0
 11
-110.526
 21
-1.530999999999999
 31
0.0
  0
LINE
  5
11D
330
A
100
AcDbEntity
  8
PV
  6
Continuous
 62
     7
100
AcDbLine
 10
-110.526
 20
-1.530999999999999
 30
0.0
 11
-110.5199999999999
 21
-1.5
 31
0.0
  0
LINE
  5
11E
330
A
100
AcDbEntity
  8
PV
  6
Continuous
 62
     7
100
AcDbLine
 10
-110.5199999999999
 20
-1.5
 30
0.0
 11
-110.514
 21
-1.468
 31
0.0
  0
LINE
  5
11F
330
A
100
AcDbEntity
  8
PV
  6
Continuous
 62
     7
100
AcDbLine
 10
-110.514
 20
-1.468
 30
0.0
 11
-110.509
 21
-1.435999999999999
 31
0.0
  0
LINE
  5
120
330
A
100
AcDbEntity
  8
PV
  6
Continuous
 62
     7
100
AcDbLine
 10
-110.509
 20
-1.435999999999999
 30
0.0
 11
-110.504
 21
-1.405
 31
0.0
  0
LINE
  5
121
330
A
100
AcDbEntity
  8
PV
  6
Continuous
 62
     7
100
AcDbLine
 10
-110.504
 20
-1.405
 30
0.0
 11
-110.4979999999999
 21
-1.373
 31
0.0
  0
LINE
  5
122
330
A
100
AcDbEntity
  8
PV
  6
Continuous
 62
     7
100
AcDbLine
 10
-110.4979999999999
 20
-1.373
 30
0.0
 11
-110.4929999999999
 21
-1.340999999999999
 31
0.0
  0
LINE
  5
123
330
A
100
AcDbEntity
  8
PV
  6
Continuous
 62
     7
100
AcDbLine
 10
-110.4929999999999
 20
-1.340999999999999
 30
0.0
 11
-110.4889999999999
 21
-1.31
 31
0.0
  0
LINE
  5
124
330
A
100
AcDbEntity
  8
PV
  6
Continuous
 62
     7
100
AcDbLine
 10
-110.4889999999999
 20
-1.31
 30
0.0
 11
-110.484
 21
-1.278
 31
0.0
  0
LINE
  5
125
330
A
100
AcDbEntity
  8
PV
  6
Continuous
 62
     7
100
AcDbLine
 10
-110.484
 20
-1.278
 30
0.0
 11
-110.4789999999999
 21
-1.245999999999999
 31
0.0
  0
LINE
  5
126
330
A
100
AcDbEntity
  8
PV
  6
Continuous
 62
     7
100
AcDbLine
 10
-110.4789999999999
 20
-1.245999999999999
 30
0.0
 11
-110.4749999999999
 21
-1.215
 31
0.0
  0
LINE
  5
127
330
A
100
AcDbEntity
  8
PV
  6
Continuous
 62
     7
100
AcDbLine
 10
-110.4749999999999
 20
-1.215
 30
0.0
 11
-110.47
 21
-1.183
 31
0.0
  0
LINE
  5
128
330
A
100
AcDbEntity
  8
PV
  6
Continuous
 62
     7
100
AcDbLine
 10
-110.47
 20
-1.183
 30
0.0
 11
-110.466
 21
-1.151
 31
0.0
  0
LINE
  5
129
330
A
100
AcDbEntity
  8
PV
  6
Continuous
 62
     7
100
AcDbLine
 10
-110.466
 20
-1.151
 30
0.0
 11
-110.462
 21
-1.118999999999999
 31
0.0
  0
LINE
  5
12A
330
A
100
AcDbEntity
  8
PV
  6
Continuous
 62
     7
100
AcDbLine
 10
-110.462
 20
-1.118999999999999
 30
0.0
 11
-110.458
 21
-1.086999999999999
 31
0.0
  0
LINE
  5
12B
330
A
100
AcDbEntity
  8
PV
  6
Continuous
 62
     7
100
AcDbLine
 10
-110.458
 20
-1.086999999999999
 30
0.0
 11
-110.4539999999999
 21
-1.056
 31
0.0
  0
LINE
  5
12C
330
A
100
AcDbEntity
  8
PV
  6
Continuous
 62
     7
100
AcDbLine
 10
-110.4539999999999
 20
-1.056
 30
0.0
 11
-110.45
 21
-1.024
 31
0.0
  0
LINE
  5
12D
330
A
100
AcDbEntity
  8
PV
  6
Continuous
 62
     7
100
AcDbLine
 10
-110.45
 20
-1.024
 30
0.0
 11
-110.4459999999999
 21
-0.9919999999999999
 31
0.0
  0
LINE
  5
12E
330
A
100
AcDbEntity
  8
PV
  6
Continuous
 62
     7
100
AcDbLine
 10
-110.4459999999999
 20
-0.9919999999999999
 30
0.0
 11
-110.443
 21
-0.9599999999999999
 31
0.0
  0
LINE
  5
12F
330
A
100
AcDbEntity
  8
PV
  6
Continuous
 62
     7
100
AcDbLine
 10
-110.443
 20
-0.9599999999999999
 30
0.0
 11
-110.4389999999999
 21
-0.9279999999999999
 31
0.0
  0
LINE
  5
130
330
A
100
AcDbEntity
  8
PV
  6
Continuous
 62
     7
100
AcDbLine
 10
-110.4389999999999
 20
-0.9279999999999999
 30
0.0
 11
-110.436
 21
-0.8959999999999999
 31
0.0
  0
LINE
  5
131
330
A
100
AcDbEntity
  8
PV
  6
Continuous
 62
     7
100
AcDbLine
 10
-110.436
 20
-0.8959999999999999
 30
0.0
 11
-110.433
 21
-0.864
 31
0.0
  0
LINE
  5
132
330
A
100
AcDbEntity
  8
PV
  6
Continuous
 62
     7
100
AcDbLine
 10
-110.433
 20
-0.864
 30
0.0
 11
-110.43
 21
-0.832
 31
0.0
  0
LINE
  5
133
330
A
100
AcDbEntity
  8
PV
  6
Continuous
 62
     7
100
AcDbLine
 10
-110.43
 20
-0.832
 30
0.0
 11
-110.427
 21
-0.8
 31
0.0
  0
LINE
  5
134
330
A
100
AcDbEntity
  8
PV
  6
Continuous
 62
     7
100
AcDbLine
 10
-110.427
 20
-0.8
 30
0.0
 11
-110.4239999999999
 21
-0.7690000000000001
 31
0.0
  0
LINE
  5
135
330
A
100
AcDbEntity
  8
PV
  6
Continuous
 62
     7
100
AcDbLine
 10
-110.4239999999999
 20
-0.7690000000000001
 30
0.0
 11
-110.421
 21
-0.737
 31
0.0
  0
LINE
  5
136
330
A
100
AcDbEntity
  8
PV
  6
Continuous
 62
     7
100
AcDbLine
 10
-110.421
 20
-0.737
 30
0.0
 11
-110.419
 21
-0.705
 31
0.0
  0
LINE
  5
137
330
A
100
AcDbEntity
  8
PV
  6
Continuous
 62
     7
100
AcDbLine
 10
-110.419
 20
-0.705
 30
0.0
 11
-110.416
 21
-0.673
 31
0.0
  0
LINE
  5
138
330
A
100
AcDbEntity
  8
PV
  6
Continuous
 62
     7
100
AcDbLine
 10
-110.416
 20
-0.673
 30
0.0
 11
-110.414
 21
-0.641
 31
0.0
  0
LINE
  5
139
330
A
100
AcDbEntity
  8
PV
  6
Continuous
 62
     7
100
AcDbLine
 10
-110.414
 20
-0.641
 30
0.0
 11
-110.4119999999999
 21
-0.609
 31
0.0
  0
LINE
  5
13A
330
A
100
AcDbEntity
  8
PV
  6
Continuous
 62
     7
100
AcDbLine
 10
-110.4119999999999
 20
-0.609
 30
0.0
 11
-110.41
 21
-0.5770000000000001
 31
0.0
  0
LINE
  5
13B
330
A
100
AcDbEntity
  8
PV
  6
Continuous
 62
     7
100
AcDbLine
 10
-110.41
 20
-0.5770000000000001
 30
0.0
 11
-110.407
 21
-0.5450000000000001
 31
0.0
  0
LINE
  5
13C
330
A
100
AcDbEntity
  8
PV
  6
Continuous
 62
     7
100
AcDbLine
 10
-110.407
 20
-0.5450000000000001
 30
0.0
 11
-110.406
 21
-0.513
 31
0.0
  0
LINE
  5
13D
330
A
100
AcDbEntity
  8
PV
  6
Continuous
 62
     7
100
AcDbLine
 10
-110.406
 20
-0.513
 30
0.0
 11
-110.4039999999999
 21
-0.4810000000000001
 31
0.0
  0
LINE
  5
13E
330
A
100
AcDbEntity
  8
PV
  6
Continuous
 62
     7
100
AcDbLine
 10
-110.4039999999999
 20
-0.4810000000000001
 30
0.0
 11
-110.402
 21
-0.4490000000000001
 31
0.0
  0
LINE
  5
13F
330
A
100
AcDbEntity
  8
PV
  6
Continuous
 62
     7
100
AcDbLine
 10
-110.402
 20
-0.4490000000000001
 30
0.0
 11
-110.401
 21
-0.417
 31
0.0
  0
LINE
  5
140
330
A
100
AcDbEntity
  8
PV
  6
Continuous
 62
     7
100
AcDbLine
 10
-110.401
 20
-0.417
 30
0.0
 11
-110.399
 21
-0.385
 31
0.0
  0
LINE
  5
141
330
A
100
AcDbEntity
  8
PV
  6
Continuous
 62
     7
100
AcDbLine
 10
-110.399
 20
-0.385
 30
0.0
 11
-110.3979999999999
 21
-0.353
 31
0.0
  0
LINE
  5
142
330
A
100
AcDbEntity
  8
PV
  6
Continuous
 62
     7
100
AcDbLine
 10
-110.3979999999999
 20
-0.353
 30
0.0
 11
-110.397
 21
-0.32
 31
0.0
  0
LINE
  5
143
330
A
100
AcDbEntity
  8
PV
  6
Continuous
 62
     7
100
AcDbLine
 10
-110.397
 20
-0.32
 30
0.0
 11
-110.396
 21
-0.288
 31
0.0
  0
LINE
  5
144
330
A
100
AcDbEntity
  8
PV
  6
Continuous
 62
     7
100
AcDbLine
 10
-110.396
 20
-0.288
 30
0.0
 11
-110.3949999999999
 21
-0.256
 31
0.0
  0
LINE
  5
145
330
A
100
AcDbEntity
  8
PV
  6
Continuous
 62
     7
100
AcDbLine
 10
-110.3949999999999
 20
-0.256
 30
0.0
 11
-110.3939999999999
 21
-0.224
 31
0.0
  0
LINE
  5
146
330
A
100
AcDbEntity
  8
PV
  6
Continuous
 62
     7
100
AcDbLine
 10
-110.3939999999999
 20
-0.224
 30
0.0
 11
-110.3929999999999
 21
-0.192
 31
0.0
  0
LINE
  5
147
330
A
100
AcDbEntity
  8
PV
  6
Continuous
 62
     7
100
AcDbLine
 10
-110.3929999999999
 20
-0.192
 30
0.0
 11
-110.392
 21
-0.16
 31
0.0
  0
LINE
  5
148
330
A
100
AcDbEntity
  8
PV
  6
Continuous
 62
     7
100
AcDbLine
 10
-110.392
 20
-0.16
 30
0.0
 11
-110.392
 21
-0.128
 31
0.0
  0
LINE
  5
149
330
A
100
AcDbEntity
  8
PV
  6
Continuous
 62
     7
100
AcDbLine
 10
-110.392
 20
-0.128
 30
0.0
 11
-110.391
 21
-0.096
 31
0.0
  0
LINE
  5
14A
330
A
100
AcDbEntity
  8
PV
  6
Continuous
 62
     7
100
AcDbLine
 10
-110.391
 20
-0.096
 30
0.0
 11
-110.391
 21
-0.064
 31
0.0
  0
LINE
  5
14B
330
A
100
AcDbEntity
  8
PV
  6
Continuous
 62
     7
100
AcDbLine
 10
-110.391
 20
-0.064
 30
0.0
 11
-110.391
 21
-0.032
 31
0.0
  0
LINE
  5
14C
330
A
100
AcDbEntity
  8
PV
  6
Continuous
 62
     7
100
AcDbLine
 10
-110.391
 20
-0.032
 30
0.0
 11
-110.391
 21
0.0
 31
0.0
  0
LINE
  5
14D
330
A
100
AcDbEntity
  8
PV
  6
Continuous
 62
     7
100
AcDbLine
 10
-149.609
 20
0.0
 30
0.0
 11
-149.609
 21
-0.032
 31
0.0
  0
LINE
  5
14E
330
A
100
AcDbEntity
  8
PV
  6
Continuous
 62
     7
100
AcDbLine
 10
-149.609
 20
-0.032
 30
0.0
 11
-149.609
 21
-0.064
 31
0.0
  0
LINE
  5
14F
330
A
100
AcDbEntity
  8
PV
  6
Continuous
 62
     7
100
AcDbLine
 10
-149.609
 20
-0.064
 30
0.0
 11
-149.609
 21
-0.096
 31
0.0
  0
LINE
  5
150
330
A
100
AcDbEntity
  8
PV
  6
Continuous
 62
     7
100
AcDbLine
 10
-149.609
 20
-0.096
 30
0.0
 11
-149.608
 21
-0.128
 31
0.0
  0
LINE
  5
151
330
A
100
AcDbEntity
  8
PV
  6
Continuous
 62
     7
100
AcDbLine
 10
-149.608
 20
-0.128
 30
0.0
 11
-149.608
 21
-0.16
 31
0.0
  0
LINE
  5
152
330
A
100
AcDbEntity
  8
PV
  6
Continuous
 62
     7
100
AcDbLine
 10
-149.608
 20
-0.16
 30
0.0
 11
-149.607
 21
-0.192
 31
0.0
  0
LINE
  5
153
330
A
100
AcDbEntity
  8
PV
  6
Continuous
 62
     7
100
AcDbLine
 10
-149.607
 20
-0.192
 30
0.0
 11
-149.6059999999999
 21
-0.224
 31
0.0
  0
LINE
  5
154
330
A
100
AcDbEntity
  8
PV
  6
Continuous
 62
     7
100
AcDbLine
 10
-149.6059999999999
 20
-0.224
 30
0.0
 11
-149.6049999999999
 21
-0.256
 31
0.0
  0
LINE
  5
155
330
A
100
AcDbEntity
  8
PV
  6
Continuous
 62
     7
100
AcDbLine
 10
-149.6049999999999
 20
-0.256
 30
0.0
 11
-149.6039999999999
 21
-0.288
 31
0.0
  0
LINE
  5
156
330
A
100
AcDbEntity
  8
PV
  6
Continuous
 62
     7
100
AcDbLine
 10
-149.6039999999999
 20
-0.288
 30
0.0
 11
-149.6029999999999
 21
-0.32
 31
0.0
  0
LINE
  5
157
330
A
100
AcDbEntity
  8
PV
  6
Continuous
 62
     7
100
AcDbLine
 10
-149.6029999999999
 20
-0.32
 30
0.0
 11
-149.602
 21
-0.353
 31
0.0
  0
LINE
  5
158
330
A
100
AcDbEntity
  8
PV
  6
Continuous
 62
     7
100
AcDbLine
 10
-149.602
 20
-0.353
 30
0.0
 11
-149.601
 21
-0.385
 31
0.0
  0
LINE
  5
159
330
A
100
AcDbEntity
  8
PV
  6
Continuous
 62
     7
100
AcDbLine
 10
-149.601
 20
-0.385
 30
0.0
 11
-149.5989999999999
 21
-0.417
 31
0.0
  0
LINE
  5
15A
330
A
100
AcDbEntity
  8
PV
  6
Continuous
 62
     7
100
AcDbLine
 10
-149.5989999999999
 20
-0.417
 30
0.0
 11
-149.5979999999999
 21
-0.4490000000000001
 31
0.0
  0
LINE
  5
15B
330
A
100
AcDbEntity
  8
PV
  6
Continuous
 62
     7
100
AcDbLine
 10
-149.5979999999999
 20
-0.4490000000000001
 30
0.0
 11
-149.596
 21
-0.4810000000000001
 31
0.0
  0
LINE
  5
15C
330
A
100
AcDbEntity
  8
PV
  6
Continuous
 62
     7
100
AcDbLine
 10
-149.596
 20
-0.4810000000000001
 30
0.0
 11
-149.594
 21
-0.513
 31
0.0
  0
LINE
  5
15D
330
A
100
AcDbEntity
  8
PV
  6
Continuous
 62
     7
100
AcDbLine
 10
-149.594
 20
-0.513
 30
0.0
 11
-149.5929999999999
 21
-0.5450000000000001
 31
0.0
  0
LINE
  5
15E
330
A
100
AcDbEntity
  8
PV
  6
Continuous
 62
     7
100
AcDbLine
 10
-149.5929999999999
 20
-0.5450000000000001
 30
0.0
 11
-149.5899999999999
 21
-0.5770000000000001
 31
0.0
  0
LINE
  5
15F
330
A
100
AcDbEntity
  8
PV
  6
Continuous
 62
     7
100
AcDbLine
 10
-149.5899999999999
 20
-0.5770000000000001
 30
0.0
 11
-149.5879999999999
 21
-0.609
 31
0.0
  0
LINE
  5
160
330
A
100
AcDbEntity
  8
PV
  6
Continuous
 62
     7
100
AcDbLine
 10
-149.5879999999999
 20
-0.609
 30
0.0
 11
-149.586
 21
-0.641
 31
0.0
  0
LINE
  5
161
330
A
100
AcDbEntity
  8
PV
  6
Continuous
 62
     7
100
AcDbLine
 10
-149.586
 20
-0.641
 30
0.0
 11
-149.584
 21
-0.673
 31
0.0
  0
LINE
  5
162
330
A
100
AcDbEntity
  8
PV
  6
Continuous
 62
     7
100
AcDbLine
 10
-149.584
 20
-0.673
 30
0.0
 11
-149.581
 21
-0.705
 31
0.0
  0
LINE
  5
163
330
A
100
AcDbEntity
  8
PV
  6
Continuous
 62
     7
100
AcDbLine
 10
-149.581
 20
-0.705
 30
0.0
 11
-149.579
 21
-0.737
 31
0.0
  0
LINE
  5
164
330
A
100
AcDbEntity
  8
PV
  6
Continuous
 62
     7
100
AcDbLine
 10
-149.579
 20
-0.737
 30
0.0
 11
-149.5759999999999
 21
-0.7690000000000001
 31
0.0
  0
LINE
  5
165
330
A
100
AcDbEntity
  8
PV
  6
Continuous
 62
     7
100
AcDbLine
 10
-149.5759999999999
 20
-0.7690000000000001
 30
0.0
 11
-149.5729999999999
 21
-0.8
 31
0.0
  0
LINE
  5
166
330
A
100
AcDbEntity
  8
PV
  6
Continuous
 62
     7
100
AcDbLine
 10
-149.5729999999999
 20
-0.8
 30
0.0
 11
-149.57
 21
-0.832
 31
0.0
  0
LINE
  5
167
330
A
100
AcDbEntity
  8
PV
  6
Continuous
 62
     7
100
AcDbLine
 10
-149.57
 20
-0.832
 30
0.0
 11
-149.567
 21
-0.864
 31
0.0
  0
LINE
  5
168
330
A
100
AcDbEntity
  8
PV
  6
Continuous
 62
     7
100
AcDbLine
 10
-149.567
 20
-0.864
 30
0.0
 11
-149.5639999999999
 21
-0.8959999999999999
 31
0.0
  0
LINE
  5
169
330
A
100
AcDbEntity
  8
PV
  6
Continuous
 62
     7
100
AcDbLine
 10
-149.5639999999999
 20
-0.8959999999999999
 30
0.0
 11
-149.561
 21
-0.9279999999999999
 31
0.0
  0
LINE
  5
16A
330
A
100
AcDbEntity
  8
PV
  6
Continuous
 62
     7
100
AcDbLine
 10
-149.561
 20
-0.9279999999999999
 30
0.0
 11
-149.557
 21
-0.9599999999999999
 31
0.0
  0
LINE
  5
16B
330
A
100
AcDbEntity
  8
PV
  6
Continuous
 62
     7
100
AcDbLine
 10
-149.557
 20
-0.9599999999999999
 30
0.0
 11
-149.554
 21
-0.9919999999999999
 31
0.0
  0
LINE
  5
16C
330
A
100
AcDbEntity
  8
PV
  6
Continuous
 62
     7
100
AcDbLine
 10
-149.554
 20
-0.9919999999999999
 30
0.0
 11
-149.55
 21
-1.024
 31
0.0
  0
LINE
  5
16D
330
A
100
AcDbEntity
  8
PV
  6
Continuous
 62
     7
100
AcDbLine
 10
-149.55
 20
-1.024
 30
0.0
 11
-149.546
 21
-1.056
 31
0.0
  0
LINE
  5
16E
330
A
100
AcDbEntity
  8
PV
  6
Continuous
 62
     7
100
AcDbLine
 10
-149.546
 20
-1.056
 30
0.0
 11
-149.542
 21
-1.086999999999999
 31
0.0
  0
LINE
  5
16F
330
A
100
AcDbEntity
  8
PV
  6
Continuous
 62
     7
100
AcDbLine
 10
-149.542
 20
-1.086999999999999
 30
0.0
 11
-149.5379999999999
 21
-1.118999999999999
 31
0.0
  0
LINE
  5
170
330
A
100
AcDbEntity
  8
PV
  6
Continuous
 62
     7
100
AcDbLine
 10
-149.5379999999999
 20
-1.118999999999999
 30
0.0
 11
-149.5339999999999
 21
-1.151
 31
0.0
  0
LINE
  5
171
330
A
100
AcDbEntity
  8
PV
  6
Continuous
 62
     7
100
AcDbLine
 10
-149.5339999999999
 20
-1.151
 30
0.0
 11
-149.53
 21
-1.183
 31
0.0
  0
LINE
  5
172
330
A
100
AcDbEntity
  8
PV
  6
Continuous
 62
     7
100
AcDbLine
 10
-149.53
 20
-1.183
 30
0.0
 11
-149.525
 21
-1.215
 31
0.0
  0
LINE
  5
173
330
A
100
AcDbEntity
  8
PV
  6
Continuous
 62
     7
100
AcDbLine
 10
-149.525
 20
-1.215
 30
0.0
 11
-149.521
 21
-1.245999999999999
 31
0.0
  0
LINE
  5
174
330
A
100
AcDbEntity
  8
PV
  6
Continuous
 62
     7
100
AcDbLine
 10
-149.521
 20
-1.245999999999999
 30
0.0
 11
-149.516
 21
-1.278
 31
0.0
  0
LINE
  5
175
330
A
100
AcDbEntity
  8
PV
  6
Continuous
 62
     7
100
AcDbLine
 10
-149.516
 20
-1.278
 30
0.0
 11
-149.5109999999999
 21
-1.31
 31
0.0
  0
LINE
  5
176
330
A
100
AcDbEntity
  8
PV
  6
Continuous
 62
     7
100
AcDbLine
 10
-149.5109999999999
 20
-1.31
 30
0.0
 11
-149.507
 21
-1.340999999999999
 31
0.0
  0
LINE
  5
177
330
A
100
AcDbEntity
  8
PV
  6
Continuous
 62
     7
100
AcDbLine
 10
-149.507
 20
-1.340999999999999
 30
0.0
 11
-149.502
 21
-1.373
 31
0.0
  0
LINE
  5
178
330
A
100
AcDbEntity
  8
PV
  6
Continuous
 62
     7
100
AcDbLine
 10
-149.502
 20
-1.373
 30
0.0
 11
-149.496
 21
-1.405
 31
0.0
  0
LINE
  5
179
330
A
100
AcDbEntity
  8
PV
  6
Continuous
 62
     7
100
AcDbLine
 10
-149.496
 20
-1.405
 30
0.0
 11
-149.491
 21
-1.435999999999999
 31
0.0
  0
LINE
  5
17A
330
A
100
AcDbEntity
  8
PV
  6
Continuous
 62
     7
100
AcDbLine
 10
-149.491
 20
-1.435999999999999
 30
0.0
 11
-149.4859999999999
 21
-1.468
 31
0.0
  0
LINE
  5
17B
330
A
100
AcDbEntity
  8
PV
  6
Continuous
 62
     7
100
AcDbLine
 10
-149.4859999999999
 20
-1.468
 30
0.0
 11
-149.4799999999999
 21
-1.5
 31
0.0
  0
LINE
  5
17C
330
A
100
AcDbEntity
  8
PV
  6
Continuous
 62
     7
100
AcDbLine
 10
-149.4799999999999
 20
-1.5
 30
0.0
 11
-149.474
 21
-1.530999999999999
 31
0.0
  0
LINE
  5
17D
330
A
100
AcDbEntity
  8
PV
  6
Continuous
 62
     7
100
AcDbLine
 10
-149.474
 20
-1.530999999999999
 30
0.0
 11
-149.469
 21
-1.563
 31
0.0
  0
LINE
  5
17E
330
A
100
AcDbEntity
  8
PV
  6
Continuous
 62
     7
100
AcDbLine
 10
-149.469
 20
-1.563
 30
0.0
 11
-149.4629999999999
 21
-1.594
 31
0.0
  0
LINE
  5
17F
330
A
100
AcDbEntity
  8
PV
  6
Continuous
 62
     7
100
AcDbLine
 10
-149.4629999999999
 20
-1.594
 30
0.0
 11
-149.4569999999999
 21
-1.625999999999999
 31
0.0
  0
LINE
  5
180
330
A
100
AcDbEntity
  8
PV
  6
Continuous
 62
     7
100
AcDbLine
 10
-149.4569999999999
 20
-1.625999999999999
 30
0.0
 11
-149.4499999999999
 21
-1.656999999999999
 31
0.0
  0
LINE
  5
181
330
A
100
AcDbEntity
  8
PV
  6
Continuous
 62
     7
100
AcDbLine
 10
-149.4499999999999
 20
-1.656999999999999
 30
0.0
 11
-149.4439999999999
 21
-1.688
 31
0.0
  0
LINE
  5
182
330
A
100
AcDbEntity
  8
PV
  6
Continuous
 62
     7
100
AcDbLine
 10
-149.4439999999999
 20
-1.688
 30
0.0
 11
-149.4379999999999
 21
-1.719999999999999
 31
0.0
  0
LINE
  5
183
330
A
100
AcDbEntity
  8
PV
  6
Continuous
 62
     7
100
AcDbLine
 10
-149.4379999999999
 20
-1.719999999999999
 30
0.0
 11
-149.431
 21
-1.750999999999999
 31
0.0
  0
LINE
  5
184
330
A
100
AcDbEntity
  8
PV
  6
Continuous
 62
     7
100
AcDbLine
 10
-149.431
 20
-1.750999999999999
 30
0.0
 11
-149.424
 21
-1.783
 31
0.0
  0
LINE
  5
185
330
A
100
AcDbEntity
  8
PV
  6
Continuous
 62
     7
100
AcDbLine
 10
-149.424
 20
-1.783
 30
0.0
 11
-149.4169999999999
 21
-1.814
 31
0.0
  0
LINE
  5
186
330
A
100
AcDbEntity
  8
PV
  6
Continuous
 62
     7
100
AcDbLine
 10
-149.4169999999999
 20
-1.814
 30
0.0
 11
-149.4099999999999
 21
-1.844999999999999
 31
0.0
  0
LINE
  5
187
330
A
100
AcDbEntity
  8
PV
  6
Continuous
 62
     7
100
AcDbLine
 10
-149.4099999999999
 20
-1.844999999999999
 30
0.0
 11
-149.4029999999999
 21
-1.876999999999999
 31
0.0
  0
LINE
  5
188
330
A
100
AcDbEntity
  8
PV
  6
Continuous
 62
     7
100
AcDbLine
 10
-149.4029999999999
 20
-1.876999999999999
 30
0.0
 11
-149.396
 21
-1.908
 31
0.0
  0
LINE
  5
189
330
A
100
AcDbEntity
  8
PV
  6
Continuous
 62
     7
100
AcDbLine
 10
-149.396
 20
-1.908
 30
0.0
 11
-149.388
 21
-1.939
 31
0.0
  0
LINE
  5
18A
330
A
100
AcDbEntity
  8
PV
  6
Continuous
 62
     7
100
AcDbLine
 10
-149.388
 20
-1.939
 30
0.0
 11
-149.381
 21
-1.969999999999999
 31
0.0
  0
LINE
  5
18B
330
A
100
AcDbEntity
  8
PV
  6
Continuous
 62
     7
100
AcDbLine
 10
-149.381
 20
-1.969999999999999
 30
0.0
 11
-149.373
 21
-2.000999999999999
 31
0.0
  0
LINE
  5
18C
330
A
100
AcDbEntity
  8
PV
  6
Continuous
 62
     7
100
AcDbLine
 10
-149.373
 20
-2.000999999999999
 30
0.0
 11
-149.365
 21
-2.032
 31
0.0
  0
LINE
  5
18D
330
A
100
AcDbEntity
  8
PV
  6
Continuous
 62
     7
100
AcDbLine
 10
-149.365
 20
-2.032
 30
0.0
 11
-149.357
 21
-2.063
 31
0.0
  0
LINE
  5
18E
330
A
100
AcDbEntity
  8
PV
  6
Continuous
 62
     7
100
AcDbLine
 10
-149.357
 20
-2.063
 30
0.0
 11
-149.3489999999999
 21
-2.093999999999999
 31
0.0
  0
LINE
  5
18F
330
A
100
AcDbEntity
  8
PV
  6
Continuous
 62
     7
100
AcDbLine
 10
-149.3489999999999
 20
-2.093999999999999
 30
0.0
 11
-149.341
 21
-2.125
 31
0.0
  0
LINE
  5
190
330
A
100
AcDbEntity
  8
PV
  6
Continuous
 62
     7
100
AcDbLine
 10
-149.341
 20
-2.125
 30
0.0
 11
-149.3319999999999
 21
-2.156
 31
0.0
  0
LINE
  5
191
330
A
100
AcDbEntity
  8
PV
  6
Continuous
 62
     7
100
AcDbLine
 10
-149.3319999999999
 20
-2.156
 30
0.0
 11
-149.3239999999999
 21
-2.186999999999999
 31
0.0
  0
LINE
  5
192
330
A
100
AcDbEntity
  8
PV
  6
Continuous
 62
     7
100
AcDbLine
 10
-149.3239999999999
 20
-2.186999999999999
 30
0.0
 11
-149.3149999999999
 21
-2.217999999999999
 31
0.0
  0
LINE
  5
193
330
A
100
AcDbEntity
  8
PV
  6
Continuous
 62
     7
100
AcDbLine
 10
-149.3149999999999
 20
-2.217999999999999
 30
0.0
 11
-149.306
 21
-2.249
 31
0.0
  0
LINE
  5
194
330
A
100
AcDbEntity
  8
PV
  6
Continuous
 62
     7
100
AcDbLine
 10
-149.306
 20
-2.249
 30
0.0
 11
-149.2969999999999
 21
-2.278999999999999
 31
0.0
  0
LINE
  5
195
330
A
100
AcDbEntity
  8
PV
  6
Continuous
 62
     7
100
AcDbLine
 10
-149.2969999999999
 20
-2.278999999999999
 30
0.0
 11
-149.287
 21
-2.31
 31
0.0
  0
LINE
  5
196
330
A
100
AcDbEntity
  8
PV
  6
Continuous
 62
     7
100
AcDbLine
 10
-149.287
 20
-2.31
 30
0.0
 11
-149.2779999999999
 21
-2.340999999999999
 31
0.0
  0
LINE
  5
197
330
A
100
AcDbEntity
  8
PV
  6
Continuous
 62
     7
100
AcDbLine
 10
-149.2779999999999
 20
-2.340999999999999
 30
0.0
 11
-149.268
 21
-2.370999999999999
 31
0.0
  0
LINE
  5
198
330
A
100
AcDbEntity
  8
PV
  6
Continuous
 62
     7
100
AcDbLine
 10
-149.268
 20
-2.370999999999999
 30
0.0
 11
-149.2589999999999
 21
-2.401999999999999
 31
0.0
  0
LINE
  5
199
330
A
100
AcDbEntity
  8
PV
  6
Continuous
 62
     7
100
AcDbLine
 10
-149.2589999999999
 20
-2.401999999999999
 30
0.0
 11
-149.2489999999999
 21
-2.431999999999999
 31
0.0
  0
LINE
  5
19A
330
A
100
AcDbEntity
  8
PV
  6
Continuous
 62
     7
100
AcDbLine
 10
-149.2489999999999
 20
-2.431999999999999
 30
0.0
 11
-149.239
 21
-2.463
 31
0.0
  0
LINE
  5
19B
330
A
100
AcDbEntity
  8
PV
  6
Continuous
 62
     7
100
AcDbLine
 10
-149.239
 20
-2.463
 30
0.0
 11
-149.2279999999999
 21
-2.493
 31
0.0
  0
LINE
  5
19C
330
A
100
AcDbEntity
  8
PV
  6
Continuous
 62
     7
100
AcDbLine
 10
-149.2279999999999
 20
-2.493
 30
0.0
 11
-149.2179999999999
 21
-2.524
 31
0.0
  0
LINE
  5
19D
330
A
100
AcDbEntity
  8
PV
  6
Continuous
 62
     7
100
AcDbLine
 10
-149.2179999999999
 20
-2.524
 30
0.0
 11
-149.207
 21
-2.554
 31
0.0
  0
LINE
  5
19E
330
A
100
AcDbEntity
  8
PV
  6
Continuous
 62
     7
100
AcDbLine
 10
-149.207
 20
-2.554
 30
0.0
 11
-149.197
 21
-2.583999999999999
 31
0.0
  0
LINE
  5
19F
330
A
100
AcDbEntity
  8
PV
  6
Continuous
 62
     7
100
AcDbLine
 10
-149.197
 20
-2.583999999999999
 30
0.0
 11
-149.186
 21
-2.613999999999999
 31
0.0
  0
LINE
  5
1A0
330
A
100
AcDbEntity
  8
PV
  6
Continuous
 62
     7
100
AcDbLine
 10
-149.186
 20
-2.613999999999999
 30
0.0
 11
-149.174
 21
-2.643999999999999
 31
0.0
  0
LINE
  5
1A1
330
A
100
AcDbEntity
  8
PV
  6
Continuous
 62
     7
100
AcDbLine
 10
-149.174
 20
-2.643999999999999
 30
0.0
 11
-149.1629999999999
 21
-2.673999999999999
 31
0.0
  0
LINE
  5
1A2
330
A
100
AcDbEntity
  8
PV
  6
Continuous
 62
     7
100
AcDbLine
 10
-149.1629999999999
 20
-2.673999999999999
 30
0.0
 11
-149.152
 21
-2.703999999999999
 31
0.0
  0
LINE
  5
1A3
330
A
100
AcDbEntity
  8
PV
  6
Continuous
 62
     7
100
AcDbLine
 10
-149.152
 20
-2.703999999999999
 30
0.0
 11
-149.1399999999999
 21
-2.733999999999999
 31
0.0
  0
LINE
  5
1A4
330
A
100
AcDbEntity
  8
PV
  6
Continuous
 62
     7
100
AcDbLine
 10
-149.1399999999999
 20
-2.733999999999999
 30
0.0
 11
-149.1279999999999
 21
-2.763999999999999
 31
0.0
  0
LINE
  5
1A5
330
A
100
AcDbEntity
  8
PV
  6
Continuous
 62
     7
100
AcDbLine
 10
-149.1279999999999
 20
-2.763999999999999
 30
0.0
 11
-149.116
 21
-2.793999999999999
 31
0.0
  0
LINE
  5
1A6
330
A
100
AcDbEntity
  8
PV
  6
Continuous
 62
     7
100
AcDbLine
 10
-149.116
 20
-2.793999999999999
 30
0.0
 11
-149.1039999999999
 21
-2.823
 31
0.0
  0
LINE
  5
1A7
330
A
100
AcDbEntity
  8
PV
  6
Continuous
 62
     7
100
AcDbLine
 10
-149.1039999999999
 20
-2.823
 30
0.0
 11
-149.091
 21
-2.853
 31
0.0
  0
LINE
  5
1A8
330
A
100
AcDbEntity
  8
PV
  6
Continuous
 62
     7
100
AcDbLine
 10
-149.091
 20
-2.853
 30
0.0
 11
-149.0779999999999
 21
-2.881999999999999
 31
0.0
  0
LINE
  5
1A9
330
A
100
AcDbEntity
  8
PV
  6
Continuous
 62
     7
100
AcDbLine
 10
-149.0779999999999
 20
-2.881999999999999
 30
0.0
 11
-149.066
 21
-2.911999999999999
 31
0.0
  0
LINE
  5
1AA
330
A
100
AcDbEntity
  8
PV
  6
Continuous
 62
     7
100
AcDbLine
 10
-149.066
 20
-2.911999999999999
 30
0.0
 11
-149.052
 21
-2.941
 31
0.0
  0
LINE
  5
1AB
330
A
100
AcDbEntity
  8
PV
  6
Continuous
 62
     7
100
AcDbLine
 10
-149.052
 20
-2.941
 30
0.0
 11
-149.0389999999999
 21
-2.97
 31
0.0
  0
LINE
  5
1AC
330
A
100
AcDbEntity
  8
PV
  6
Continuous
 62
     7
100
AcDbLine
 10
-149.0389999999999
 20
-2.97
 30
0.0
 11
-149.026
 21
-2.998999999999999
 31
0.0
  0
LINE
  5
1AD
330
A
100
AcDbEntity
  8
PV
  6
Continuous
 62
     7
100
AcDbLine
 10
-149.026
 20
-2.998999999999999
 30
0.0
 11
-149.012
 21
-3.028
 31
0.0
  0
LINE
  5
1AE
330
A
100
AcDbEntity
  8
PV
  6
Continuous
 62
     7
100
AcDbLine
 10
-149.012
 20
-3.028
 30
0.0
 11
-148.9979999999999
 21
-3.056999999999999
 31
0.0
  0
LINE
  5
1AF
330
A
100
AcDbEntity
  8
PV
  6
Continuous
 62
     7
100
AcDbLine
 10
-148.9979999999999
 20
-3.056999999999999
 30
0.0
 11
-148.984
 21
-3.086
 31
0.0
  0
LINE
  5
1B0
330
A
100
AcDbEntity
  8
PV
  6
Continuous
 62
     7
100
AcDbLine
 10
-148.984
 20
-3.086
 30
0.0
 11
-148.9689999999999
 21
-3.113999999999999
 31
0.0
  0
LINE
  5
1B1
330
A
100
AcDbEntity
  8
PV
  6
Continuous
 62
     7
100
AcDbLine
 10
-148.9689999999999
 20
-3.113999999999999
 30
0.0
 11
-148.955
 21
-3.143
 31
0.0
  0
LINE
  5
1B2
330
A
100
AcDbEntity
  8
PV
  6
Continuous
 62
     7
100
AcDbLine
 10
-148.955
 20
-3.143
 30
0.0
 11
-148.94
 21
-3.171
 31
0.0
  0
LINE
  5
1B3
330
A
100
AcDbEntity
  8
PV
  6
Continuous
 62
     7
100
AcDbLine
 10
-148.94
 20
-3.171
 30
0.0
 11
-148.924
 21
-3.2
 31
0.0
  0
LINE
  5
1B4
330
A
100
AcDbEntity
  8
PV
  6
Continuous
 62
     7
100
AcDbLine
 10
-148.924
 20
-3.2
 30
0.0
 11
-148.909
 21
-3.228
 31
0.0
  0
LINE
  5
1B5
330
A
100
AcDbEntity
  8
PV
  6
Continuous
 62
     7
100
AcDbLine
 10
-148.909
 20
-3.228
 30
0.0
 11
-148.893
 21
-3.256
 31
0.0
  0
LINE
  5
1B6
330
A
100
AcDbEntity
  8
PV
  6
Continuous
 62
     7
100
AcDbLine
 10
-148.893
 20
-3.256
 30
0.0
 11
-148.877
 21
-3.283999999999999
 31
0.0
  0
LINE
  5
1B7
330
A
100
AcDbEntity
  8
PV
  6
Continuous
 62
     7
100
AcDbLine
 10
-148.877
 20
-3.283999999999999
 30
0.0
 11
-148.8609999999999
 21
-3.311999999999999
 31
0.0
  0
LINE
  5
1B8
330
A
100
AcDbEntity
  8
PV
  6
Continuous
 62
     7
100
AcDbLine
 10
-148.8609999999999
 20
-3.311999999999999
 30
0.0
 11
-148.845
 21
-3.338999999999999
 31
0.0
  0
LINE
  5
1B9
330
A
100
AcDbEntity
  8
PV
  6
Continuous
 62
     7
100
AcDbLine
 10
-148.845
 20
-3.338999999999999
 30
0.0
 11
-148.828
 21
-3.366
 31
0.0
  0
LINE
  5
1BA
330
A
100
AcDbEntity
  8
PV
  6
Continuous
 62
     7
100
AcDbLine
 10
-148.828
 20
-3.366
 30
0.0
 11
-148.8109999999999
 21
-3.393999999999999
 31
0.0
  0
LINE
  5
1BB
330
A
100
AcDbEntity
  8
PV
  6
Continuous
 62
     7
100
AcDbLine
 10
-148.8109999999999
 20
-3.393999999999999
 30
0.0
 11
-148.793
 21
-3.421
 31
0.0
  0
LINE
  5
1BC
330
A
100
AcDbEntity
  8
PV
  6
Continuous
 62
     7
100
AcDbLine
 10
-148.793
 20
-3.421
 30
0.0
 11
-148.776
 21
-3.447
 31
0.0
  0
LINE
  5
1BD
330
A
100
AcDbEntity
  8
PV
  6
Continuous
 62
     7
100
AcDbLine
 10
-148.776
 20
-3.447
 30
0.0
 11
-148.7579999999999
 21
-3.473999999999999
 31
0.0
  0
LINE
  5
1BE
330
A
100
AcDbEntity
  8
PV
  6
Continuous
 62
     7
100
AcDbLine
 10
-148.7579999999999
 20
-3.473999999999999
 30
0.0
 11
-148.7389999999999
 21
-3.5
 31
0.0
  0
LINE
  5
1BF
330
A
100
AcDbEntity
  8
PV
  6
Continuous
 62
     7
100
AcDbLine
 10
-148.7389999999999
 20
-3.5
 30
0.0
 11
-148.721
 21
-3.526
 31
0.0
  0
LINE
  5
1C0
330
A
100
AcDbEntity
  8
PV
  6
Continuous
 62
     7
100
AcDbLine
 10
-148.721
 20
-3.526
 30
0.0
 11
-148.702
 21
-3.552
 31
0.0
  0
LINE
  5
1C1
330
A
100
AcDbEntity
  8
PV
  6
Continuous
 62
     7
100
AcDbLine
 10
-148.702
 20
-3.552
 30
0.0
 11
-148.6829999999999
 21
-3.578
 31
0.0
  0
LINE
  5
1C2
330
A
100
AcDbEntity
  8
PV
  6
Continuous
 62
     7
100
AcDbLine
 10
-148.6829999999999
 20
-3.578
 30
0.0
 11
-148.6629999999999
 21
-3.603
 31
0.0
  0
LINE
  5
1C3
330
A
100
AcDbEntity
  8
PV
  6
Continuous
 62
     7
100
AcDbLine
 10
-148.6629999999999
 20
-3.603
 30
0.0
 11
-148.643
 21
-3.628
 31
0.0
  0
LINE
  5
1C4
330
A
100
AcDbEntity
  8
PV
  6
Continuous
 62
     7
100
AcDbLine
 10
-148.643
 20
-3.628
 30
0.0
 11
-148.622
 21
-3.653
 31
0.0
  0
CIRCLE
  5
1C5
330
A
100
AcDbEntity
  8
PV
  6
Continuous
 62
     7
100
AcDbCircle
 10
-152.5
 20
60.506
 30
0.0
 40
4.306999999999999
  0
CIRCLE
  5
1C6
330
A
100
AcDbEntity
  8
PV
  6
Continuous
 62
     7
100
AcDbCircle
 10
-152.5
 20
60.506
 30
0.0
 40
5.0
  0
LINE
  5
1C7
330
A
100
AcDbEntity
  8
PV
  6
Continuous
 62
     7
100
AcDbLine
 10
-152.5
 20
63.393
 30
0.0
 11
-150.0
 21
61.95
 31
0.0
  0
LINE
  5
1C8
330
A
100
AcDbEntity
  8
PV
  6
Continuous
 62
     7
100
AcDbLine
 10
-155.0
 20
59.063
 30
0.0
 11
-152.5
 21
57.62
 31
0.0
  0
LINE
  5
1C9
330
A
100
AcDbEntity
  8
PV
  6
Continuous
 62
     7
100
AcDbLine
 10
-150.0
 20
61.95
 30
0.0
 11
-150.0
 21
59.063
 31
0.0
  0
LINE
  5
1CA
330
A
100
AcDbEntity
  8
PV
  6
Continuous
 62
     7
100
AcDbLine
 10
-155.0
 20
61.95
 30
0.0
 11
-155.0
 21
59.063
 31
0.0
  0
LINE
  5
1CB
330
A
100
AcDbEntity
  8
PV
  6
Continuous
 62
     7
100
AcDbLine
 10
-155.0
 20
61.95
 30
0.0
 11
-152.5
 21
63.393
 31
0.0
  0
LINE
  5
1CC
330
A
100
AcDbEntity
  8
PV
  6
Continuous
 62
     7
100
AcDbLine
 10
-152.5
 20
57.62
 30
0.0
 11
-150.0
 21
59.063
 31
0.0
  0
CIRCLE
  5
1CD
330
A
100
AcDbEntity
  8
PV
  6
Continuous
 62
     7
100
AcDbCircle
 10
-107.4999999999999
 20
60.506
 30
0.0
 40
4.306999999999999
  0
CIRCLE
  5
1CE
330
A
100
AcDbEntity
  8
PV
  6
Continuous
 62
     7
100
AcDbCircle
 10
-107.4999999999999
 20
60.506
 30
0.0
 40
5.0
  0
LINE
  5
1CF
330
A
100
AcDbEntity
  8
PV
  6
Continuous
 62
     7
100
AcDbLine
 10
-107.4999999999999
 20
63.393
 30
0.0
 11
-105.0
 21
61.95
 31
0.0
  0
LINE
  5
1D0
330
A
100
AcDbEntity
  8
PV
  6
Continuous
 62
     7
100
AcDbLine
 10
-110.0
 20
59.063
 30
0.0
 11
-107.4999999999999
 21
57.62
 31
0.0
  0
LINE
  5
1D1
330
A
100
AcDbEntity
  8
PV
  6
Continuous
 62
     7
100
AcDbLine
 10
-105.0
 20
61.95
 30
0.0
 11
-105.0
 21
59.063
 31
0.0
  0
LINE
  5
1D2
330
A
100
AcDbEntity
  8
PV
  6
Continuous
 62
     7
100
AcDbLine
 10
-110.0
 20
61.95
 30
0.0
 11
-110.0
 21
59.063
 31
0.0
  0
LINE
  5
1D3
330
A
100
AcDbEntity
  8
PV
  6
Continuous
 62
     7
100
AcDbLine
 10
-110.0
 20
61.95
 30
0.0
 11
-107.4999999999999
 21
63.393
 31
0.0
  0
LINE
  5
1D4
330
A
100
AcDbEntity
  8
PV
  6
Continuous
 62
     7
100
AcDbLine
 10
-107.4999999999999
 20
57.62
 30
0.0
 11
-105.0
 21
59.063
 31
0.0
  0
CIRCLE
  5
1D5
330
A
100
AcDbEntity
  8
PV
  6
Continuous
 62
     7
100
AcDbCircle
 10
-107.4999999999999
 20
105.506
 30
0.0
 40
4.306999999999999
  0
CIRCLE
  5
1D6
330
A
100
AcDbEntity
  8
PV
  6
Continuous
 62
     7
100
AcDbCircle
 10
-107.4999999999999
 20
105.506
 30
0.0
 40
5.0
  0
LINE
  5
1D7
330
A
100
AcDbEntity
  8
PV
  6
Continuous
 62
     7
100
AcDbLine
 10
-107.4999999999999
 20
108.3929999999999
 30
0.0
 11
-105.0
 21
106.95
 31
0.0
  0
LINE
  5
1D8
330
A
100
AcDbEntity
  8
PV
  6
Continuous
 62
     7
100
AcDbLine
 10
-110.0
 20
104.0629999999999
 30
0.0
 11
-107.4999999999999
 21
102.62
 31
0.0
  0
LINE
  5
1D9
330
A
100
AcDbEntity
  8
PV
  6
Continuous
 62
     7
100
AcDbLine
 10
-105.0
 20
106.95
 30
0.0
 11
-105.0
 21
104.0629999999999
 31
0.0
  0
LINE
  5
1DA
330
A
100
AcDbEntity
  8
PV
  6
Continuous
 62
     7
100
AcDbLine
 10
-110.0
 20
106.95
 30
0.0
 11
-110.0
 21
104.0629999999999
 31
0.0
  0
LINE
  5
1DB
330
A
100
AcDbEntity
  8
PV
  6
Continuous
 62
     7
100
AcDbLine
 10
-110.0
 20
106.95
 30
0.0
 11
-107.4999999999999
 21
108.3929999999999
 31
0.0
  0
LINE
  5
1DC
330
A
100
AcDbEntity
  8
PV
  6
Continuous
 62
     7
100
AcDbLine
 10
-107.4999999999999
 20
102.62
 30
0.0
 11
-105.0
 21
104.0629999999999
 31
0.0
  0
CIRCLE
  5
1DD
330
A
100
AcDbEntity
  8
PV
  6
Continuous
 62
     7
100
AcDbCircle
 10
-152.5
 20
105.506
 30
0.0
 40
4.306999999999999
  0
CIRCLE
  5
1DE
330
A
100
AcDbEntity
  8
PV
  6
Continuous
 62
     7
100
AcDbCircle
 10
-152.5
 20
105.506
 30
0.0
 40
5.0
  0
LINE
  5
1DF
330
A
100
AcDbEntity
  8
PV
  6
Continuous
 62
     7
100
AcDbLine
 10
-152.5
 20
108.3929999999999
 30
0.0
 11
-150.0
 21
106.95
 31
0.0
  0
LINE
  5
1E0
330
A
100
AcDbEntity
  8
PV
  6
Continuous
 62
     7
100
AcDbLine
 10
-155.0
 20
104.0629999999999
 30
0.0
 11
-152.5
 21
102.62
 31
0.0
  0
LINE
  5
1E1
330
A
100
AcDbEntity
  8
PV
  6
Continuous
 62
     7
100
AcDbLine
 10
-150.0
 20
106.95
 30
0.0
 11
-150.0
 21
104.0629999999999
 31
0.0
  0
LINE
  5
1E2
330
A
100
AcDbEntity
  8
PV
  6
Continuous
 62
     7
100
AcDbLine
 10
-155.0
 20
106.95
 30
0.0
 11
-155.0
 21
104.0629999999999
 31
0.0
  0
LINE
  5
1E3
330
A
100
AcDbEntity
  8
PV
  6
Continuous
 62
     7
100
AcDbLine
 10
-155.0
 20
106.95
 30
0.0
 11
-152.5
 21
108.3929999999999
 31
0.0
  0
LINE
  5
1E4
330
A
100
AcDbEntity
  8
PV
  6
Continuous
 62
     7
100
AcDbLine
 10
-152.5
 20
102.62
 30
0.0
 11
-150.0
 21
104.0629999999999
 31
0.0
  0
SOLID
  5
1E5
330
A
100
AcDbEntity
  8
PV
  6
Continuous
 62
     7
100
AcDbTrace
 10
-132.43
 20
94.516
 30
0.0
 11
-131.08
 21
94.516
 31
0.0
 12
-132.43
 22
97.26600000000001
 32
0.0
 13
-131.08
 23
97.26600000000001
 33
0.0
  0
SOLID
  5
1E6
330
A
100
AcDbEntity
  8
PV
  6
Continuous
 62
     7
100
AcDbTrace
 10
-138.9079999999999
 20
91.01
 30
0.0
 11
-138.61
 21
91.01
 31
0.0
 12
-138.9079999999999
 22
92.50299999999999
 32
0.0
 13
-138.61
 23
92.50299999999999
 33
0.0
  0
SOLID
  5
1E7
330
A
100
AcDbEntity
  8
PV
  6
Continuous
 62
     7
100
AcDbTrace
 10
-141.222
 20
91.01
 30
0.0
 11
-140.9229999999999
 21
91.01
 31
0.0
 12
-141.222
 22
92.50299999999999
 32
0.0
 13
-140.9229999999999
 23
92.50299999999999
 33
0.0
  0
MTEXT
  5
1E8
330
A
100
AcDbEntity
  8
PV
  6
Continuous
 62
     7
100
AcDbMText
 10
-130.062
 20
71.98999999999999
 30
0.0
 40
0.8
 41
0.0
 71
     2
 72
     1
  1
\W0.980;\A1;MADE IN JAPAN
 73
     1
 44
1.0
  0
MTEXT
  5
1E9
330
A
100
AcDbEntity
  8
PV
  6
Continuous
 62
     7
100
AcDbMText
 10
-123.0874919999999
 20
71.139255
 30
0.0
 40
1.5
 41
0.0
 71
     2
 72
     1
  1
\W1.048;\A1;N
 11
0.8910068244052929
 21
0.4539899105301742
 31
0.0
 73
     1
 44
1.0
  0
MTEXT
  5
1EA
330
A
100
AcDbEntity
  8
PV
  6
Continuous
 62
     7
100
AcDbMText
 10
-132.5850659999999
 20
69.550611
 30
0.0
 40
1.5
 41
0.0
 71
     2
 72
     1
  1
\W0.905;\A1;E
 11
0.9781475551151174
 21
-0.207911905436697
 31
0.0
 73
     1
 44
1.0
  0
MTEXT
  5
1EB
330
A
100
AcDbEntity
  8
PV
  6
Continuous
 62
     7
100
AcDbMText
 10
-133.977721
 20
69.911229
 30
0.0
 40
1.5
 41
0.0
 71
     2
 72
     1
  1
\W0.952;\A1;S
 11
0.9563046942651347
 21
-0.2923719065274008
 31
0.0
 73
     1
 44
1.0
  0
MTEXT
  5
1EC
330
A
100
AcDbEntity
  8
PV
  6
Continuous
 62
     7
100
AcDbMText
 10
-135.335045
 20
70.391388
 30
0.0
 40
1.5
 41
0.0
 71
     2
 72
     1
  1
\W1.048;\A1;O
 11
0.9271837337569111
 21
-0.3746068924307098
 31
0.0
 73
     1
 44
1.0
  0
MTEXT
  5
1ED
330
A
100
AcDbEntity
  8
PV
  6
Continuous
 62
     7
100
AcDbMText
 10
-136.644508
 20
70.98825500000001
 30
0.0
 40
1.5
 41
0.0
 71
     2
 72
     1
  1
\W0.810;\A1;L
 11
0.8910068244052929
 21
-0.4539899105301742
 31
0.0
 73
     1
 44
1.0
  0
MTEXT
  5
1EE
330
A
100
AcDbEntity
  8
PV
  6
Continuous
 62
     7
100
AcDbMText
 10
-137.8975609999999
 20
71.697036
 30
0.0
 40
1.5
 41
0.0
 71
     2
 72
     1
  1
\A1;C
 11
0.8480481878999377
 21
-0.5299191174128671
 31
0.0
 73
     1
 44
1.0
  0
MTEXT
  5
1EF
330
A
100
AcDbEntity
  8
PV
  6
Continuous
 62
     7
100
AcDbMText
 10
-124.397955
 20
70.542388
 30
0.0
 40
1.5
 41
0.0
 71
     2
 72
     1
  1
\W0.905;\A1;E
 11
0.9271837337569111
 21
0.3746068924307098
 31
0.0
 73
     1
 44
1.0
  0
MTEXT
  5
1F0
330
A
100
AcDbEntity
  8
PV
  6
Continuous
 62
     7
100
AcDbMText
 10
-125.754279
 20
70.061229
 30
0.0
 40
1.5
 41
0.0
 71
     2
 72
     1
  1
\A1;P
 11
0.9563046942651347
 21
0.2923719065274008
 31
0.0
 73
     1
 44
1.0
  0
MTEXT
  5
1F1
330
A
100
AcDbEntity
  8
PV
  6
Continuous
 62
     7
100
AcDbMText
 10
-127.147934
 20
69.70061099999999
 30
0.0
 40
1.5
 41
0.0
 71
     2
 72
     1
  1
\W1.048;\A1;O
 11
0.9781475551151174
 21
0.207911905436697
 31
0.0
 73
     1
 44
1.0
  0
MTEXT
  5
1F2
330
A
100
AcDbEntity
  8
PV
  6
Continuous
 62
     7
100
AcDbMText
 10
-129.852
 20
79.483
 30
0.0
 40
1.5
 41
0.0
 71
     2
 72
     1
  1
\W0.925;\A1;HIGH VACUUM VALVES
 73
     1
 44
1.0
  0
MTEXT
  5
1F3
330
A
100
AcDbEntity
  8
PV
  6
Continuous
 62
     7
100
AcDbMText
 10
-129.8939999999999
 20
75.295
 30
0.0
 40
1.5
 41
0.0
 71
     2
 72
     1
  1
\W0.930;\A1;METAL BELLOWS
 73
     1
 44
1.0
  0
LWPOLYLINE
  5
1F4
330
A
100
AcDbEntity
  8
PV
  6
Continuous
 62
     7
100
AcDbPolyline
 90
      137
 70
     0
 43
0.0
 10
-136.1049999999999
 20
86.87299999999998
 10
-136.1119999999999
 20
86.895
 10
-136.131
 20
86.94399999999999
 10
-136.151
 20
86.99299999999999
 10
-136.173
 20
87.04
 10
-136.197
 20
87.086
 10
-136.2229999999999
 20
87.12999999999999
 10
-136.251
 20
87.17299999999999
 10
-136.28
 20
87.215
 10
-136.311
 20
87.255
 10
-136.3429999999999
 20
87.294
 10
-136.377
 20
87.33
 10
-136.4129999999999
 20
87.36499999999999
 10
-136.4499999999999
 20
87.399
 10
-136.488
 20
87.43
 10
-136.527
 20
87.459
 10
-136.5679999999999
 20
87.48600000000001
 10
-136.61
 20
87.511
 10
-136.652
 20
87.53399999999999
 10
-136.6959999999999
 20
87.55500000000001
 10
-136.741
 20
87.574
 10
-136.786
 20
87.59
 10
-136.8319999999999
 20
87.604
 10
-136.8779999999999
 20
87.61599999999999
 10
-136.925
 20
87.626
 10
-136.9729999999999
 20
87.63299999999999
 10
-137.021
 20
87.63799999999999
 10
-137.0689999999999
 20
87.64000000000001
 10
-137.117
 20
87.64000000000001
 10
-137.165
 20
87.63799999999999
 10
-137.213
 20
87.63299999999999
 10
-137.2609999999999
 20
87.626
 10
-137.3089999999999
 20
87.61700000000001
 10
-137.3569999999999
 20
87.605
 10
-137.4039999999999
 20
87.59100000000001
 10
-137.4499999999999
 20
87.575
 10
-137.496
 20
87.55599999999999
 10
-137.541
 20
87.536
 10
-137.586
 20
87.51299999999998
 10
-137.63
 20
87.48800000000001
 10
-137.673
 20
87.461
 10
-137.714
 20
87.431
 10
-137.755
 20
87.4
 10
-137.795
 20
87.367
 10
-137.833
 20
87.33200000000001
 10
-137.87
 20
87.29600000000001
 10
-137.905
 20
87.25700000000001
 10
-137.9399999999999
 20
87.21700000000002
 10
-137.972
 20
87.176
 10
-138.0029999999999
 20
87.133
 10
-138.0329999999999
 20
87.088
 10
-138.06
 20
87.042
 10
-138.086
 20
86.995
 10
-138.11
 20
86.947
 10
-138.1329999999999
 20
86.89799999999999
 10
-138.1529999999999
 20
86.848
 10
-138.172
 20
86.79700000000002
 10
-138.1879999999999
 20
86.745
 10
-138.203
 20
86.69200000000001
 10
-138.2149999999999
 20
86.63899999999999
 10
-138.226
 20
86.58599999999999
 10
-138.234
 20
86.53200000000001
 10
-138.241
 20
86.478
 10
-138.245
 20
86.424
 10
-138.247
 20
86.369
 10
-138.247
 20
86.315
 10
-138.245
 20
86.261
 10
-138.241
 20
86.20700000000001
 10
-138.235
 20
86.15299999999999
 10
-138.226
 20
86.09999999999999
 10
-138.216
 20
86.04799999999999
 10
-138.204
 20
85.996
 10
-138.189
 20
85.945
 10
-138.173
 20
85.89399999999999
 10
-138.1539999999999
 20
85.845
 10
-138.1339999999999
 20
85.797
 10
-138.1119999999999
 20
85.75000000000001
 10
-138.0879999999999
 20
85.70399999999999
 10
-138.062
 20
85.65899999999999
 10
-138.0339999999999
 20
85.616
 10
-138.0049999999999
 20
85.575
 10
-137.9739999999999
 20
85.53399999999999
 10
-137.942
 20
85.49600000000001
 10
-137.9079999999999
 20
85.45900000000001
 10
-137.872
 20
85.42399999999998
 10
-137.835
 20
85.39100000000001
 10
-137.7969999999999
 20
85.35999999999999
 10
-137.7579999999999
 20
85.33100000000001
 10
-137.717
 20
85.303
 10
-137.675
 20
85.27799999999999
 10
-137.6329999999999
 20
85.25499999999999
 10
-137.589
 20
85.234
 10
-137.5439999999999
 20
85.21600000000001
 10
-137.4989999999999
 20
85.19899999999999
 10
-137.453
 20
85.18500000000001
 10
-137.407
 20
85.17299999999998
 10
-137.36
 20
85.164
 10
-137.312
 20
85.157
 10
-137.264
 20
85.152
 10
-137.216
 20
85.149
 10
-137.168
 20
85.149
 10
-137.1199999999999
 20
85.152
 10
-137.072
 20
85.156
 10
-137.024
 20
85.16299999999999
 10
-136.976
 20
85.17299999999998
 10
-136.928
 20
85.18399999999999
 10
-136.881
 20
85.198
 10
-136.835
 20
85.21500000000001
 10
-136.7889999999999
 20
85.23299999999998
 10
-136.7439999999999
 20
85.25399999999999
 10
-136.6989999999999
 20
85.27700000000001
 10
-136.6549999999999
 20
85.302
 10
-136.612
 20
85.32899999999999
 10
-136.5709999999999
 20
85.358
 10
-136.5299999999999
 20
85.38899999999999
 10
-136.49
 20
85.42200000000001
 10
-136.4519999999999
 20
85.45700000000001
 10
-136.4149999999999
 20
85.494
 10
-136.3799999999999
 20
85.53200000000002
 10
-136.345
 20
85.57199999999999
 10
-136.3129999999999
 20
85.61399999999999
 10
-136.282
 20
85.65700000000001
 10
-136.252
 20
85.70100000000001
 10
-136.2249999999999
 20
85.74700000000001
 10
-136.1989999999999
 20
85.79399999999999
 10
-136.175
 20
85.842
 10
-136.152
 20
85.89200000000001
 10
-136.132
 20
85.942
 10
-136.1129999999999
 20
85.99299999999999
 10
-136.097
 20
86.04499999999999
 10
-136.0819999999999
 20
86.09700000000001
 10
-136.07
 20
86.15
 10
-136.0589999999999
 20
86.204
 10
-136.051
 20
86.25799999999999
 10
-136.0439999999999
 20
86.31200000000001
 10
-136.04
 20
86.36599999999999
 10
-136.0389999999999
 20
86.39499999999999
  0
CIRCLE
  5
1F5
330
A
100
AcDbEntity
  8
PV
  6
Continuous
 62
     7
100
AcDbCircle
 10
-130.0
 20
83.00600000000001
 30
0.0
 40
17.0
  0
ARC
  5
1F6
330
A
100
AcDbEntity
  8
PV
  6
Continuous
 62
     7
100
AcDbCircle
 10
-130.579
 20
85.84000000000001
 30
0.0
 40
17.25
100
AcDbArc
 50
302.66744
 51
315.160235
  0
ARC
  5
1F7
330
A
100
AcDbEntity
  8
PV
  6
Continuous
 62
     7
100
AcDbCircle
 10
-129.1539999999999
 20
85.69
 30
0.0
 40
17.25
100
AcDbArc
 50
223.8397689999999
 51
235.057317
  0
ARC
  5
1F8
330
A
100
AcDbEntity
  8
PV
  6
Continuous
 62
     7
100
AcDbCircle
 10
-126.1139999999999
 20
95.891
 30
0.0
 40
0.7
100
AcDbArc
 50
265.3970849999999
 51
94.602915
  0
ARC
  5
1F9
330
A
100
AcDbEntity
  8
PV
  6
Continuous
 62
     7
100
AcDbCircle
 10
-126.15
 20
95.891
 30
0.0
 40
0.7
100
AcDbArc
 50
91.745976
 51
268.254013
  0
ARC
  5
1FA
330
A
100
AcDbEntity
  8
PV
  6
Continuous
 62
     7
100
AcDbCircle
 10
-127.3549999999999
 20
95.891
 30
0.0
 40
1.375
100
AcDbArc
 50
30.587561
 51
329.4124279999999
  0
ARC
  5
1FB
330
A
100
AcDbEntity
  8
PV
  6
Continuous
 62
     7
100
AcDbCircle
 10
-129.6839999999999
 20
95.891
 30
0.0
 40
0.75
100
AcDbArc
 50
269.9999969999999
 51
90.00000300000001
  0
ARC
  5
1FC
330
A
100
AcDbEntity
  8
PV
  6
Continuous
 62
     7
100
AcDbCircle
 10
-129.6839999999999
 20
95.891
 30
0.0
 40
0.75
100
AcDbArc
 50
90.00000300000001
 51
270.000001
  0
ARC
  5
1FD
330
A
100
AcDbEntity
  8
PV
  6
Continuous
 62
     7
100
AcDbCircle
 10
-129.6839999999999
 20
95.891
 30
0.0
 40
1.395999999999999
100
AcDbArc
 50
90.00000300000001
 51
270.000001
  0
ARC
  5
1FE
330
A
100
AcDbEntity
  8
PV
  6
Continuous
 62
     7
100
AcDbCircle
 10
-133.565
 20
96.51600000000001
 30
0.0
 40
0.75
100
AcDbArc
 50
179.9999909999999
 51
0.0
  0
ARC
  5
1FF
330
A
100
AcDbEntity
  8
PV
  6
Continuous
 62
     7
100
AcDbCircle
 10
-133.565
 20
96.51600000000001
 30
0.0
 40
0.75
100
AcDbArc
 50
0.0
 51
180.000005
  0
ARC
  5
200
330
A
100
AcDbEntity
  8
PV
  6
Continuous
 62
   254
100
AcDbCircle
 10
-119.7289999999999
 20
91.75600000000001
 30
0.0
 40
0.746
100
AcDbArc
 50
359.999996
 51
90.00003000000001
  0
ARC
  5
201
330
A
100
AcDbEntity
  8
PV
  6
Continuous
 62
   254
100
AcDbCircle
 10
-119.7289999999999
 20
91.75600000000001
 30
0.0
 40
0.448
100
AcDbArc
 50
359.999996
 51
90.00003000000001
  0
ARC
  5
202
330
A
100
AcDbEntity
  8
PV
  6
Continuous
 62
   254
100
AcDbCircle
 10
-125.102
 20
91.75600000000001
 30
0.0
 40
0.448
100
AcDbArc
 50
359.999996
 51
89.999975
  0
ARC
  5
203
330
A
100
AcDbEntity
  8
PV
  6
Continuous
 62
   254
100
AcDbCircle
 10
-125.252
 20
91.75600000000001
 30
0.0
 40
0.448
100
AcDbArc
 50
179.999978
 51
270.000001
  0
ARC
  5
204
330
A
100
AcDbEntity
  8
PV
  6
Continuous
 62
   254
100
AcDbCircle
 10
-125.252
 20
91.75600000000001
 30
0.0
 40
0.746
100
AcDbArc
 50
179.999978
 51
270.000001
  0
ARC
  5
205
330
A
100
AcDbEntity
  8
PV
  6
Continuous
 62
   254
100
AcDbCircle
 10
-133.9079999999999
 20
91.75600000000001
 30
0.0
 40
0.746
100
AcDbArc
 50
179.999978
 51
270.000001
  0
ARC
  5
206
330
A
100
AcDbEntity
  8
PV
  6
Continuous
 62
   254
100
AcDbCircle
 10
-133.9079999999999
 20
91.75600000000001
 30
0.0
 40
0.448
100
AcDbArc
 50
179.999978
 51
270.000001
  0
ARC
  5
207
330
A
100
AcDbEntity
  8
PV
  6
Continuous
 62
   254
100
AcDbCircle
 10
-133.7589999999999
 20
91.75600000000001
 30
0.0
 40
0.448
100
AcDbArc
 50
359.999996
 51
89.999975
  0
ARC
  5
208
330
A
100
AcDbEntity
  8
PV
  6
Continuous
 62
   254
100
AcDbCircle
 10
-133.7589999999999
 20
91.75600000000001
 30
0.0
 40
0.746
100
AcDbArc
 50
359.999996
 51
89.999975
  0
ARC
  5
209
330
A
100
AcDbEntity
  8
PV
  6
Continuous
 62
   254
100
AcDbCircle
 10
-139.58
 20
92.055
 30
0.0
 40
0.448
100
AcDbArc
 50
359.999996
 51
89.999975
  0
ARC
  5
20A
330
A
100
AcDbEntity
  8
PV
  6
Continuous
 62
   254
100
AcDbCircle
 10
-139.58
 20
92.055
 30
0.0
 40
0.149
100
AcDbArc
 50
359.999996
 51
89.999975
  0
ARC
  5
20B
330
A
100
AcDbEntity
  8
PV
  6
Continuous
 62
   254
100
AcDbCircle
 10
-126.819
 20
91.75600000000001
 30
0.0
 40
0.448
100
AcDbArc
 50
89.999975
 51
270.000001
  0
ARC
  5
20C
330
A
100
AcDbEntity
  8
PV
  6
Continuous
 62
   254
100
AcDbCircle
 10
-126.819
 20
91.75600000000001
 30
0.0
 40
0.746
100
AcDbArc
 50
89.999975
 51
270.000001
  0
ARC
  5
20D
330
A
100
AcDbEntity
  8
PV
  6
Continuous
 62
   254
100
AcDbCircle
 10
-119.7289999999999
 20
91.75600000000001
 30
0.0
 40
0.448
100
AcDbArc
 50
270.0000109999999
 51
359.999996
  0
ARC
  5
20E
330
A
100
AcDbEntity
  8
PV
  6
Continuous
 62
   254
100
AcDbCircle
 10
-119.7289999999999
 20
91.75600000000001
 30
0.0
 40
0.746
100
AcDbArc
 50
270.0000109999999
 51
359.999996
  0
ARC
  5
20F
330
A
100
AcDbEntity
  8
PV
  6
Continuous
 62
   254
100
AcDbCircle
 10
-122.789
 20
91.60700000000002
 30
0.0
 40
0.299
100
AcDbArc
 50
179.999978
 51
270.000001
  0
ARC
  5
210
330
A
100
AcDbEntity
  8
PV
  6
Continuous
 62
   254
100
AcDbCircle
 10
-122.789
 20
91.60700000000002
 30
0.0
 40
0.597
100
AcDbArc
 50
179.999978
 51
270.000001
  0
CIRCLE
  5
211
330
A
100
AcDbEntity
  8
PV
  6
Continuous
 62
   254
100
AcDbCircle
 10
-124.207
 20
91.19699999999999
 30
0.0
 40
0.187
  0
ARC
  5
212
330
A
100
AcDbEntity
  8
PV
  6
Continuous
 62
   254
100
AcDbCircle
 10
-123.729
 20
91.19699999999999
 30
0.0
 40
0.187
100
AcDbArc
 50
319.9999189999999
 51
241.536827
  0
ARC
  5
213
330
A
100
AcDbEntity
  8
PV
  6
Continuous
 62
   254
100
AcDbCircle
 10
-133.7589999999999
 20
91.75600000000001
 30
0.0
 40
0.448
100
AcDbArc
 50
270.0000109999999
 51
359.999996
  0
ARC
  5
214
330
A
100
AcDbEntity
  8
PV
  6
Continuous
 62
   254
100
AcDbCircle
 10
-133.9079999999999
 20
91.75600000000001
 30
0.0
 40
0.448
100
AcDbArc
 50
89.999975
 51
179.99995
  0
ARC
  5
215
330
A
100
AcDbEntity
  8
PV
  6
Continuous
 62
   254
100
AcDbCircle
 10
-133.7589999999999
 20
91.75600000000001
 30
0.0
 40
0.746
100
AcDbArc
 50
270.0000109999999
 51
359.999996
  0
ARC
  5
216
330
A
100
AcDbEntity
  8
PV
  6
Continuous
 62
   254
100
AcDbCircle
 10
-133.9079999999999
 20
91.75600000000001
 30
0.0
 40
0.746
100
AcDbArc
 50
89.999975
 51
179.99995
  0
ARC
  5
217
330
A
100
AcDbEntity
  8
PV
  6
Continuous
 62
   254
100
AcDbCircle
 10
-128.908
 20
91.83100000000001
 30
0.0
 40
0.373
100
AcDbArc
 50
359.999996
 51
89.999975
  0
ARC
  5
218
330
A
100
AcDbEntity
  8
PV
  6
Continuous
 62
   254
100
AcDbCircle
 10
-129.058
 20
91.83100000000001
 30
0.0
 40
0.373
100
AcDbArc
 50
89.999975
 51
179.99995
  0
ARC
  5
219
330
A
100
AcDbEntity
  8
PV
  6
Continuous
 62
   254
100
AcDbCircle
 10
-128.908
 20
91.83100000000001
 30
0.0
 40
0.6720000000000001
100
AcDbArc
 50
359.999996
 51
89.999975
  0
ARC
  5
21A
330
A
100
AcDbEntity
  8
PV
  6
Continuous
 62
   254
100
AcDbCircle
 10
-129.058
 20
91.83100000000001
 30
0.0
 40
0.6720000000000001
100
AcDbArc
 50
89.999975
 51
179.99995
  0
ARC
  5
21B
330
A
100
AcDbEntity
  8
PV
  6
Continuous
 62
   254
100
AcDbCircle
 10
-137.714
 20
91.75600000000001
 30
0.0
 40
0.448
100
AcDbArc
 50
199.471211
 51
270.0000109999999
  0
ARC
  5
21C
330
A
100
AcDbEntity
  8
PV
  6
Continuous
 62
   254
100
AcDbCircle
 10
-137.714
 20
91.75600000000001
 30
0.0
 40
0.448
100
AcDbArc
 50
89.999975
 51
160.528775
  0
ARC
  5
21D
330
A
100
AcDbEntity
  8
PV
  6
Continuous
 62
   254
100
AcDbCircle
 10
-137.714
 20
91.75600000000001
 30
0.0
 40
0.746
100
AcDbArc
 50
89.999975
 51
270.000001
  0
ARC
  5
21E
330
A
100
AcDbEntity
  8
PV
  6
Continuous
 62
   254
100
AcDbCircle
 10
-125.102
 20
91.75600000000001
 30
0.0
 40
0.448
100
AcDbArc
 50
270.0000109999999
 51
359.999996
  0
ARC
  5
21F
330
A
100
AcDbEntity
  8
PV
  6
Continuous
 62
   254
100
AcDbCircle
 10
-125.252
 20
91.75600000000001
 30
0.0
 40
0.448
100
AcDbArc
 50
89.999975
 51
179.99995
  0
ARC
  5
220
330
A
100
AcDbEntity
  8
PV
  6
Continuous
 62
   254
100
AcDbCircle
 10
-125.102
 20
91.75600000000001
 30
0.0
 40
0.746
100
AcDbArc
 50
270.0000109999999
 51
359.999996
  0
ARC
  5
221
330
A
100
AcDbEntity
  8
PV
  6
Continuous
 62
   254
100
AcDbCircle
 10
-125.252
 20
91.75600000000001
 30
0.0
 40
0.746
100
AcDbArc
 50
89.999975
 51
179.99995
  0
ARC
  5
222
330
A
100
AcDbEntity
  8
PV
  6
Continuous
 62
   254
100
AcDbCircle
 10
-130.625
 20
91.75600000000001
 30
0.0
 40
0.448
100
AcDbArc
 50
199.471211
 51
270.0000109999999
  0
ARC
  5
223
330
A
100
AcDbEntity
  8
PV
  6
Continuous
 62
   254
100
AcDbCircle
 10
-130.625
 20
91.75600000000001
 30
0.0
 40
0.448
100
AcDbArc
 50
89.999975
 51
160.528775
  0
ARC
  5
224
330
A
100
AcDbEntity
  8
PV
  6
Continuous
 62
   254
100
AcDbCircle
 10
-130.625
 20
91.75600000000001
 30
0.0
 40
0.746
100
AcDbArc
 50
89.999975
 51
270.000001
  0
ARC
  5
225
330
A
100
AcDbEntity
  8
PV
  6
Continuous
 62
   254
100
AcDbCircle
 10
-139.58
 20
92.055
 30
0.0
 40
0.149
100
AcDbArc
 50
270.0000109999999
 51
359.999996
  0
ARC
  5
226
330
A
100
AcDbEntity
  8
PV
  6
Continuous
 62
   254
100
AcDbCircle
 10
-139.58
 20
92.055
 30
0.0
 40
0.448
100
AcDbArc
 50
273.7218359999999
 51
359.999996
  0
ARC
  5
227
330
A
100
AcDbEntity
  8
PV
  6
Continuous
 62
   254
100
AcDbCircle
 10
-125.102
 20
91.75600000000001
 30
0.0
 40
0.746
100
AcDbArc
 50
359.999996
 51
89.999975
  0
ARC
  5
228
330
A
100
AcDbEntity
  8
PV
  6
Continuous
 62
     7
100
AcDbCircle
 10
-116.5039999999999
 20
86.98
 30
0.0
 40
0.45
100
AcDbArc
 50
4.584908
 51
240.0678709999999
  0
ARC
  5
229
330
A
100
AcDbEntity
  8
PV
  6
Continuous
 62
     7
100
AcDbCircle
 10
-116.5039999999999
 20
86.98
 30
0.0
 40
0.7
100
AcDbArc
 50
14.70246199999999
 51
243.207545
  0
ARC
  5
22A
330
A
100
AcDbEntity
  8
PV
  6
Continuous
 62
     7
100
AcDbCircle
 10
-116.755
 20
85.80899999999999
 30
0.0
 40
0.45
100
AcDbArc
 50
184.58491
 51
53.886818
  0
ARC
  5
22B
330
A
100
AcDbEntity
  8
PV
  6
Continuous
 62
     7
100
AcDbCircle
 10
-116.755
 20
85.80899999999999
 30
0.0
 40
0.7
100
AcDbArc
 50
194.702455
 51
58.91297
  0
LINE
  5
22C
330
A
100
AcDbEntity
  8
PV
  6
Continuous
 62
     7
100
AcDbLine
 10
-139.581
 20
72.458
 30
0.0
 11
-141.596
 21
73.742
 31
0.0
  0
LINE
  5
22D
330
A
100
AcDbEntity
  8
PV
  6
Continuous
 62
     7
100
AcDbLine
 10
-140.271
 20
71.753
 30
0.0
 11
-141.596
 21
73.742
 31
0.0
  0
LINE
  5
22E
330
A
100
AcDbEntity
  8
PV
  6
Continuous
 62
     7
100
AcDbLine
 10
-119.707
 20
71.712
 30
0.0
 11
-118.347
 21
73.67699999999999
 31
0.0
  0
LINE
  5
22F
330
A
100
AcDbEntity
  8
PV
  6
Continuous
 62
     7
100
AcDbLine
 10
-120.385
 20
72.42799999999999
 30
0.0
 11
-118.347
 21
73.67699999999999
 31
0.0
  0
LINE
  5
230
330
A
100
AcDbEntity
  8
PV
  6
Continuous
 62
     7
100
AcDbLine
 10
-129.6839999999999
 20
96.64100000000001
 30
0.0
 11
-129.6839999999999
 21
95.141
 31
0.0
  0
LINE
  5
231
330
A
100
AcDbEntity
  8
PV
  6
Continuous
 62
     7
100
AcDbLine
 10
-129.6839999999999
 20
95.141
 30
0.0
 11
-129.6839999999999
 21
94.495
 31
0.0
  0
LINE
  5
232
330
A
100
AcDbEntity
  8
PV
  6
Continuous
 62
     7
100
AcDbLine
 10
-134.315
 20
96.51600000000001
 30
0.0
 11
-132.8149999999999
 21
96.51600000000001
 31
0.0
  0
LINE
  5
233
330
A
100
AcDbEntity
  8
PV
  6
Continuous
 62
     7
100
AcDbLine
 10
-126.1319999999999
 20
96.59100000000002
 30
0.0
 11
-126.1319999999999
 21
95.19099999999999
 31
0.0
  0
LINE
  5
234
330
A
100
AcDbEntity
  8
PV
  6
Continuous
 62
     7
100
AcDbLine
 10
-129.6839999999999
 20
97.28700000000001
 30
0.0
 11
-129.6839999999999
 21
96.64100000000001
 31
0.0
  0
LINE
  5
235
330
A
100
AcDbEntity
  8
PV
  6
Continuous
 62
     7
100
AcDbLine
 10
-131.08
 20
97.26600000000001
 30
0.0
 11
-131.08
 21
94.516
 31
0.0
  0
LINE
  5
236
330
A
100
AcDbEntity
  8
PV
  6
Continuous
 62
     7
100
AcDbLine
 10
-132.43
 20
97.26600000000001
 30
0.0
 11
-132.43
 21
94.516
 31
0.0
  0
LINE
  5
237
330
A
100
AcDbEntity
  8
PV
  6
Continuous
 62
     7
100
AcDbLine
 10
-132.43
 20
97.26600000000001
 30
0.0
 11
-131.08
 21
97.26600000000001
 31
0.0
  0
LINE
  5
238
330
A
100
AcDbEntity
  8
PV
  6
Continuous
 62
     7
100
AcDbLine
 10
-132.43
 20
94.516
 30
0.0
 11
-131.08
 21
94.516
 31
0.0
  0
LINE
  5
239
330
A
100
AcDbEntity
  8
PV
  6
Continuous
 62
     7
100
AcDbLine
 10
-132.8149999999999
 20
96.51600000000001
 30
0.0
 11
-132.8149999999999
 21
94.516
 31
0.0
  0
LINE
  5
23A
330
A
100
AcDbEntity
  8
PV
  6
Continuous
 62
     7
100
AcDbLine
 10
-134.315
 20
94.516
 30
0.0
 11
-132.8149999999999
 21
94.516
 31
0.0
  0
LINE
  5
23B
330
A
100
AcDbEntity
  8
PV
  6
Continuous
 62
     7
100
AcDbLine
 10
-134.315
 20
96.51600000000001
 30
0.0
 11
-134.315
 21
94.516
 31
0.0
  0
LINE
  5
23C
330
A
100
AcDbEntity
  8
PV
  6
Continuous
 62
   254
100
AcDbLine
 10
-120.252
 20
91.75600000000001
 30
0.0
 11
-120.252
 21
91.309
 31
0.0
  0
LINE
  5
23D
330
A
100
AcDbEntity
  8
PV
  6
Continuous
 62
   254
100
AcDbLine
 10
-120.55
 20
91.75600000000001
 30
0.0
 11
-120.55
 21
91.01
 31
0.0
  0
LINE
  5
23E
330
A
100
AcDbEntity
  8
PV
  6
Continuous
 62
   254
100
AcDbLine
 10
-119.281
 20
91.75600000000001
 30
0.0
 11
-118.9829999999999
 21
91.75600000000001
 31
0.0
  0
LINE
  5
23F
330
A
100
AcDbEntity
  8
PV
  6
Continuous
 62
   254
100
AcDbLine
 10
-120.55
 20
91.75600000000001
 30
0.0
 11
-120.252
 21
91.75600000000001
 31
0.0
  0
LINE
  5
240
330
A
100
AcDbEntity
  8
PV
  6
Continuous
 62
   254
100
AcDbLine
 10
-124.655
 20
91.75600000000001
 30
0.0
 11
-124.356
 21
91.75600000000001
 31
0.0
  0
LINE
  5
241
330
A
100
AcDbEntity
  8
PV
  6
Continuous
 62
   254
100
AcDbLine
 10
-125.9979999999999
 20
91.75600000000001
 30
0.0
 11
-125.699
 21
91.75600000000001
 31
0.0
  0
LINE
  5
242
330
A
100
AcDbEntity
  8
PV
  6
Continuous
 62
   254
100
AcDbLine
 10
-133.311
 20
91.75600000000001
 30
0.0
 11
-133.013
 21
91.75600000000001
 31
0.0
  0
LINE
  5
243
330
A
100
AcDbEntity
  8
PV
  6
Continuous
 62
   254
100
AcDbLine
 10
-139.431
 20
92.055
 30
0.0
 11
-139.132
 21
92.055
 31
0.0
  0
LINE
  5
244
330
A
100
AcDbEntity
  8
PV
  6
Continuous
 62
   254
100
AcDbLine
 10
-140.625
 20
92.055
 30
0.0
 11
-140.3259999999999
 21
92.055
 31
0.0
  0
LINE
  5
245
330
A
100
AcDbEntity
  8
PV
  6
Continuous
 62
   254
100
AcDbLine
 10
-140.3259999999999
 20
92.055
 30
0.0
 11
-140.3259999999999
 21
91.90600000000001
 31
0.0
  0
LINE
  5
246
330
A
100
AcDbEntity
  8
PV
  6
Continuous
 62
   254
100
AcDbLine
 10
-140.625
 20
92.055
 30
0.0
 11
-140.625
 21
91.01
 31
0.0
  0
LINE
  5
247
330
A
100
AcDbEntity
  8
PV
  6
Continuous
 62
   254
100
AcDbLine
 10
-120.252
 20
92.20399999999999
 30
0.0
 11
-120.252
 21
91.75600000000001
 31
0.0
  0
LINE
  5
248
330
A
100
AcDbEntity
  8
PV
  6
Continuous
 62
   254
100
AcDbLine
 10
-120.252
 20
91.309
 30
0.0
 11
-119.7289999999999
 21
91.309
 31
0.0
  0
LINE
  5
249
330
A
100
AcDbEntity
  8
PV
  6
Continuous
 62
   254
100
AcDbLine
 10
-120.55
 20
92.50299999999999
 30
0.0
 11
-120.55
 21
91.75600000000001
 31
0.0
  0
LINE
  5
24A
330
A
100
AcDbEntity
  8
PV
  6
Continuous
 62
   254
100
AcDbLine
 10
-121.595
 20
91.01
 30
0.0
 11
-121.296
 21
91.01
 31
0.0
  0
LINE
  5
24B
330
A
100
AcDbEntity
  8
PV
  6
Continuous
 62
   254
100
AcDbLine
 10
-121.296
 20
92.20399999999999
 30
0.0
 11
-120.699
 21
92.20399999999999
 31
0.0
  0
LINE
  5
24C
330
A
100
AcDbEntity
  8
PV
  6
Continuous
 62
   254
100
AcDbLine
 10
-120.55
 20
92.50299999999999
 30
0.0
 11
-119.7289999999999
 21
92.50299999999999
 31
0.0
  0
LINE
  5
24D
330
A
100
AcDbEntity
  8
PV
  6
Continuous
 62
   254
100
AcDbLine
 10
-120.252
 20
92.20399999999999
 30
0.0
 11
-119.7289999999999
 21
92.20399999999999
 31
0.0
  0
LINE
  5
24E
330
A
100
AcDbEntity
  8
PV
  6
Continuous
 62
   254
100
AcDbLine
 10
-121.595
 20
92.20399999999999
 30
0.0
 11
-121.595
 21
91.01
 31
0.0
  0
LINE
  5
24F
330
A
100
AcDbEntity
  8
PV
  6
Continuous
 62
   254
100
AcDbLine
 10
-121.296
 20
92.20399999999999
 30
0.0
 11
-121.296
 21
91.01
 31
0.0
  0
LINE
  5
250
330
A
100
AcDbEntity
  8
PV
  6
Continuous
 62
   254
100
AcDbLine
 10
-122.192
 20
92.20399999999999
 30
0.0
 11
-121.595
 21
92.20399999999999
 31
0.0
  0
LINE
  5
251
330
A
100
AcDbEntity
  8
PV
  6
Continuous
 62
   254
100
AcDbLine
 10
-120.699
 20
92.50299999999999
 30
0.0
 11
-120.699
 21
92.20399999999999
 31
0.0
  0
LINE
  5
252
330
A
100
AcDbEntity
  8
PV
  6
Continuous
 62
   254
100
AcDbLine
 10
-122.192
 20
92.50299999999999
 30
0.0
 11
-122.192
 21
92.20399999999999
 31
0.0
  0
LINE
  5
253
330
A
100
AcDbEntity
  8
PV
  6
Continuous
 62
   254
100
AcDbLine
 10
-122.192
 20
92.50299999999999
 30
0.0
 11
-120.699
 21
92.50299999999999
 31
0.0
  0
LINE
  5
254
330
A
100
AcDbEntity
  8
PV
  6
Continuous
 62
   254
100
AcDbLine
 10
-123.386
 20
92.50299999999999
 30
0.0
 11
-123.087
 21
92.50299999999999
 31
0.0
  0
LINE
  5
255
330
A
100
AcDbEntity
  8
PV
  6
Continuous
 62
   254
100
AcDbLine
 10
-120.55
 20
91.01
 30
0.0
 11
-119.7289999999999
 21
91.01
 31
0.0
  0
LINE
  5
256
330
A
100
AcDbEntity
  8
PV
  6
Continuous
 62
   254
100
AcDbLine
 10
-122.789
 20
91.309
 30
0.0
 11
-122.0429999999999
 21
91.309
 31
0.0
  0
LINE
  5
257
330
A
100
AcDbEntity
  8
PV
  6
Continuous
 62
   254
100
AcDbLine
 10
-123.087
 20
92.50299999999999
 30
0.0
 11
-123.087
 21
91.60700000000002
 31
0.0
  0
LINE
  5
258
330
A
100
AcDbEntity
  8
PV
  6
Continuous
 62
   254
100
AcDbLine
 10
-122.0429999999999
 20
91.309
 30
0.0
 11
-122.0429999999999
 21
91.01
 31
0.0
  0
LINE
  5
259
330
A
100
AcDbEntity
  8
PV
  6
Continuous
 62
   254
100
AcDbLine
 10
-123.386
 20
92.50299999999999
 30
0.0
 11
-123.386
 21
91.60700000000002
 31
0.0
  0
LINE
  5
25A
330
A
100
AcDbEntity
  8
PV
  6
Continuous
 62
   254
100
AcDbLine
 10
-123.944
 20
90.882
 30
0.0
 11
-123.8299999999999
 21
90.78599999999999
 31
0.0
  0
LINE
  5
25B
330
A
100
AcDbEntity
  8
PV
  6
Continuous
 62
   254
100
AcDbLine
 10
-123.944
 20
90.882
 30
0.0
 11
-123.818
 21
91.03299999999999
 31
0.0
  0
LINE
  5
25C
330
A
100
AcDbEntity
  8
PV
  6
Continuous
 62
   254
100
AcDbLine
 10
-123.8299999999999
 20
90.78599999999999
 30
0.0
 11
-123.5859999999999
 21
91.07700000000001
 31
0.0
  0
LINE
  5
25D
330
A
100
AcDbEntity
  8
PV
  6
Continuous
 62
   254
100
AcDbLine
 10
-133.9079999999999
 20
92.20399999999999
 30
0.0
 11
-133.7589999999999
 21
92.20399999999999
 31
0.0
  0
LINE
  5
25E
330
A
100
AcDbEntity
  8
PV
  6
Continuous
 62
   254
100
AcDbLine
 10
-133.9079999999999
 20
91.309
 30
0.0
 11
-133.7589999999999
 21
91.309
 31
0.0
  0
LINE
  5
25F
330
A
100
AcDbEntity
  8
PV
  6
Continuous
 62
   254
100
AcDbLine
 10
-133.9079999999999
 20
92.50299999999999
 30
0.0
 11
-133.7589999999999
 21
92.50299999999999
 31
0.0
  0
LINE
  5
260
330
A
100
AcDbEntity
  8
PV
  6
Continuous
 62
   254
100
AcDbLine
 10
-133.9079999999999
 20
91.01
 30
0.0
 11
-133.7589999999999
 21
91.01
 31
0.0
  0
LINE
  5
261
330
A
100
AcDbEntity
  8
PV
  6
Continuous
 62
   254
100
AcDbLine
 10
-128.535
 20
91.01
 30
0.0
 11
-128.237
 21
91.01
 31
0.0
  0
LINE
  5
262
330
A
100
AcDbEntity
  8
PV
  6
Continuous
 62
   254
100
AcDbLine
 10
-128.535
 20
91.83100000000001
 30
0.0
 11
-128.535
 21
91.01
 31
0.0
  0
LINE
  5
263
330
A
100
AcDbEntity
  8
PV
  6
Continuous
 62
   254
100
AcDbLine
 10
-129.431
 20
91.83100000000001
 30
0.0
 11
-129.431
 21
91.01
 31
0.0
  0
LINE
  5
264
330
A
100
AcDbEntity
  8
PV
  6
Continuous
 62
   254
100
AcDbLine
 10
-129.058
 20
92.20399999999999
 30
0.0
 11
-128.908
 21
92.20399999999999
 31
0.0
  0
LINE
  5
265
330
A
100
AcDbEntity
  8
PV
  6
Continuous
 62
   254
100
AcDbLine
 10
-128.237
 20
91.83100000000001
 30
0.0
 11
-128.237
 21
91.01
 31
0.0
  0
LINE
  5
266
330
A
100
AcDbEntity
  8
PV
  6
Continuous
 62
   254
100
AcDbLine
 10
-129.7289999999999
 20
91.83100000000001
 30
0.0
 11
-129.7289999999999
 21
91.01
 31
0.0
  0
LINE
  5
267
330
A
100
AcDbEntity
  8
PV
  6
Continuous
 62
   254
100
AcDbLine
 10
-129.058
 20
92.50299999999999
 30
0.0
 11
-128.908
 21
92.50299999999999
 31
0.0
  0
LINE
  5
268
330
A
100
AcDbEntity
  8
PV
  6
Continuous
 62
   254
100
AcDbLine
 10
-129.727
 20
91.01
 30
0.0
 11
-129.431
 21
91.01
 31
0.0
  0
LINE
  5
269
330
A
100
AcDbEntity
  8
PV
  6
Continuous
 62
   254
100
AcDbLine
 10
-122.789
 20
91.01
 30
0.0
 11
-122.0429999999999
 21
91.01
 31
0.0
  0
LINE
  5
26A
330
A
100
AcDbEntity
  8
PV
  6
Continuous
 62
   254
100
AcDbLine
 10
-126.0729999999999
 20
92.20399999999999
 30
0.0
 11
-126.0729999999999
 21
92.50299999999999
 31
0.0
  0
LINE
  5
26B
330
A
100
AcDbEntity
  8
PV
  6
Continuous
 62
   254
100
AcDbLine
 10
-126.819
 20
92.20399999999999
 30
0.0
 11
-126.0729999999999
 21
92.20399999999999
 31
0.0
  0
LINE
  5
26C
330
A
100
AcDbEntity
  8
PV
  6
Continuous
 62
   254
100
AcDbLine
 10
-126.819
 20
91.309
 30
0.0
 11
-126.0729999999999
 21
91.309
 31
0.0
  0
LINE
  5
26D
330
A
100
AcDbEntity
  8
PV
  6
Continuous
 62
   254
100
AcDbLine
 10
-126.819
 20
92.50299999999999
 30
0.0
 11
-126.0729999999999
 21
92.50299999999999
 31
0.0
  0
LINE
  5
26E
330
A
100
AcDbEntity
  8
PV
  6
Continuous
 62
   254
100
AcDbLine
 10
-126.819
 20
91.01
 30
0.0
 11
-126.0729999999999
 21
91.01
 31
0.0
  0
LINE
  5
26F
330
A
100
AcDbEntity
  8
PV
  6
Continuous
 62
   254
100
AcDbLine
 10
-137.043
 20
91.309
 30
0.0
 11
-137.043
 21
91.01
 31
0.0
  0
LINE
  5
270
330
A
100
AcDbEntity
  8
PV
  6
Continuous
 62
   254
100
AcDbLine
 10
-137.043
 20
91.90600000000001
 30
0.0
 11
-137.043
 21
91.60700000000002
 31
0.0
  0
LINE
  5
271
330
A
100
AcDbEntity
  8
PV
  6
Continuous
 62
   254
100
AcDbLine
 10
-137.714
 20
91.309
 30
0.0
 11
-137.043
 21
91.309
 31
0.0
  0
LINE
  5
272
330
A
100
AcDbEntity
  8
PV
  6
Continuous
 62
   254
100
AcDbLine
 10
-138.1369999999999
 20
91.90600000000001
 30
0.0
 11
-137.043
 21
91.90600000000001
 31
0.0
  0
LINE
  5
273
330
A
100
AcDbEntity
  8
PV
  6
Continuous
 62
   254
100
AcDbLine
 10
-138.1369999999999
 20
91.60700000000002
 30
0.0
 11
-137.043
 21
91.60700000000002
 31
0.0
  0
LINE
  5
274
330
A
100
AcDbEntity
  8
PV
  6
Continuous
 62
   254
100
AcDbLine
 10
-137.714
 20
91.01
 30
0.0
 11
-137.043
 21
91.01
 31
0.0
  0
LINE
  5
275
330
A
100
AcDbEntity
  8
PV
  6
Continuous
 62
   254
100
AcDbLine
 10
-137.714
 20
92.50299999999999
 30
0.0
 11
-137.043
 21
92.50299999999999
 31
0.0
  0
LINE
  5
276
330
A
100
AcDbEntity
  8
PV
  6
Continuous
 62
   254
100
AcDbLine
 10
-137.043
 20
92.50299999999999
 30
0.0
 11
-137.043
 21
92.20399999999999
 31
0.0
  0
LINE
  5
277
330
A
100
AcDbEntity
  8
PV
  6
Continuous
 62
   254
100
AcDbLine
 10
-134.925
 20
91.01
 30
0.0
 11
-134.58
 21
91.01
 31
0.0
  0
LINE
  5
278
330
A
100
AcDbEntity
  8
PV
  6
Continuous
 62
   254
100
AcDbLine
 10
-135.0999999999999
 20
92.50299999999999
 30
0.0
 11
-134.58
 21
92.50299999999999
 31
0.0
  0
LINE
  5
279
330
A
100
AcDbEntity
  8
PV
  6
Continuous
 62
   254
100
AcDbLine
 10
-135.8489999999999
 20
91.61399999999998
 30
0.0
 11
-135.8489999999999
 21
91.01
 31
0.0
  0
LINE
  5
27A
330
A
100
AcDbEntity
  8
PV
  6
Continuous
 62
   254
100
AcDbLine
 10
-135.4389999999999
 20
91.90100000000001
 30
0.0
 11
-135.8489999999999
 21
91.61399999999998
 31
0.0
  0
LINE
  5
27B
330
A
100
AcDbEntity
  8
PV
  6
Continuous
 62
   254
100
AcDbLine
 10
-134.925
 20
91.01
 30
0.0
 11
-135.4389999999999
 21
91.90100000000001
 31
0.0
  0
LINE
  5
27C
330
A
100
AcDbEntity
  8
PV
  6
Continuous
 62
   254
100
AcDbLine
 10
-135.0999999999999
 20
92.50299999999999
 30
0.0
 11
-135.8489999999999
 21
91.979
 31
0.0
  0
LINE
  5
27D
330
A
100
AcDbEntity
  8
PV
  6
Continuous
 62
   254
100
AcDbLine
 10
-134.58
 20
92.50299999999999
 30
0.0
 11
-135.1939999999999
 21
92.073
 31
0.0
  0
LINE
  5
27E
330
A
100
AcDbEntity
  8
PV
  6
Continuous
 62
   254
100
AcDbLine
 10
-134.58
 20
91.01
 30
0.0
 11
-135.1939999999999
 21
92.073
 31
0.0
  0
LINE
  5
27F
330
A
100
AcDbEntity
  8
PV
  6
Continuous
 62
   254
100
AcDbLine
 10
-135.8489999999999
 20
92.50299999999999
 30
0.0
 11
-135.8489999999999
 21
91.979
 31
0.0
  0
LINE
  5
280
330
A
100
AcDbEntity
  8
PV
  6
Continuous
 62
   254
100
AcDbLine
 10
-136.147
 20
92.50299999999999
 30
0.0
 11
-136.147
 21
91.01
 31
0.0
  0
LINE
  5
281
330
A
100
AcDbEntity
  8
PV
  6
Continuous
 62
   254
100
AcDbLine
 10
-136.147
 20
91.01
 30
0.0
 11
-135.8489999999999
 21
91.01
 31
0.0
  0
LINE
  5
282
330
A
100
AcDbEntity
  8
PV
  6
Continuous
 62
   254
100
AcDbLine
 10
-136.147
 20
92.50299999999999
 30
0.0
 11
-135.8489999999999
 21
92.50299999999999
 31
0.0
  0
LINE
  5
283
330
A
100
AcDbEntity
  8
PV
  6
Continuous
 62
   254
100
AcDbLine
 10
-125.252
 20
92.20399999999999
 30
0.0
 11
-125.102
 21
92.20399999999999
 31
0.0
  0
LINE
  5
284
330
A
100
AcDbEntity
  8
PV
  6
Continuous
 62
   254
100
AcDbLine
 10
-125.252
 20
91.309
 30
0.0
 11
-125.102
 21
91.309
 31
0.0
  0
LINE
  5
285
330
A
100
AcDbEntity
  8
PV
  6
Continuous
 62
   254
100
AcDbLine
 10
-126.0729999999999
 20
91.012
 30
0.0
 11
-126.0729999999999
 21
91.309
 31
0.0
  0
LINE
  5
286
330
A
100
AcDbEntity
  8
PV
  6
Continuous
 62
   254
100
AcDbLine
 10
-125.252
 20
92.50299999999999
 30
0.0
 11
-125.102
 21
92.50299999999999
 31
0.0
  0
LINE
  5
287
330
A
100
AcDbEntity
  8
PV
  6
Continuous
 62
   254
100
AcDbLine
 10
-125.252
 20
91.01
 30
0.0
 11
-125.102
 21
91.01
 31
0.0
  0
LINE
  5
288
330
A
100
AcDbEntity
  8
PV
  6
Continuous
 62
   254
100
AcDbLine
 10
-131.6409999999999
 20
91.01
 30
0.0
 11
-131.2959999999999
 21
91.01
 31
0.0
  0
LINE
  5
289
330
A
100
AcDbEntity
  8
PV
  6
Continuous
 62
   254
100
AcDbLine
 10
-131.817
 20
92.50299999999999
 30
0.0
 11
-131.2959999999999
 21
92.50299999999999
 31
0.0
  0
LINE
  5
28A
330
A
100
AcDbEntity
  8
PV
  6
Continuous
 62
   254
100
AcDbLine
 10
-132.5649999999999
 20
91.61399999999998
 30
0.0
 11
-132.5649999999999
 21
91.01
 31
0.0
  0
LINE
  5
28B
330
A
100
AcDbEntity
  8
PV
  6
Continuous
 62
   254
100
AcDbLine
 10
-132.156
 20
91.90100000000001
 30
0.0
 11
-132.5649999999999
 21
91.61399999999998
 31
0.0
  0
LINE
  5
28C
330
A
100
AcDbEntity
  8
PV
  6
Continuous
 62
   254
100
AcDbLine
 10
-131.6409999999999
 20
91.01
 30
0.0
 11
-132.156
 21
91.90100000000001
 31
0.0
  0
LINE
  5
28D
330
A
100
AcDbEntity
  8
PV
  6
Continuous
 62
   254
100
AcDbLine
 10
-131.817
 20
92.50299999999999
 30
0.0
 11
-132.5649999999999
 21
91.979
 31
0.0
  0
LINE
  5
28E
330
A
100
AcDbEntity
  8
PV
  6
Continuous
 62
   254
100
AcDbLine
 10
-131.2959999999999
 20
92.50299999999999
 30
0.0
 11
-131.9099999999999
 21
92.073
 31
0.0
  0
LINE
  5
28F
330
A
100
AcDbEntity
  8
PV
  6
Continuous
 62
   254
100
AcDbLine
 10
-131.2959999999999
 20
91.01
 30
0.0
 11
-131.9099999999999
 21
92.073
 31
0.0
  0
LINE
  5
290
330
A
100
AcDbEntity
  8
PV
  6
Continuous
 62
   254
100
AcDbLine
 10
-139.497
 20
91.01
 30
0.0
 11
-139.9149999999999
 21
91.60700000000002
 31
0.0
  0
LINE
  5
291
330
A
100
AcDbEntity
  8
PV
  6
Continuous
 62
   254
100
AcDbLine
 10
-139.132
 20
91.01
 30
0.0
 11
-139.551
 21
91.608
 31
0.0
  0
LINE
  5
292
330
A
100
AcDbEntity
  8
PV
  6
Continuous
 62
   254
100
AcDbLine
 10
-132.5649999999999
 20
92.50299999999999
 30
0.0
 11
-132.5649999999999
 21
91.979
 31
0.0
  0
LINE
  5
293
330
A
100
AcDbEntity
  8
PV
  6
Continuous
 62
   254
100
AcDbLine
 10
-132.864
 20
92.50299999999999
 30
0.0
 11
-132.864
 21
91.01
 31
0.0
  0
LINE
  5
294
330
A
100
AcDbEntity
  8
PV
  6
Continuous
 62
   254
100
AcDbLine
 10
-129.953
 20
91.309
 30
0.0
 11
-129.953
 21
91.01
 31
0.0
  0
LINE
  5
295
330
A
100
AcDbEntity
  8
PV
  6
Continuous
 62
   254
100
AcDbLine
 10
-129.953
 20
91.90600000000001
 30
0.0
 11
-129.953
 21
91.60700000000002
 31
0.0
  0
LINE
  5
296
330
A
100
AcDbEntity
  8
PV
  6
Continuous
 62
   254
100
AcDbLine
 10
-130.625
 20
92.20399999999999
 30
0.0
 11
-129.953
 21
92.20399999999999
 31
0.0
  0
LINE
  5
297
330
A
100
AcDbEntity
  8
PV
  6
Continuous
 62
   254
100
AcDbLine
 10
-130.625
 20
91.309
 30
0.0
 11
-129.953
 21
91.309
 31
0.0
  0
LINE
  5
298
330
A
100
AcDbEntity
  8
PV
  6
Continuous
 62
   254
100
AcDbLine
 10
-131.047
 20
91.90600000000001
 30
0.0
 11
-129.953
 21
91.90600000000001
 31
0.0
  0
LINE
  5
299
330
A
100
AcDbEntity
  8
PV
  6
Continuous
 62
   254
100
AcDbLine
 10
-131.047
 20
91.60700000000002
 30
0.0
 11
-129.953
 21
91.60700000000002
 31
0.0
  0
LINE
  5
29A
330
A
100
AcDbEntity
  8
PV
  6
Continuous
 62
   254
100
AcDbLine
 10
-132.864
 20
91.01
 30
0.0
 11
-132.5649999999999
 21
91.01
 31
0.0
  0
LINE
  5
29B
330
A
100
AcDbEntity
  8
PV
  6
Continuous
 62
   254
100
AcDbLine
 10
-132.864
 20
92.50299999999999
 30
0.0
 11
-132.5649999999999
 21
92.50299999999999
 31
0.0
  0
LINE
  5
29C
330
A
100
AcDbEntity
  8
PV
  6
Continuous
 62
   254
100
AcDbLine
 10
-130.625
 20
91.01
 30
0.0
 11
-129.953
 21
91.01
 31
0.0
  0
LINE
  5
29D
330
A
100
AcDbEntity
  8
PV
  6
Continuous
 62
   254
100
AcDbLine
 10
-130.625
 20
92.50299999999999
 30
0.0
 11
-129.953
 21
92.50299999999999
 31
0.0
  0
LINE
  5
29E
330
A
100
AcDbEntity
  8
PV
  6
Continuous
 62
   254
100
AcDbLine
 10
-138.61
 20
92.50299999999999
 30
0.0
 11
-138.61
 21
91.01
 31
0.0
  0
LINE
  5
29F
330
A
100
AcDbEntity
  8
PV
  6
Continuous
 62
   254
100
AcDbLine
 10
-138.9079999999999
 20
92.50299999999999
 30
0.0
 11
-138.9079999999999
 21
91.01
 31
0.0
  0
LINE
  5
2A0
330
A
100
AcDbEntity
  8
PV
  6
Continuous
 62
   254
100
AcDbLine
 10
-138.9079999999999
 20
91.01
 30
0.0
 11
-138.61
 21
91.01
 31
0.0
  0
LINE
  5
2A1
330
A
100
AcDbEntity
  8
PV
  6
Continuous
 62
   254
100
AcDbLine
 10
-138.9079999999999
 20
92.50299999999999
 30
0.0
 11
-138.61
 21
92.50299999999999
 31
0.0
  0
LINE
  5
2A2
330
A
100
AcDbEntity
  8
PV
  6
Continuous
 62
   254
100
AcDbLine
 10
-139.497
 20
91.01
 30
0.0
 11
-139.132
 21
91.01
 31
0.0
  0
LINE
  5
2A3
330
A
100
AcDbEntity
  8
PV
  6
Continuous
 62
   254
100
AcDbLine
 10
-140.3259999999999
 20
91.60700000000002
 30
0.0
 11
-140.3259999999999
 21
91.01
 31
0.0
  0
LINE
  5
2A4
330
A
100
AcDbEntity
  8
PV
  6
Continuous
 62
   254
100
AcDbLine
 10
-140.625
 20
92.50299999999999
 30
0.0
 11
-139.58
 21
92.50299999999999
 31
0.0
  0
LINE
  5
2A5
330
A
100
AcDbEntity
  8
PV
  6
Continuous
 62
   254
100
AcDbLine
 10
-140.625
 20
91.01
 30
0.0
 11
-140.3259999999999
 21
91.01
 31
0.0
  0
LINE
  5
2A6
330
A
100
AcDbEntity
  8
PV
  6
Continuous
 62
   254
100
AcDbLine
 10
-139.58
 20
91.90600000000001
 30
0.0
 11
-140.3259999999999
 21
91.90600000000001
 31
0.0
  0
LINE
  5
2A7
330
A
100
AcDbEntity
  8
PV
  6
Continuous
 62
   254
100
AcDbLine
 10
-139.58
 20
92.20399999999999
 30
0.0
 11
-140.3259999999999
 21
92.20399999999999
 31
0.0
  0
LINE
  5
2A8
330
A
100
AcDbEntity
  8
PV
  6
Continuous
 62
   254
100
AcDbLine
 10
-140.3259999999999
 20
91.60700000000002
 30
0.0
 11
-139.9149999999999
 21
91.60700000000002
 31
0.0
  0
LINE
  5
2A9
330
A
100
AcDbEntity
  8
PV
  6
Continuous
 62
   254
100
AcDbLine
 10
-129.953
 20
92.50299999999999
 30
0.0
 11
-129.953
 21
92.20399999999999
 31
0.0
  0
LINE
  5
2AA
330
A
100
AcDbEntity
  8
PV
  6
Continuous
 62
   254
100
AcDbLine
 10
-140.3259999999999
 20
92.20399999999999
 30
0.0
 11
-140.3259999999999
 21
92.055
 31
0.0
  0
LINE
  5
2AB
330
A
100
AcDbEntity
  8
PV
  6
Continuous
 62
   254
100
AcDbLine
 10
-140.625
 20
92.50299999999999
 30
0.0
 11
-140.625
 21
92.055
 31
0.0
  0
LINE
  5
2AC
330
A
100
AcDbEntity
  8
PV
  6
Continuous
 62
   254
100
AcDbLine
 10
-140.9229999999999
 20
92.50299999999999
 30
0.0
 11
-140.9229999999999
 21
91.01
 31
0.0
  0
LINE
  5
2AD
330
A
100
AcDbEntity
  8
PV
  6
Continuous
 62
   254
100
AcDbLine
 10
-141.222
 20
92.50299999999999
 30
0.0
 11
-141.222
 21
91.01
 31
0.0
  0
LINE
  5
2AE
330
A
100
AcDbEntity
  8
PV
  6
Continuous
 62
   254
100
AcDbLine
 10
-141.222
 20
91.01
 30
0.0
 11
-140.9229999999999
 21
91.01
 31
0.0
  0
LINE
  5
2AF
330
A
100
AcDbEntity
  8
PV
  6
Continuous
 62
   254
100
AcDbLine
 10
-141.222
 20
92.50299999999999
 30
0.0
 11
-140.9229999999999
 21
92.50299999999999
 31
0.0
  0
LINE
  5
2B0
330
A
100
AcDbEntity
  8
PV
  6
Continuous
 62
   254
100
AcDbLine
 10
-137.714
 20
92.20399999999999
 30
0.0
 11
-137.043
 21
92.20399999999999
 31
0.0
  0
LINE
  5
2B1
330
A
100
AcDbEntity
  8
PV
  6
Continuous
 62
   254
100
AcDbLine
 10
-134.655
 20
91.75600000000001
 30
0.0
 11
-134.3559999999999
 21
91.75600000000001
 31
0.0
  0
LINE
  5
2B2
330
A
100
AcDbEntity
  8
PV
  6
Continuous
 62
     7
100
AcDbLine
 10
-145.492
 20
90.006
 30
0.0
 11
-114.5079999999999
 21
90.006
 31
0.0
  0
LINE
  5
2B3
330
A
100
AcDbEntity
  8
PV
  6
Continuous
 62
     7
100
AcDbLine
 10
-116.3939999999999
 20
86.409
 30
0.0
 11
-116.7289999999999
 21
86.59
 31
0.0
  0
LINE
  5
2B4
330
A
100
AcDbEntity
  8
PV
  6
Continuous
 62
     7
100
AcDbLine
 10
-116.8199999999999
 20
86.355
 30
0.0
 11
-116.49
 21
86.17299999999998
 31
0.0
  0
LINE
  5
2B5
330
A
100
AcDbEntity
  8
PV
  6
Continuous
 62
     7
100
AcDbLine
 10
-115.827
 20
87.15799999999999
 30
0.0
 11
-116.056
 21
87.016
 31
0.0
  0
LINE
  5
2B6
330
A
100
AcDbEntity
  8
PV
  6
Continuous
 62
     7
100
AcDbLine
 10
-117.432
 20
85.632
 30
0.0
 11
-117.2039999999999
 21
85.77299999999999
 31
0.0
  0
LINE
  5
2B7
330
A
100
AcDbEntity
  8
PV
  6
Continuous
 62
     7
100
AcDbLine
 10
-131.387
 20
87.39499999999999
 30
0.0
 11
-131.3429999999999
 21
87.64499999999999
 31
0.0
  0
LINE
  5
2B8
330
A
100
AcDbEntity
  8
PV
  6
Continuous
 62
     7
100
AcDbLine
 10
-131.586
 20
86.27
 30
0.0
 11
-131.542
 21
86.51999999999999
 31
0.0
  0
LINE
  5
2B9
330
A
100
AcDbEntity
  8
PV
  6
Continuous
 62
     7
100
AcDbLine
 10
-131.7839999999999
 20
85.14499999999999
 30
0.0
 11
-131.74
 21
85.395
 31
0.0
  0
LINE
  5
2BA
330
A
100
AcDbEntity
  8
PV
  6
Continuous
 62
     7
100
AcDbLine
 10
-132.461
 20
86.51999999999999
 30
0.0
 11
-132.307
 21
87.39499999999999
 31
0.0
  0
LINE
  5
2BB
330
A
100
AcDbEntity
  8
PV
  6
Continuous
 62
     7
100
AcDbLine
 10
-132.505
 20
86.27
 30
0.0
 11
-131.586
 21
86.27
 31
0.0
  0
LINE
  5
2BC
330
A
100
AcDbEntity
  8
PV
  6
Continuous
 62
     7
100
AcDbLine
 10
-132.461
 20
86.51999999999999
 30
0.0
 11
-131.542
 21
86.51999999999999
 31
0.0
  0
LINE
  5
2BD
330
A
100
AcDbEntity
  8
PV
  6
Continuous
 62
     7
100
AcDbLine
 10
-132.307
 20
87.39499999999999
 30
0.0
 11
-131.387
 21
87.39499999999999
 31
0.0
  0
LINE
  5
2BE
330
A
100
AcDbEntity
  8
PV
  6
Continuous
 62
     7
100
AcDbLine
 10
-132.5169999999999
 20
87.64499999999999
 30
0.0
 11
-131.3429999999999
 21
87.64499999999999
 31
0.0
  0
LINE
  5
2BF
330
A
100
AcDbEntity
  8
PV
  6
Continuous
 62
     7
100
AcDbLine
 10
-132.66
 20
85.395
 30
0.0
 11
-132.505
 21
86.27
 31
0.0
  0
LINE
  5
2C0
330
A
100
AcDbEntity
  8
PV
  6
Continuous
 62
     7
100
AcDbLine
 10
-132.66
 20
85.395
 30
0.0
 11
-131.74
 21
85.395
 31
0.0
  0
LINE
  5
2C1
330
A
100
AcDbEntity
  8
PV
  6
Continuous
 62
     7
100
AcDbLine
 10
-132.9579999999999
 20
85.14499999999999
 30
0.0
 11
-131.7839999999999
 21
85.14499999999999
 31
0.0
  0
LINE
  5
2C2
330
A
100
AcDbEntity
  8
PV
  6
Continuous
 62
     7
100
AcDbLine
 10
-132.9579999999999
 20
85.14499999999999
 30
0.0
 11
-132.5169999999999
 21
87.64499999999999
 31
0.0
  0
LINE
  5
2C3
330
A
100
AcDbEntity
  8
PV
  6
Continuous
 62
     7
100
AcDbLine
 10
-127.382
 20
87.64499999999999
 30
0.0
 11
-127.116
 21
87.64499999999999
 31
0.0
  0
LINE
  5
2C4
330
A
100
AcDbEntity
  8
PV
  6
Continuous
 62
     7
100
AcDbLine
 10
-128.352
 20
85.14499999999999
 30
0.0
 11
-128.026
 21
85.14499999999999
 31
0.0
  0
LINE
  5
2C5
330
A
100
AcDbEntity
  8
PV
  6
Continuous
 62
     7
100
AcDbLine
 10
-128.793
 20
87.64499999999999
 30
0.0
 11
-128.5389999999999
 21
87.64499999999999
 31
0.0
  0
LINE
  5
2C6
330
A
100
AcDbEntity
  8
PV
  6
Continuous
 62
     7
100
AcDbLine
 10
-128.026
 20
85.14499999999999
 30
0.0
 11
-127.116
 21
87.64499999999999
 31
0.0
  0
LINE
  5
2C7
330
A
100
AcDbEntity
  8
PV
  6
Continuous
 62
     7
100
AcDbLine
 10
-128.793
 20
87.64499999999999
 30
0.0
 11
-128.352
 21
85.14499999999999
 31
0.0
  0
LINE
  5
2C8
330
A
100
AcDbEntity
  8
PV
  6
Continuous
 62
     7
100
AcDbLine
 10
-128.1619999999999
 20
85.50399999999999
 30
0.0
 11
-127.382
 21
87.64499999999999
 31
0.0
  0
LINE
  5
2C9
330
A
100
AcDbEntity
  8
PV
  6
Continuous
 62
     7
100
AcDbLine
 10
-128.5389999999999
 20
87.64499999999999
 30
0.0
 11
-128.1619999999999
 21
85.50399999999999
 31
0.0
  0
LINE
  5
2CA
330
A
100
AcDbEntity
  8
PV
  6
Continuous
 62
     7
100
AcDbLine
 10
-134.8829999999999
 20
87.64499999999999
 30
0.0
 11
-134.6289999999999
 21
87.64499999999999
 31
0.0
  0
LINE
  5
2CB
330
A
100
AcDbEntity
  8
PV
  6
Continuous
 62
     7
100
AcDbLine
 10
-133.9499999999999
 20
85.14499999999999
 30
0.0
 11
-133.906
 21
85.395
 31
0.0
  0
LINE
  5
2CC
330
A
100
AcDbEntity
  8
PV
  6
Continuous
 62
     7
100
AcDbLine
 10
-135.026
 20
85.395
 30
0.0
 11
-134.6289999999999
 21
87.64499999999999
 31
0.0
  0
LINE
  5
2CD
330
A
100
AcDbEntity
  8
PV
  6
Continuous
 62
     7
100
AcDbLine
 10
-135.026
 20
85.395
 30
0.0
 11
-133.906
 21
85.395
 31
0.0
  0
LINE
  5
2CE
330
A
100
AcDbEntity
  8
PV
  6
Continuous
 62
     7
100
AcDbLine
 10
-135.3239999999999
 20
85.14499999999999
 30
0.0
 11
-133.9499999999999
 21
85.14499999999999
 31
0.0
  0
LINE
  5
2CF
330
A
100
AcDbEntity
  8
PV
  6
Continuous
 62
     7
100
AcDbLine
 10
-135.3239999999999
 20
85.14499999999999
 30
0.0
 11
-134.8829999999999
 21
87.64499999999999
 31
0.0
  0
LINE
  5
2D0
330
A
100
AcDbEntity
  8
PV
  6
Continuous
 62
     7
100
AcDbLine
 10
-142.6339999999999
 20
85.67299999999999
 30
0.0
 11
-142.4929999999999
 21
85.14499999999999
 31
0.0
  0
LINE
  5
2D1
330
A
100
AcDbEntity
  8
PV
  6
Continuous
 62
     7
100
AcDbLine
 10
-143.5579999999999
 20
85.92299999999999
 30
0.0
 11
-143.0639999999999
 21
87.27899999999999
 31
0.0
  0
LINE
  5
2D2
330
A
100
AcDbEntity
  8
PV
  6
Continuous
 62
     7
100
AcDbLine
 10
-143.5579999999999
 20
85.92299999999999
 30
0.0
 11
-142.7009999999999
 21
85.92299999999999
 31
0.0
  0
LINE
  5
2D3
330
A
100
AcDbEntity
  8
PV
  6
Continuous
 62
     7
100
AcDbLine
 10
-143.0639999999999
 20
87.27899999999999
 30
0.0
 11
-142.7009999999999
 21
85.92299999999999
 31
0.0
  0
LINE
  5
2D4
330
A
100
AcDbEntity
  8
PV
  6
Continuous
 62
     7
100
AcDbLine
 10
-143.841
 20
85.14499999999999
 30
0.0
 11
-143.649
 21
85.67299999999999
 31
0.0
  0
LINE
  5
2D5
330
A
100
AcDbEntity
  8
PV
  6
Continuous
 62
     7
100
AcDbLine
 10
-142.4929999999999
 20
85.14499999999999
 30
0.0
 11
-142.234
 21
85.14499999999999
 31
0.0
  0
LINE
  5
2D6
330
A
100
AcDbEntity
  8
PV
  6
Continuous
 62
     7
100
AcDbLine
 10
-144.107
 20
85.14499999999999
 30
0.0
 11
-143.841
 21
85.14499999999999
 31
0.0
  0
LINE
  5
2D7
330
A
100
AcDbEntity
  8
PV
  6
Continuous
 62
     7
100
AcDbLine
 10
-143.649
 20
85.67299999999999
 30
0.0
 11
-142.6339999999999
 21
85.67299999999999
 31
0.0
  0
LINE
  5
2D8
330
A
100
AcDbEntity
  8
PV
  6
Continuous
 62
     7
100
AcDbLine
 10
-142.904
 20
87.64499999999999
 30
0.0
 11
-142.234
 21
85.14499999999999
 31
0.0
  0
LINE
  5
2D9
330
A
100
AcDbEntity
  8
PV
  6
Continuous
 62
     7
100
AcDbLine
 10
-143.1969999999999
 20
87.64499999999999
 30
0.0
 11
-142.904
 21
87.64499999999999
 31
0.0
  0
LINE
  5
2DA
330
A
100
AcDbEntity
  8
PV
  6
Continuous
 62
     7
100
AcDbLine
 10
-144.107
 20
85.14499999999999
 30
0.0
 11
-143.1969999999999
 21
87.64499999999999
 31
0.0
  0
LINE
  5
2DB
330
A
100
AcDbEntity
  8
PV
  6
Continuous
 62
     7
100
AcDbLine
 10
-120.482
 20
87.64499999999999
 30
0.0
 11
-120.216
 21
87.64499999999999
 31
0.0
  0
LINE
  5
2DC
330
A
100
AcDbEntity
  8
PV
  6
Continuous
 62
     7
100
AcDbLine
 10
-121.452
 20
85.14499999999999
 30
0.0
 11
-121.126
 21
85.14499999999999
 31
0.0
  0
LINE
  5
2DD
330
A
100
AcDbEntity
  8
PV
  6
Continuous
 62
     7
100
AcDbLine
 10
-121.8929999999999
 20
87.64499999999999
 30
0.0
 11
-121.639
 21
87.64499999999999
 31
0.0
  0
LINE
  5
2DE
330
A
100
AcDbEntity
  8
PV
  6
Continuous
 62
     7
100
AcDbLine
 10
-121.126
 20
85.14499999999999
 30
0.0
 11
-120.216
 21
87.64499999999999
 31
0.0
  0
LINE
  5
2DF
330
A
100
AcDbEntity
  8
PV
  6
Continuous
 62
     7
100
AcDbLine
 10
-121.8929999999999
 20
87.64499999999999
 30
0.0
 11
-121.452
 21
85.14499999999999
 31
0.0
  0
LINE
  5
2E0
330
A
100
AcDbEntity
  8
PV
  6
Continuous
 62
     7
100
AcDbLine
 10
-121.262
 20
85.50399999999999
 30
0.0
 11
-120.482
 21
87.64499999999999
 31
0.0
  0
LINE
  5
2E1
330
A
100
AcDbEntity
  8
PV
  6
Continuous
 62
     7
100
AcDbLine
 10
-121.639
 20
87.64499999999999
 30
0.0
 11
-121.262
 21
85.50399999999999
 31
0.0
  0
LINE
  5
2E2
330
A
100
AcDbEntity
  8
PV
  6
Continuous
 62
     7
100
AcDbLine
 10
-117.987
 20
87.39499999999999
 30
0.0
 11
-117.9429999999999
 21
87.64499999999999
 31
0.0
  0
LINE
  5
2E3
330
A
100
AcDbEntity
  8
PV
  6
Continuous
 62
     7
100
AcDbLine
 10
-118.186
 20
86.27
 30
0.0
 11
-118.142
 21
86.51999999999999
 31
0.0
  0
LINE
  5
2E4
330
A
100
AcDbEntity
  8
PV
  6
Continuous
 62
     7
100
AcDbLine
 10
-118.384
 20
85.14499999999999
 30
0.0
 11
-118.3399999999999
 21
85.395
 31
0.0
  0
LINE
  5
2E5
330
A
100
AcDbEntity
  8
PV
  6
Continuous
 62
     7
100
AcDbLine
 10
-119.061
 20
86.51999999999999
 30
0.0
 11
-118.907
 21
87.39499999999999
 31
0.0
  0
LINE
  5
2E6
330
A
100
AcDbEntity
  8
PV
  6
Continuous
 62
     7
100
AcDbLine
 10
-119.105
 20
86.27
 30
0.0
 11
-118.186
 21
86.27
 31
0.0
  0
LINE
  5
2E7
330
A
100
AcDbEntity
  8
PV
  6
Continuous
 62
     7
100
AcDbLine
 10
-119.061
 20
86.51999999999999
 30
0.0
 11
-118.142
 21
86.51999999999999
 31
0.0
  0
LINE
  5
2E8
330
A
100
AcDbEntity
  8
PV
  6
Continuous
 62
     7
100
AcDbLine
 10
-118.907
 20
87.39499999999999
 30
0.0
 11
-117.987
 21
87.39499999999999
 31
0.0
  0
LINE
  5
2E9
330
A
100
AcDbEntity
  8
PV
  6
Continuous
 62
     7
100
AcDbLine
 10
-119.117
 20
87.64499999999999
 30
0.0
 11
-117.9429999999999
 21
87.64499999999999
 31
0.0
  0
LINE
  5
2EA
330
A
100
AcDbEntity
  8
PV
  6
Continuous
 62
     7
100
AcDbLine
 10
-119.26
 20
85.395
 30
0.0
 11
-119.105
 21
86.27
 31
0.0
  0
LINE
  5
2EB
330
A
100
AcDbEntity
  8
PV
  6
Continuous
 62
     7
100
AcDbLine
 10
-119.26
 20
85.395
 30
0.0
 11
-118.3399999999999
 21
85.395
 31
0.0
  0
LINE
  5
2EC
330
A
100
AcDbEntity
  8
PV
  6
Continuous
 62
     7
100
AcDbLine
 10
-119.5579999999999
 20
85.14499999999999
 30
0.0
 11
-118.384
 21
85.14499999999999
 31
0.0
  0
LINE
  5
2ED
330
A
100
AcDbEntity
  8
PV
  6
Continuous
 62
     7
100
AcDbLine
 10
-119.5579999999999
 20
85.14499999999999
 30
0.0
 11
-119.117
 21
87.64499999999999
 31
0.0
  0
LINE
  5
2EE
330
A
100
AcDbEntity
  8
PV
  6
Continuous
 62
     7
100
AcDbLine
 10
-123.5829999999999
 20
87.64499999999999
 30
0.0
 11
-123.3289999999999
 21
87.64499999999999
 31
0.0
  0
LINE
  5
2EF
330
A
100
AcDbEntity
  8
PV
  6
Continuous
 62
     7
100
AcDbLine
 10
-122.65
 20
85.14499999999999
 30
0.0
 11
-122.606
 21
85.395
 31
0.0
  0
LINE
  5
2F0
330
A
100
AcDbEntity
  8
PV
  6
Continuous
 62
     7
100
AcDbLine
 10
-123.726
 20
85.395
 30
0.0
 11
-123.3289999999999
 21
87.64499999999999
 31
0.0
  0
LINE
  5
2F1
330
A
100
AcDbEntity
  8
PV
  6
Continuous
 62
     7
100
AcDbLine
 10
-123.726
 20
85.395
 30
0.0
 11
-122.606
 21
85.395
 31
0.0
  0
LINE
  5
2F2
330
A
100
AcDbEntity
  8
PV
  6
Continuous
 62
     7
100
AcDbLine
 10
-124.024
 20
85.14499999999999
 30
0.0
 11
-122.65
 21
85.14499999999999
 31
0.0
  0
LINE
  5
2F3
330
A
100
AcDbEntity
  8
PV
  6
Continuous
 62
     7
100
AcDbLine
 10
-124.024
 20
85.14499999999999
 30
0.0
 11
-123.5829999999999
 21
87.64499999999999
 31
0.0
  0
LINE
  5
2F4
330
A
100
AcDbEntity
  8
PV
  6
Continuous
 62
     7
100
AcDbLine
 10
-136.34
 20
86.788
 30
0.0
 11
-136.1049999999999
 21
86.87299999999998
 31
0.0
  0
LINE
  5
2F5
330
A
100
AcDbEntity
  8
PV
  6
Continuous
 62
     7
100
AcDbLine
 10
-136.8779999999999
 20
86.14499999999999
 30
0.0
 11
-136.834
 21
86.39499999999999
 31
0.0
  0
LINE
  5
2F6
330
A
100
AcDbEntity
  8
PV
  6
Continuous
 62
     7
100
AcDbLine
 10
-136.8779999999999
 20
86.14499999999999
 30
0.0
 11
-136.328
 21
86.14499999999999
 31
0.0
  0
LINE
  5
2F7
330
A
100
AcDbEntity
  8
PV
  6
Continuous
 62
     7
100
AcDbLine
 10
-136.834
 20
86.39499999999999
 30
0.0
 11
-136.0389999999999
 21
86.39499999999999
 31
0.0
  0
LINE
  5
2F8
330
A
100
AcDbEntity
  8
PV
  6
Continuous
 62
     7
100
AcDbLine
 10
-139.734
 20
85.58799999999999
 30
0.0
 11
-139.372
 21
87.64499999999999
 31
0.0
  0
LINE
  5
2F9
330
A
100
AcDbEntity
  8
PV
  6
Continuous
 62
     7
100
AcDbLine
 10
-139.816
 20
85.14499999999999
 30
0.0
 11
-140.6709999999999
 21
87.13600000000001
 31
0.0
  0
LINE
  5
2FA
330
A
100
AcDbEntity
  8
PV
  6
Continuous
 62
     7
100
AcDbLine
 10
-141.022
 20
85.14499999999999
 30
0.0
 11
-140.6709999999999
 21
87.13600000000001
 31
0.0
  0
LINE
  5
2FB
330
A
100
AcDbEntity
  8
PV
  6
Continuous
 62
     7
100
AcDbLine
 10
-125.234
 20
85.67299999999999
 30
0.0
 11
-125.0929999999999
 21
85.14499999999999
 31
0.0
  0
LINE
  5
2FC
330
A
100
AcDbEntity
  8
PV
  6
Continuous
 62
     7
100
AcDbLine
 10
-126.1579999999999
 20
85.92299999999999
 30
0.0
 11
-125.6639999999999
 21
87.27899999999999
 31
0.0
  0
LINE
  5
2FD
330
A
100
AcDbEntity
  8
PV
  6
Continuous
 62
     7
100
AcDbLine
 10
-126.1579999999999
 20
85.92299999999999
 30
0.0
 11
-125.3009999999999
 21
85.92299999999999
 31
0.0
  0
LINE
  5
2FE
330
A
100
AcDbEntity
  8
PV
  6
Continuous
 62
     7
100
AcDbLine
 10
-125.6639999999999
 20
87.27899999999999
 30
0.0
 11
-125.3009999999999
 21
85.92299999999999
 31
0.0
  0
LINE
  5
2FF
330
A
100
AcDbEntity
  8
PV
  6
Continuous
 62
     7
100
AcDbLine
 10
-126.441
 20
85.14499999999999
 30
0.0
 11
-126.2489999999999
 21
85.67299999999999
 31
0.0
  0
LINE
  5
300
330
A
100
AcDbEntity
  8
PV
  6
Continuous
 62
     7
100
AcDbLine
 10
-139.734
 20
85.58799999999999
 30
0.0
 11
-140.617
 21
87.64499999999999
 31
0.0
  0
LINE
  5
301
330
A
100
AcDbEntity
  8
PV
  6
Continuous
 62
     7
100
AcDbLine
 10
-139.372
 20
87.64499999999999
 30
0.0
 11
-139.118
 21
87.64499999999999
 31
0.0
  0
LINE
  5
302
330
A
100
AcDbEntity
  8
PV
  6
Continuous
 62
     7
100
AcDbLine
 10
-139.816
 20
85.14499999999999
 30
0.0
 11
-139.558
 21
85.14499999999999
 31
0.0
  0
LINE
  5
303
330
A
100
AcDbEntity
  8
PV
  6
Continuous
 62
     7
100
AcDbLine
 10
-139.558
 20
85.14499999999999
 30
0.0
 11
-139.118
 21
87.64499999999999
 31
0.0
  0
LINE
  5
304
330
A
100
AcDbEntity
  8
PV
  6
Continuous
 62
     7
100
AcDbLine
 10
-141.276
 20
85.14499999999999
 30
0.0
 11
-141.022
 21
85.14499999999999
 31
0.0
  0
LINE
  5
305
330
A
100
AcDbEntity
  8
PV
  6
Continuous
 62
     7
100
AcDbLine
 10
-140.835
 20
87.64499999999999
 30
0.0
 11
-140.617
 21
87.64499999999999
 31
0.0
  0
LINE
  5
306
330
A
100
AcDbEntity
  8
PV
  6
Continuous
 62
     7
100
AcDbLine
 10
-141.276
 20
85.14499999999999
 30
0.0
 11
-140.835
 21
87.64499999999999
 31
0.0
  0
LINE
  5
307
330
A
100
AcDbEntity
  8
PV
  6
Continuous
 62
     7
100
AcDbLine
 10
-125.0929999999999
 20
85.14499999999999
 30
0.0
 11
-124.834
 21
85.14499999999999
 31
0.0
  0
LINE
  5
308
330
A
100
AcDbEntity
  8
PV
  6
Continuous
 62
     7
100
AcDbLine
 10
-126.707
 20
85.14499999999999
 30
0.0
 11
-126.441
 21
85.14499999999999
 31
0.0
  0
LINE
  5
309
330
A
100
AcDbEntity
  8
PV
  6
Continuous
 62
     7
100
AcDbLine
 10
-126.2489999999999
 20
85.67299999999999
 30
0.0
 11
-125.234
 21
85.67299999999999
 31
0.0
  0
LINE
  5
30A
330
A
100
AcDbEntity
  8
PV
  6
Continuous
 62
     7
100
AcDbLine
 10
-125.5039999999999
 20
87.64499999999999
 30
0.0
 11
-124.834
 21
85.14499999999999
 31
0.0
  0
LINE
  5
30B
330
A
100
AcDbEntity
  8
PV
  6
Continuous
 62
     7
100
AcDbLine
 10
-125.797
 20
87.64499999999999
 30
0.0
 11
-125.5039999999999
 21
87.64499999999999
 31
0.0
  0
LINE
  5
30C
330
A
100
AcDbEntity
  8
PV
  6
Continuous
 62
     7
100
AcDbLine
 10
-126.707
 20
85.14499999999999
 30
0.0
 11
-125.797
 21
87.64499999999999
 31
0.0
  0
POINT
  5
30D
330
A
100
AcDbEntity
  8
PV
  6
Continuous
 62
     7
100
AcDbPoint
 10
-135.616
 20
69.69599999999999
 30
0.0
  0
POINT
  5
30E
330
A
100
AcDbEntity
  8
PV
  6
Continuous
 62
     7
100
AcDbPoint
 10
-125.5349999999999
 20
69.344
 30
0.0
  0
POINT
  5
30F
330
A
100
AcDbEntity
  8
PV
  6
Continuous
 62
     7
100
AcDbPoint
 10
-130.0
 20
66.506
 30
0.0
  0
LWPOLYLINE
  5
310
330
A
100
AcDbEntity
  8
PV
  6
Continuous
 62
     7
100
AcDbPolyline
 90
       73
 70
     0
 43
0.0
 10
-114.3909999999999
 20
0.0
 10
-114.389
 20
-0.218
 10
-114.3809999999999
 20
-0.4360000000000001
 10
-114.37
 20
-0.6530000000000001
 10
-114.3529999999999
 20
-0.8679999999999999
 10
-114.332
 20
-1.082
 10
-114.3059999999999
 20
-1.294
 10
-114.275
 20
-1.504
 10
-114.24
 20
-1.709999999999999
 10
-114.201
 20
-1.913
 10
-114.157
 20
-2.112999999999999
 10
-114.1079999999999
 20
-2.309
 10
-114.056
 20
-2.5
 10
-113.999
 20
-2.686
 10
-113.9389999999999
 20
-2.868
 10
-113.874
 20
-3.043999999999999
 10
-113.806
 20
-3.213999999999999
 10
-113.734
 20
-3.378
 10
-113.6589999999999
 20
-3.536
 10
-113.5799999999999
 20
-3.686
 10
-113.4979999999999
 20
-3.83
 10
-113.413
 20
-3.967
 10
-113.325
 20
-4.096
 10
-113.2339999999999
 20
-4.216999999999999
 10
-113.141
 20
-4.33
 10
-113.0449999999999
 20
-4.434999999999999
 10
-112.9469999999999
 20
-4.532
 10
-112.8479999999999
 20
-4.618999999999999
 10
-112.746
 20
-4.698
 10
-112.6429999999999
 20
-4.769
 10
-112.538
 20
-4.83
 10
-112.4319999999999
 20
-4.881
 10
-112.325
 20
-4.923999999999999
 10
-112.217
 20
-4.956999999999999
 10
-112.1089999999999
 20
-4.980999999999999
 10
-112.0
 20
-4.995
 10
-111.891
 20
-5.0
 10
-111.782
 20
-4.995
 10
-111.673
 20
-4.980999999999999
 10
-111.565
 20
-4.956999999999999
 10
-111.457
 20
-4.923999999999999
 10
-111.3499999999999
 20
-4.881
 10
-111.244
 20
-4.83
 10
-111.1389999999999
 20
-4.769
 10
-111.036
 20
-4.698
 10
-110.9339999999999
 20
-4.618999999999999
 10
-110.834
 20
-4.532
 10
-110.737
 20
-4.434999999999999
 10
-110.641
 20
-4.33
 10
-110.5479999999999
 20
-4.216999999999999
 10
-110.457
 20
-4.096
 10
-110.369
 20
-3.967
 10
-110.284
 20
-3.83
 10
-110.202
 20
-3.686
 10
-110.1229999999999
 20
-3.536
 10
-110.0479999999999
 20
-3.378
 10
-109.976
 20
-3.213999999999999
 10
-109.9079999999999
 20
-3.043999999999999
 10
-109.843
 20
-2.868
 10
-109.782
 20
-2.686
 10
-109.726
 20
-2.5
 10
-109.6729999999999
 20
-2.309
 10
-109.6249999999999
 20
-2.112999999999999
 10
-109.5809999999999
 20
-1.913
 10
-109.542
 20
-1.709999999999999
 10
-109.5069999999999
 20
-1.504
 10
-109.4759999999999
 20
-1.294
 10
-109.45
 20
-1.082
 10
-109.4289999999999
 20
-0.8679999999999999
 10
-109.4119999999999
 20
-0.6530000000000001
 10
-109.4
 20
-0.4360000000000001
 10
-109.3929999999999
 20
-0.218
 10
-109.391
 20
0.0
  0
LWPOLYLINE
  5
311
330
A
100
AcDbEntity
  8
PV
  6
Continuous
 62
     7
100
AcDbPolyline
 90
       73
 70
     0
 43
0.0
 10
-150.609
 20
0.0
 10
-150.607
 20
-0.218
 10
-150.6
 20
-0.4360000000000001
 10
-150.5879999999999
 20
-0.6530000000000001
 10
-150.571
 20
-0.8679999999999999
 10
-150.55
 20
-1.082
 10
-150.524
 20
-1.294
 10
-150.4929999999999
 20
-1.504
 10
-150.4579999999999
 20
-1.709999999999999
 10
-150.4189999999999
 20
-1.913
 10
-150.375
 20
-2.112999999999999
 10
-150.327
 20
-2.309
 10
-150.274
 20
-2.5
 10
-150.2179999999999
 20
-2.686
 10
-150.157
 20
-2.868
 10
-150.092
 20
-3.043999999999999
 10
-150.0239999999999
 20
-3.213999999999999
 10
-149.9519999999999
 20
-3.378
 10
-149.877
 20
-3.536
 10
-149.798
 20
-3.686
 10
-149.716
 20
-3.83
 10
-149.631
 20
-3.967
 10
-149.5429999999999
 20
-4.096
 10
-149.452
 20
-4.216999999999999
 10
-149.359
 20
-4.33
 10
-149.263
 20
-4.434999999999999
 10
-149.1659999999999
 20
-4.532
 10
-149.066
 20
-4.618999999999999
 10
-148.964
 20
-4.698
 10
-148.8609999999999
 20
-4.769
 10
-148.756
 20
-4.83
 10
-148.65
 20
-4.881
 10
-148.543
 20
-4.923999999999999
 10
-148.435
 20
-4.956999999999999
 10
-148.327
 20
-4.980999999999999
 10
-148.2179999999999
 20
-4.995
 10
-148.109
 20
-5.0
 10
-148.0
 20
-4.995
 10
-147.8909999999999
 20
-4.980999999999999
 10
-147.7829999999999
 20
-4.956999999999999
 10
-147.675
 20
-4.923999999999999
 10
-147.5679999999999
 20
-4.881
 10
-147.462
 20
-4.83
 10
-147.357
 20
-4.769
 10
-147.2539999999999
 20
-4.698
 10
-147.152
 20
-4.618999999999999
 10
-147.052
 20
-4.532
 10
-146.955
 20
-4.434999999999999
 10
-146.859
 20
-4.33
 10
-146.7659999999999
 20
-4.216999999999999
 10
-146.675
 20
-4.096
 10
-146.587
 20
-3.967
 10
-146.502
 20
-3.83
 10
-146.4199999999999
 20
-3.686
 10
-146.341
 20
-3.536
 10
-146.2659999999999
 20
-3.378
 10
-146.194
 20
-3.213999999999999
 10
-146.126
 20
-3.043999999999999
 10
-146.061
 20
-2.868
 10
-146.001
 20
-2.686
 10
-145.9439999999999
 20
-2.5
 10
-145.8919999999999
 20
-2.309
 10
-145.8429999999999
 20
-2.112999999999999
 10
-145.799
 20
-1.913
 10
-145.76
 20
-1.709999999999999
 10
-145.7249999999999
 20
-1.504
 10
-145.6939999999999
 20
-1.294
 10
-145.668
 20
-1.082
 10
-145.647
 20
-0.8679999999999999
 10
-145.6299999999999
 20
-0.6530000000000001
 10
-145.619
 20
-0.4360000000000001
 10
-145.6109999999999
 20
-0.218
 10
-145.609
 20
0.0
  0
ARC
  5
312
330
A
100
AcDbEntity
  8
PV
  6
Continuous
 62
     7
100
AcDbCircle
 10
-111.402
 20
8.0
 30
0.0
 40
2.0
100
AcDbArc
 50
2.862404999999999
 51
90.00000300000001
  0
ARC
  5
313
330
A
100
AcDbEntity
  8
PV
  6
Continuous
 62
     7
100
AcDbCircle
 10
-112.5
 20
10.0
 30
0.0
 40
1.0
100
AcDbArc
 50
0.0
 51
90.00000300000001
  0
ARC
  5
314
330
A
100
AcDbEntity
  8
PV
  6
Continuous
 62
     7
100
AcDbCircle
 10
-147.5
 20
10.0
 30
0.0
 40
1.0
100
AcDbArc
 50
90.00000300000001
 51
180.000005
  0
ARC
  5
315
330
A
100
AcDbEntity
  8
PV
  6
Continuous
 62
     7
100
AcDbCircle
 10
-148.597
 20
8.0
 30
0.0
 40
2.0
100
AcDbArc
 50
90.00000300000001
 51
177.137596
  0
ARC
  5
316
330
A
100
AcDbEntity
  8
PV
  6
Continuous
 62
     7
100
AcDbCircle
 10
-107.0
 20
-19.0
 30
0.0
 40
3.0
100
AcDbArc
 50
180.000009
 51
269.9999969999999
  0
ARC
  5
317
330
A
100
AcDbEntity
  8
PV
  6
Continuous
 62
     7
100
AcDbCircle
 10
-153.0
 20
-19.0
 30
0.0
 40
3.0
100
AcDbArc
 50
269.9999969999999
 51
0.0
  0
ARC
  5
318
330
A
100
AcDbEntity
  8
PV
  6
Continuous
 62
     7
100
AcDbCircle
 10
-178.1509999999999
 20
-56.5
 30
0.0
 40
1.5
100
AcDbArc
 50
15.00001099999999
 51
89.999962
  0
ARC
  5
31A
330
A
100
AcDbEntity
  8
PV
  6
PHANTOM
 62
     7
100
AcDbCircle
 10
-112.5
 20
18.0
 30
0.0
 40
1.0
100
AcDbArc
 50
0.0
 51
90.00000300000001
  0
ARC
  5
31B
330
A
100
AcDbEntity
  8
PV
  6
PHANTOM
 62
     7
100
AcDbCircle
 10
-147.5
 20
18.0
 30
0.0
 40
1.0
100
AcDbArc
 50
90.00000300000001
 51
180.000005
  0
ARC
  5
31C
330
A
100
AcDbEntity
  8
PV
  6
Continuous
 62
     7
100
AcDbCircle
 10
-130.0
 20
0.0
 30
0.0
 40
5.0
100
AcDbArc
 50
269.9999969999999
 51
0.0
  0
ARC
  5
31D
330
A
100
AcDbEntity
  8
PV
  6
Continuous
 62
     7
100
AcDbCircle
 10
-130.0
 20
0.0
 30
0.0
 40
5.0
100
AcDbArc
 50
179.9999909999999
 51
270.000001
  0
ARC
  5
31E
330
A
100
AcDbEntity
  8
PV
  6
PHANTOM
 62
     7
100
AcDbCircle
 10
-111.402
 20
16.0
 30
0.0
 40
2.0
100
AcDbArc
 50
2.862404999999999
 51
90.00000300000001
  0
ARC
  5
31F
330
A
100
AcDbEntity
  8
PV
  6
PHANTOM
 62
     7
100
AcDbCircle
 10
-148.597
 20
16.0
 30
0.0
 40
2.0
100
AcDbArc
 50
90.00000300000001
 51
177.137596
  0
ARC
  5
320
330
A
100
AcDbEntity
  8
PV
  6
Continuous
 62
     7
100
AcDbCircle
 10
-180.902
 20
-75.0
 30
0.0
 40
27.5
100
AcDbArc
 50
330.3601959999999
 51
29.639801
  0
ARC
  5
321
330
A
100
AcDbEntity
  8
PV
  6
Continuous
 62
     7
100
AcDbCircle
 10
-148.5
 20
-123.151
 30
0.0
 40
1.5
100
AcDbArc
 50
105.000006
 51
179.999937
  0
ARC
  5
322
330
A
100
AcDbEntity
  8
PV
  6
Continuous
 62
     7
100
AcDbCircle
 10
-111.4999999999999
 20
-123.151
 30
0.0
 40
1.5
100
AcDbArc
 50
359.999986
 51
74.999944
  0
ARC
  5
323
330
A
100
AcDbEntity
  8
PV
  6
Continuous
 62
     7
100
AcDbCircle
 10
-178.1509999999999
 20
-93.49999999999999
 30
0.0
 40
1.5
100
AcDbArc
 50
270.0000179999999
 51
344.999976
  0
ARC
  5
324
330
A
100
AcDbEntity
  8
PV
  6
Continuous
 62
     7
100
AcDbCircle
 10
-130.0
 20
83.00600000000001
 30
0.0
 40
38.0
100
AcDbArc
 50
39.07551199999999
 51
50.924501
  0
ARC
  5
325
330
A
100
AcDbEntity
  8
PV
  6
Continuous
 62
     7
100
AcDbCircle
 10
-130.0
 20
83.00600000000001
 30
0.0
 40
38.0
100
AcDbArc
 50
219.0755349999999
 51
230.9244779999999
  0
CIRCLE
  5
326
330
A
100
AcDbEntity
  8
PV
  6
Continuous
 62
     7
100
AcDbCircle
 10
-107.4999999999999
 20
105.506
 30
0.0
 40
5.5
  0
CIRCLE
  5
327
330
A
100
AcDbEntity
  8
PV
  6
Continuous
 62
     7
100
AcDbCircle
 10
-152.5
 20
105.506
 30
0.0
 40
5.5
  0
CIRCLE
  5
328
330
A
100
AcDbEntity
  8
PV
  6
Continuous
 62
     7
100
AcDbCircle
 10
-152.5
 20
60.506
 30
0.0
 40
5.5
  0
CIRCLE
  5
329
330
A
100
AcDbEntity
  8
PV
  6
Continuous
 62
     7
100
AcDbCircle
 10
-107.4999999999999
 20
60.506
 30
0.0
 40
5.5
  0
ARC
  5
32A
330
A
100
AcDbEntity
  8
PV
  6
Continuous
 62
     7
100
AcDbCircle
 10
-130.0
 20
83.00600000000001
 30
0.0
 40
38.0
100
AcDbArc
 50
309.075517
 51
320.9244879999999
  0
ARC
  5
32B
330
A
100
AcDbEntity
  8
PV
  6
Continuous
 62
     7
100
AcDbCircle
 10
-130.0
 20
83.00600000000001
 30
0.0
 40
38.0
100
AcDbArc
 50
129.075494
 51
140.9244649999999
  0
CIRCLE
  5
32D
330
A
100
AcDbEntity
  8
PV
  6
DASHED
 62
     7
100
AcDbCircle
 10
-130.0
 20
83.00600000000001
 30
0.0
 40
7.0
  0
CIRCLE
  5
32E
330
A
100
AcDbEntity
  8
PV
  6
DASHED
 62
     7
100
AcDbCircle
 10
-130.0
 20
83.00600000000001
 30
0.0
 40
4.0
  0
ARC
  5
32F
330
A
100
AcDbEntity
  8
PV
  6
Continuous
 62
     7
100
AcDbCircle
 10
-178.1509999999999
 20
64.506
 30
0.0
 40
1.5
100
AcDbArc
 50
270.0000379999999
 51
344.999989
  0
ARC
  5
330
330
A
100
AcDbEntity
  8
PV
  6
Continuous
 62
     7
100
AcDbCircle
 10
-178.1509999999999
 20
101.506
 30
0.0
 40
1.5
100
AcDbArc
 50
15.00001099999999
 51
89.999962
  0
CIRCLE
  5
331
330
A
100
AcDbEntity
  8
PV
  6
Continuous
 62
     7
100
AcDbCircle
 10
-130.0
 20
83.00600000000001
 30
0.0
 40
23.0
  0
ARC
  5
332
330
A
100
AcDbEntity
  8
PV
  6
Continuous
 62
     7
100
AcDbCircle
 10
-130.0
 20
83.00600000000001
 30
0.0
 40
20.5
100
AcDbArc
 50
344.116981
 51
15.883019
  0
ARC
  5
333
330
A
100
AcDbEntity
  8
PV
  6
Continuous
 62
     7
100
AcDbCircle
 10
-130.0
 20
83.00600000000001
 30
0.0
 40
20.5
100
AcDbArc
 50
44.11698100000001
 51
75.88301899999999
  0
ARC
  5
334
330
A
100
AcDbEntity
  8
PV
  6
Continuous
 62
     7
100
AcDbCircle
 10
-130.0
 20
83.00600000000001
 30
0.0
 40
20.5
100
AcDbArc
 50
104.116979
 51
135.8830209999999
  0
ARC
  5
335
330
A
100
AcDbEntity
  8
PV
  6
Continuous
 62
     7
100
AcDbCircle
 10
-130.0
 20
83.00600000000001
 30
0.0
 40
20.5
100
AcDbArc
 50
164.116974
 51
195.883023
  0
ARC
  5
336
330
A
100
AcDbEntity
  8
PV
  6
Continuous
 62
     7
100
AcDbCircle
 10
-130.0
 20
83.00600000000001
 30
0.0
 40
20.5
100
AcDbArc
 50
224.0778689999999
 51
255.8830209999999
  0
ARC
  5
337
330
A
100
AcDbEntity
  8
PV
  6
Continuous
 62
     7
100
AcDbCircle
 10
-149.57
 20
89.10899999999999
 30
0.0
 40
0.5
100
AcDbArc
 50
239.999997
 51
329.9999989999999
  0
ARC
  5
338
330
A
100
AcDbEntity
  8
PV
  6
Continuous
 62
     7
100
AcDbCircle
 10
-145.0699999999999
 20
96.904
 30
0.0
 40
0.5
100
AcDbArc
 50
329.9999989999999
 51
60.000002
  0
ARC
  5
339
330
A
100
AcDbEntity
  8
PV
  6
Continuous
 62
     7
100
AcDbCircle
 10
-134.4999999999999
 20
103.0059999999999
 30
0.0
 40
0.5
100
AcDbArc
 50
179.9999909999999
 51
270.000001
  0
ARC
  5
33A
330
A
100
AcDbEntity
  8
PV
  6
Continuous
 62
     7
100
AcDbCircle
 10
-125.5
 20
103.0059999999999
 30
0.0
 40
0.5
100
AcDbArc
 50
269.9999969999999
 51
0.0
  0
ARC
  5
33B
330
A
100
AcDbEntity
  8
PV
  6
Continuous
 62
     7
100
AcDbCircle
 10
-114.929
 20
96.904
 30
0.0
 40
0.5
100
AcDbArc
 50
120.0000029999999
 51
209.999999
  0
ARC
  5
33C
330
A
100
AcDbEntity
  8
PV
  6
Continuous
 62
     7
100
AcDbCircle
 10
-110.4289999999999
 20
89.10899999999999
 30
0.0
 40
0.5
100
AcDbArc
 50
210.0000029999999
 51
299.999998
  0
ARC
  5
33D
330
A
100
AcDbEntity
  8
PV
  6
Continuous
 62
     7
100
AcDbCircle
 10
-110.4289999999999
 20
76.904
 30
0.0
 40
0.5
100
AcDbArc
 50
60.000002
 51
149.999997
  0
ARC
  5
33E
330
A
100
AcDbEntity
  8
PV
  6
Continuous
 62
     7
100
AcDbCircle
 10
-114.929
 20
69.10899999999999
 30
0.0
 40
0.5
100
AcDbArc
 50
149.999997
 51
240.0000069999999
  0
ARC
  5
33F
330
A
100
AcDbEntity
  8
PV
  6
Continuous
 62
     7
100
AcDbCircle
 10
-125.5
 20
63.006
 30
0.0
 40
0.5
100
AcDbArc
 50
0.0
 51
90.00000300000001
  0
ARC
  5
340
330
A
100
AcDbEntity
  8
PV
  6
Continuous
 62
     7
100
AcDbCircle
 10
-134.4999999999999
 20
63.006
 30
0.0
 40
0.5
100
AcDbArc
 50
90.00000300000001
 51
180.000005
  0
ARC
  5
341
330
A
100
AcDbEntity
  8
PV
  6
Continuous
 62
     7
100
AcDbCircle
 10
-145.0699999999999
 20
69.10899999999999
 30
0.0
 40
0.5
100
AcDbArc
 50
299.999998
 51
30.000001
  0
ARC
  5
342
330
A
100
AcDbEntity
  8
PV
  6
Continuous
 62
     7
100
AcDbCircle
 10
-149.57
 20
76.904
 30
0.0
 40
0.5
100
AcDbArc
 50
30.000001
 51
120.0000029999999
  0
ARC
  5
343
330
A
100
AcDbEntity
  8
PV
  6
Continuous
 62
     7
100
AcDbCircle
 10
-130.0
 20
83.00600000000001
 30
0.0
 40
20.5
100
AcDbArc
 50
284.116981
 51
315.9221259999999
  0
CIRCLE
  5
344
330
A
100
AcDbEntity
  8
PV
  6
Continuous
 62
     7
100
AcDbCircle
 10
-130.0
 20
83.00600000000001
 30
0.0
 40
21.49999999999999
  0
LINE
  5
345
330
A
100
AcDbEntity
  8
PV
  6
Continuous
 62
     7
100
AcDbLine
 10
-100.5
 20
-32.0
 30
0.0
 11
-100.5
 21
-43.0
 31
0.0
  0
LINE
  5
346
330
A
100
AcDbEntity
  8
PV
  6
Continuous
 62
     7
100
AcDbLine
 10
-159.4999999999999
 20
-32.0
 30
0.0
 11
-159.4999999999999
 21
-43.0
 31
0.0
  0
LINE
  5
347
330
A
100
AcDbEntity
  8
PV
  6
Continuous
 62
     7
100
AcDbLine
 10
-103.0789999999999
 20
-97.5
 30
0.0
 11
-156.929
 21
-97.5
 31
0.0
  0
LINE
  5
348
330
A
100
AcDbEntity
  8
PV
  6
Continuous
 62
     7
100
AcDbLine
 10
-103.0
 20
-97.5
 30
0.0
 11
-105.0
 21
-99.50000000000001
 31
0.0
  0
LINE
  5
349
330
A
100
AcDbEntity
  8
PV
  6
Continuous
 62
     7
100
AcDbLine
 10
-157.0
 20
-97.5
 30
0.0
 11
-155.0
 21
-99.50000000000001
 31
0.0
  0
LINE
  5
34A
330
A
100
AcDbEntity
  8
PV
  6
Continuous
 62
     7
100
AcDbLine
 10
-101.5
 20
-22.0
 30
0.0
 11
-100.5
 21
-23.0
 31
0.0
  0
LINE
  5
34B
330
A
100
AcDbEntity
  8
PV
  6
Continuous
 62
     7
100
AcDbLine
 10
-158.4999999999999
 20
-22.0
 30
0.0
 11
-159.4999999999999
 21
-23.0
 31
0.0
  0
LINE
  5
34D
330
A
100
AcDbEntity
  8
PV
  6
CENTER
 62
     7
100
AcDbLine
 10
-107.4999999999999
 20
-20.394
 30
0.0
 11
-107.4999999999999
 21
-44.66199999999999
 31
0.0
  0
LINE
  5
34E
330
A
100
AcDbEntity
  8
PV
  6
CENTER
 62
     7
100
AcDbLine
 10
-152.5
 20
-20.394
 30
0.0
 11
-152.5
 21
-44.66199999999999
 31
0.0
  0
LINE
  5
34F
330
A
100
AcDbEntity
  8
PV
  6
Continuous
 62
     7
100
AcDbLine
 10
-157.0
 20
-88.59999999999999
 30
0.0
 11
-157.0
 21
-97.5
 31
0.0
  0
LINE
  5
350
330
A
100
AcDbEntity
  8
PV
  6
Continuous
 62
     7
100
AcDbLine
 10
-106.0
 20
-32.0
 30
0.0
 11
-106.0
 21
-22.0
 31
0.0
  0
LINE
  5
351
330
A
100
AcDbEntity
  8
PV
  6
Continuous
 62
     7
100
AcDbLine
 10
-154.0
 20
-32.0
 30
0.0
 11
-154.0
 21
-22.0
 31
0.0
  0
LINE
  5
352
330
A
100
AcDbEntity
  8
PV
  6
Continuous
 62
     7
100
AcDbLine
 10
-106.0
 20
-32.0
 30
0.0
 11
-106.0
 21
-43.0
 31
0.0
  0
LINE
  5
353
330
A
100
AcDbEntity
  8
PV
  6
Continuous
 62
     7
100
AcDbLine
 10
-154.0
 20
-32.0
 30
0.0
 11
-154.0
 21
-43.0
 31
0.0
  0
LINE
  5
354
330
A
100
AcDbEntity
  8
PV
  6
Continuous
 62
     7
100
AcDbLine
 10
-159.4999999999999
 20
-43.0
 30
0.0
 11
-100.5
 21
-43.0
 31
0.0
  0
LINE
  5
355
330
A
100
AcDbEntity
  8
PV
  6
Continuous
 62
     7
100
AcDbLine
 10
-159.4999999999999
 20
-32.0
 30
0.0
 11
-100.5
 21
-32.0
 31
0.0
  0
LINE
  5
356
330
A
100
AcDbEntity
  8
PV
  6
Continuous
 62
     7
100
AcDbLine
 10
-109.4049999999999
 20
8.099999999999999
 30
0.0
 11
-108.4999999999999
 21
-10.0
 31
0.0
  0
LINE
  5
357
330
A
100
AcDbEntity
  8
PV
  6
Continuous
 62
     7
100
AcDbLine
 10
-147.5
 20
11.0
 30
0.0
 11
-112.5
 21
11.0
 31
0.0
  0
LINE
  5
358
330
A
100
AcDbEntity
  8
PV
  6
Continuous
 62
     7
100
AcDbLine
 10
-148.597
 20
10.0
 30
0.0
 11
-111.402
 21
10.0
 31
0.0
  0
LINE
  5
359
330
A
100
AcDbEntity
  8
PV
  6
Continuous
 62
     7
100
AcDbLine
 10
-151.5
 20
-10.0
 30
0.0
 11
-150.595
 21
8.099999999999999
 31
0.0
  0
LINE
  5
35A
330
A
100
AcDbEntity
  8
PV
  6
Continuous
 62
     7
100
AcDbLine
 10
-151.5
 20
-10.0
 30
0.0
 11
-108.4999999999999
 21
-10.0
 31
0.0
  0
LINE
  5
35B
330
A
100
AcDbEntity
  8
PV
  6
Continuous
 62
     7
100
AcDbLine
 10
-150.0
 20
-19.0
 30
0.0
 11
-110.0
 21
-19.0
 31
0.0
  0
LINE
  5
35C
330
A
100
AcDbEntity
  8
PV
  6
Continuous
 62
     7
100
AcDbLine
 10
-180.0
 20
-95.0
 30
0.0
 11
-180.0
 21
-55.0
 31
0.0
  0
LINE
  5
35D
330
A
100
AcDbEntity
  8
PV
  6
Continuous
 62
     7
100
AcDbLine
 10
-175.285
 20
-88.59999999999999
 30
0.0
 11
-175.285
 21
-61.4
 31
0.0
  0
LINE
  5
35E
330
A
100
AcDbEntity
  8
PV
  6
Continuous
 62
     7
100
AcDbLine
 10
-177.0
 20
-94.46200000000001
 30
0.0
 11
-177.0
 21
-55.538
 31
0.0
  0
LINE
  5
35F
330
A
100
AcDbEntity
  8
PV
  6
Continuous
 62
     7
100
AcDbLine
 10
-176.702
 20
-56.112
 30
0.0
 11
-175.285
 21
-61.4
 31
0.0
  0
LINE
  5
360
330
A
100
AcDbEntity
  8
PV
  6
Continuous
 62
     7
100
AcDbLine
 10
-175.285
 20
-61.4
 30
0.0
 11
-157.0
 21
-61.4
 31
0.0
  0
LINE
  5
361
330
A
100
AcDbEntity
  8
PV
  6
Continuous
 62
     7
100
AcDbLine
 10
-180.0
 20
-55.0
 30
0.0
 11
-178.1509999999999
 21
-55.0
 31
0.0
  0
LINE
  5
362
330
A
100
AcDbEntity
  8
PV
  6
Continuous
 62
     7
100
AcDbLine
 10
-114.3909999999999
 20
10.0
 30
0.0
 11
-114.3909999999999
 21
0.0
 31
0.0
  0
LINE
  5
363
330
A
100
AcDbEntity
  8
PV
  6
Continuous
 62
     7
100
AcDbLine
 10
-109.391
 20
7.818999999999999
 30
0.0
 11
-109.391
 21
0.0
 31
0.0
  0
LINE
  5
364
330
A
100
AcDbEntity
  8
PV
  6
Continuous
 62
     7
100
AcDbLine
 10
-110.391
 20
9.724999999999999
 30
0.0
 11
-110.391
 21
0.0
 31
0.0
  0
LINE
  5
365
330
A
100
AcDbEntity
  8
PV
  6
Continuous
 62
     7
100
AcDbLine
 10
-111.377
 20
-3.651999999999999
 30
0.0
 11
-112.4149999999999
 21
-4.888999999999999
 31
0.0
  0
LINE
  5
366
330
A
100
AcDbEntity
  8
PV
  6
Continuous
 62
     7
100
AcDbLine
 10
-148.6229999999999
 20
-3.651999999999999
 30
0.0
 11
-147.585
 21
-4.888999999999999
 31
0.0
  0
LINE
  5
367
330
A
100
AcDbEntity
  8
PV
  6
Continuous
 62
     7
100
AcDbLine
 10
-149.609
 20
9.724999999999999
 30
0.0
 11
-149.609
 21
0.0
 31
0.0
  0
LINE
  5
368
330
A
100
AcDbEntity
  8
PV
  6
Continuous
 62
     7
100
AcDbLine
 10
-150.609
 20
7.818999999999999
 30
0.0
 11
-150.609
 21
0.0
 31
0.0
  0
LINE
  5
369
330
A
100
AcDbEntity
  8
PV
  6
Continuous
 62
     7
100
AcDbLine
 10
-145.609
 20
10.0
 30
0.0
 11
-145.609
 21
0.0
 31
0.0
  0
LINE
  5
36A
330
A
100
AcDbEntity
  8
PV
  6
DASHED
 62
     7
100
AcDbLine
 10
-146.0
 20
10.7
 30
0.0
 11
-114.0
 21
10.7
 31
0.0
  0
LINE
  5
36B
330
A
100
AcDbEntity
  8
PV
  6
DASHED
 62
     7
100
AcDbLine
 10
-146.0
 20
11.0
 30
0.0
 11
-146.0
 21
10.7
 31
0.0
  0
LINE
  5
36C
330
A
100
AcDbEntity
  8
PV
  6
DASHED
 62
     7
100
AcDbLine
 10
-114.0
 20
11.0
 30
0.0
 11
-114.0
 21
10.7
 31
0.0
  0
LINE
  5
36D
330
A
100
AcDbEntity
  8
PV
  6
PHANTOM
 62
     7
100
AcDbLine
 10
-147.5
 20
19.0
 30
0.0
 11
-112.5
 21
19.0
 31
0.0
  0
LINE
  5
36E
330
A
100
AcDbEntity
  8
PV
  6
Continuous
 62
     7
100
AcDbLine
 10
-125.0
 20
10.0
 30
0.0
 11
-125.0
 21
0.0
 31
0.0
  0
LINE
  5
36F
330
A
100
AcDbEntity
  8
PV
  6
Continuous
 62
     7
100
AcDbLine
 10
-135.0
 20
10.0
 30
0.0
 11
-135.0
 21
0.0
 31
0.0
  0
LINE
  5
370
330
A
100
AcDbEntity
  8
PV
  6
PHANTOM
 62
     7
100
AcDbLine
 10
-109.4049999999999
 20
16.1
 30
0.0
 11
-108.4999999999999
 21
-2.0
 31
0.0
  0
LINE
  5
371
330
A
100
AcDbEntity
  8
PV
  6
PHANTOM
 62
     7
100
AcDbLine
 10
-151.5
 20
-2.0
 30
0.0
 11
-150.595
 21
16.1
 31
0.0
  0
LINE
  5
372
330
A
100
AcDbEntity
  8
PV
  6
PHANTOM
 62
     7
100
AcDbLine
 10
-148.597
 20
18.0
 30
0.0
 11
-111.402
 21
18.0
 31
0.0
  0
LINE
  5
373
330
A
100
AcDbEntity
  8
PV
  6
PHANTOM
 62
     7
100
AcDbLine
 10
-151.5
 20
-2.0
 30
0.0
 11
-108.4999999999999
 21
-2.0
 31
0.0
  0
LINE
  5
374
330
A
100
AcDbEntity
  8
PV
  6
Continuous
 62
     7
100
AcDbLine
 10
-100.5
 20
-32.0
 30
0.0
 11
-100.5
 21
-23.0
 31
0.0
  0
LINE
  5
375
330
A
100
AcDbEntity
  8
PV
  6
Continuous
 62
     7
100
AcDbLine
 10
-159.4999999999999
 20
-32.0
 30
0.0
 11
-159.4999999999999
 21
-23.0
 31
0.0
  0
LINE
  5
376
330
A
100
AcDbEntity
  8
PV
  6
Continuous
 62
     7
100
AcDbLine
 10
-158.4999999999999
 20
-22.0
 30
0.0
 11
-101.5
 21
-22.0
 31
0.0
  0
LINE
  5
377
330
A
100
AcDbEntity
  8
PV
  6
Continuous
 62
     7
100
AcDbLine
 10
-126.0
 20
-10.0
 30
0.0
 11
-126.0
 21
-19.0
 31
0.0
  0
LINE
  5
378
330
A
100
AcDbEntity
  8
PV
  6
Continuous
 62
     7
100
AcDbLine
 10
-134.0
 20
-10.0
 30
0.0
 11
-134.0
 21
-19.0
 31
0.0
  0
LINE
  5
379
330
A
100
AcDbEntity
  8
PV
  6
Continuous
 62
     7
100
AcDbLine
 10
-103.0
 20
-43.0
 30
0.0
 11
-103.0
 21
-97.5
 31
0.0
  0
LINE
  5
37A
330
A
100
AcDbEntity
  8
PV
  6
Continuous
 62
     7
100
AcDbLine
 10
-157.0
 20
-43.0
 30
0.0
 11
-157.0
 21
-61.4
 31
0.0
  0
LINE
  5
37B
330
A
100
AcDbEntity
  8
PV
  6
Continuous
 62
     7
100
AcDbLine
 10
-105.0
 20
-99.50000000000001
 30
0.0
 11
-155.0
 21
-99.50000000000001
 31
0.0
  0
LINE
  5
37C
330
A
100
AcDbEntity
  8
PV
  6
CENTER
 62
     7
100
AcDbLine
 10
-130.0
 20
14.62299999999999
 30
0.0
 11
-130.0
 21
-132.709
 31
0.0
  0
LINE
  5
37D
330
A
100
AcDbEntity
  8
PV
  6
Continuous
 62
     7
100
AcDbLine
 10
-110.0
 20
-125.0
 30
0.0
 11
-150.0
 21
-125.0
 31
0.0
  0
LINE
  5
37E
330
A
100
AcDbEntity
  8
PV
  6
Continuous
 62
     7
100
AcDbLine
 10
-116.4
 20
-120.2849999999999
 30
0.0
 11
-143.5999999999999
 21
-120.2849999999999
 31
0.0
  0
LINE
  5
37F
330
A
100
AcDbEntity
  8
PV
  6
Continuous
 62
     7
100
AcDbLine
 10
-110.538
 20
-122.0
 30
0.0
 11
-149.462
 21
-122.0
 31
0.0
  0
LINE
  5
380
330
A
100
AcDbEntity
  8
PV
  6
Continuous
 62
     7
100
AcDbLine
 10
-148.8879999999999
 20
-121.702
 30
0.0
 11
-143.5999999999999
 21
-120.2849999999999
 31
0.0
  0
LINE
  5
381
330
A
100
AcDbEntity
  8
PV
  6
Continuous
 62
     7
100
AcDbLine
 10
-150.0
 20
-125.0
 30
0.0
 11
-150.0
 21
-123.151
 31
0.0
  0
LINE
  5
382
330
A
100
AcDbEntity
  8
PV
  6
Continuous
 62
     7
100
AcDbLine
 10
-143.5999999999999
 20
-120.2849999999999
 30
0.0
 11
-143.5999999999999
 21
-99.50000000000001
 31
0.0
  0
LINE
  5
383
330
A
100
AcDbEntity
  8
PV
  6
CENTER
 62
     7
100
AcDbLine
 10
-188.3879999999999
 20
-75.0
 30
0.0
 11
-141.2829999999999
 21
-75.0
 31
0.0
  0
LINE
  5
384
330
A
100
AcDbEntity
  8
PV
  6
Continuous
 62
     7
100
AcDbLine
 10
-111.112
 20
-121.702
 30
0.0
 11
-116.4
 21
-120.2849999999999
 31
0.0
  0
LINE
  5
385
330
A
100
AcDbEntity
  8
PV
  6
Continuous
 62
     7
100
AcDbLine
 10
-116.4
 20
-120.2849999999999
 30
0.0
 11
-116.4
 21
-99.50000000000001
 31
0.0
  0
LINE
  5
386
330
A
100
AcDbEntity
  8
PV
  6
Continuous
 62
     7
100
AcDbLine
 10
-110.0
 20
-125.0
 30
0.0
 11
-110.0
 21
-123.151
 31
0.0
  0
LINE
  5
387
330
A
100
AcDbEntity
  8
PV
  6
Continuous
 62
     7
100
AcDbLine
 10
-176.702
 20
-93.88799999999999
 30
0.0
 11
-175.285
 21
-88.59999999999999
 31
0.0
  0
LINE
  5
388
330
A
100
AcDbEntity
  8
PV
  6
Continuous
 62
     7
100
AcDbLine
 10
-175.285
 20
-88.59999999999999
 30
0.0
 11
-157.0
 21
-88.59999999999999
 31
0.0
  0
LINE
  5
389
330
A
100
AcDbEntity
  8
PV
  6
Continuous
 62
     7
100
AcDbLine
 10
-180.0
 20
-95.0
 30
0.0
 11
-178.1509999999999
 21
-95.0
 31
0.0
  0
LINE
  5
38A
330
A
100
AcDbEntity
  8
PV
  6
Continuous
 62
     7
100
AcDbLine
 10
-175.285
 20
96.60600000000002
 30
0.0
 11
-175.285
 21
69.406
 31
0.0
  0
LINE
  5
38B
330
A
100
AcDbEntity
  8
PV
  6
Continuous
 62
     7
100
AcDbLine
 10
-177.0
 20
102.4679999999999
 30
0.0
 11
-177.0
 21
63.545
 31
0.0
  0
LINE
  5
38C
330
A
100
AcDbEntity
  8
PV
  6
Continuous
 62
     7
100
AcDbLine
 10
-176.702
 20
64.11799999999999
 30
0.0
 11
-175.285
 21
69.406
 31
0.0
  0
LINE
  5
38D
330
A
100
AcDbEntity
  8
PV
  6
Continuous
 62
     7
100
AcDbLine
 10
-175.285
 20
69.406
 30
0.0
 11
-159.0
 21
69.406
 31
0.0
  0
LINE
  5
38E
330
A
100
AcDbEntity
  8
PV
  6
Continuous
 62
     7
100
AcDbLine
 10
-180.0
 20
63.006
 30
0.0
 11
-178.1509999999999
 21
63.006
 31
0.0
  0
LINE
  5
38F
330
A
100
AcDbEntity
  8
PV
  6
CENTER
 62
     7
100
AcDbLine
 10
-101.0
 20
60.506
 30
0.0
 11
-114.0
 21
60.506
 31
0.0
  0
LINE
  5
390
330
A
100
AcDbEntity
  8
PV
  6
CENTER
 62
     7
100
AcDbLine
 10
-107.4999999999999
 20
67.006
 30
0.0
 11
-107.4999999999999
 21
54.006
 31
0.0
  0
LINE
  5
391
330
A
100
AcDbEntity
  8
PV
  6
CENTER
 62
     7
100
AcDbLine
 10
-107.4999999999999
 20
99.006
 30
0.0
 11
-107.4999999999999
 21
112.006
 31
0.0
  0
LINE
  5
392
330
A
100
AcDbEntity
  8
PV
  6
CENTER
 62
     7
100
AcDbLine
 10
-101.0
 20
105.506
 30
0.0
 11
-114.0
 21
105.506
 31
0.0
  0
LINE
  5
393
330
A
100
AcDbEntity
  8
PV
  6
CENTER
 62
     7
100
AcDbLine
 10
-159.0
 20
105.506
 30
0.0
 11
-146.0
 21
105.506
 31
0.0
  0
LINE
  5
394
330
A
100
AcDbEntity
  8
PV
  6
CENTER
 62
     7
100
AcDbLine
 10
-152.5
 20
99.006
 30
0.0
 11
-152.5
 21
112.006
 31
0.0
  0
LINE
  5
395
330
A
100
AcDbEntity
  8
PV
  6
CENTER
 62
     7
100
AcDbLine
 10
-159.0
 20
60.506
 30
0.0
 11
-146.0
 21
60.506
 31
0.0
  0
LINE
  5
396
330
A
100
AcDbEntity
  8
PV
  6
CENTER
 62
     7
100
AcDbLine
 10
-152.5
 20
67.006
 30
0.0
 11
-152.5
 21
54.006
 31
0.0
  0
LINE
  5
397
330
A
100
AcDbEntity
  8
PV
  6
CENTER
 62
     7
100
AcDbLine
 10
-183.1559999999999
 20
83.00600000000001
 30
0.0
 11
-97.40000000000001
 21
83.00600000000001
 31
0.0
  0
LINE
  5
398
330
A
100
AcDbEntity
  8
PV
  6
CENTER
 62
     7
100
AcDbLine
 10
-130.0
 20
115.606
 30
0.0
 11
-130.0
 21
50.40600000000001
 31
0.0
  0
LINE
  5
399
330
A
100
AcDbEntity
  8
PV
  6
Continuous
 62
     7
100
AcDbLine
 10
-106.047
 20
112.5059999999999
 30
0.0
 11
-153.953
 21
112.5059999999999
 31
0.0
  0
LINE
  5
39A
330
A
100
AcDbEntity
  8
PV
  6
Continuous
 62
     7
100
AcDbLine
 10
-106.047
 20
53.506
 30
0.0
 11
-153.953
 21
53.506
 31
0.0
  0
LINE
  5
39B
330
A
100
AcDbEntity
  8
PV
  6
Continuous
 62
     7
100
AcDbLine
 10
-100.5
 20
106.959
 30
0.0
 11
-100.5
 21
59.053
 31
0.0
  0
LINE
  5
39C
330
A
100
AcDbEntity
  8
PV
  6
Continuous
 62
     7
100
AcDbLine
 10
-159.4999999999999
 20
106.959
 30
0.0
 11
-159.4999999999999
 21
59.053
 31
0.0
  0
LINE
  5
39D
330
A
100
AcDbEntity
  8
PV
  6
Continuous
 62
     7
100
AcDbLine
 10
-180.0
 20
63.006
 30
0.0
 11
-180.0
 21
103.0059999999999
 31
0.0
  0
LINE
  5
39E
330
A
100
AcDbEntity
  8
PV
  6
Continuous
 62
     7
100
AcDbLine
 10
-176.702
 20
101.895
 30
0.0
 11
-175.285
 21
96.60600000000002
 31
0.0
  0
LINE
  5
39F
330
A
100
AcDbEntity
  8
PV
  6
Continuous
 62
     7
100
AcDbLine
 10
-175.285
 20
96.60600000000002
 30
0.0
 11
-159.0
 21
96.60600000000002
 31
0.0
  0
LINE
  5
3A0
330
A
100
AcDbEntity
  8
PV
  6
Continuous
 62
     7
100
AcDbLine
 10
-180.0
 20
103.0059999999999
 30
0.0
 11
-178.1509999999999
 21
103.0059999999999
 31
0.0
  0
LINE
  5
3A1
330
A
100
AcDbEntity
  8
PV
  6
Continuous
 62
     7
100
AcDbLine
 10
-149.821
 20
88.67600000000001
 30
0.0
 11
-150.609
 21
89.13200000000001
 31
0.0
  0
LINE
  5
3A2
330
A
100
AcDbEntity
  8
PV
  6
Continuous
 62
     7
100
AcDbLine
 10
-144.6369999999999
 20
96.65399999999999
 30
0.0
 11
-149.137
 21
88.85899999999999
 31
0.0
  0
LINE
  5
3A3
330
A
100
AcDbEntity
  8
PV
  6
Continuous
 62
     7
100
AcDbLine
 10
-144.8209999999999
 20
97.337
 30
0.0
 11
-145.609
 21
97.79200000000001
 31
0.0
  0
LINE
  5
3A4
330
A
100
AcDbEntity
  8
PV
  6
Continuous
 62
     7
100
AcDbLine
 10
-135.0
 20
103.0059999999999
 30
0.0
 11
-135.0
 21
103.9169999999999
 31
0.0
  0
LINE
  5
3A5
330
A
100
AcDbEntity
  8
PV
  6
Continuous
 62
     7
100
AcDbLine
 10
-125.5
 20
102.506
 30
0.0
 11
-134.4999999999999
 21
102.506
 31
0.0
  0
LINE
  5
3A6
330
A
100
AcDbEntity
  8
PV
  6
Continuous
 62
     7
100
AcDbLine
 10
-125.0
 20
103.0059999999999
 30
0.0
 11
-125.0
 21
103.9169999999999
 31
0.0
  0
LINE
  5
3A7
330
A
100
AcDbEntity
  8
PV
  6
Continuous
 62
     7
100
AcDbLine
 10
-115.179
 20
97.337
 30
0.0
 11
-114.3909999999999
 21
97.79200000000001
 31
0.0
  0
LINE
  5
3A8
330
A
100
AcDbEntity
  8
PV
  6
Continuous
 62
     7
100
AcDbLine
 10
-110.863
 20
88.85899999999999
 30
0.0
 11
-115.3629999999999
 21
96.65399999999999
 31
0.0
  0
LINE
  5
3A9
330
A
100
AcDbEntity
  8
PV
  6
Continuous
 62
     7
100
AcDbLine
 10
-110.179
 20
88.67600000000001
 30
0.0
 11
-109.391
 21
89.13200000000001
 31
0.0
  0
LINE
  5
3AA
330
A
100
AcDbEntity
  8
PV
  6
Continuous
 62
     7
100
AcDbLine
 10
-110.179
 20
77.337
 30
0.0
 11
-109.391
 21
76.881
 31
0.0
  0
LINE
  5
3AB
330
A
100
AcDbEntity
  8
PV
  6
Continuous
 62
     7
100
AcDbLine
 10
-115.3629999999999
 20
69.359
 30
0.0
 11
-110.863
 21
77.15399999999999
 31
0.0
  0
LINE
  5
3AC
330
A
100
AcDbEntity
  8
PV
  6
Continuous
 62
     7
100
AcDbLine
 10
-115.179
 20
68.676
 30
0.0
 11
-114.3909999999999
 21
68.221
 31
0.0
  0
LINE
  5
3AD
330
A
100
AcDbEntity
  8
PV
  6
Continuous
 62
     7
100
AcDbLine
 10
-125.0
 20
63.006
 30
0.0
 11
-125.0
 21
62.096
 31
0.0
  0
LINE
  5
3AE
330
A
100
AcDbEntity
  8
PV
  6
Continuous
 62
     7
100
AcDbLine
 10
-134.4999999999999
 20
63.506
 30
0.0
 11
-125.5
 21
63.506
 31
0.0
  0
LINE
  5
3AF
330
A
100
AcDbEntity
  8
PV
  6
Continuous
 62
     7
100
AcDbLine
 10
-135.0
 20
63.006
 30
0.0
 11
-135.0
 21
62.096
 31
0.0
  0
LINE
  5
3B0
330
A
100
AcDbEntity
  8
PV
  6
Continuous
 62
     7
100
AcDbLine
 10
-149.137
 20
77.15399999999999
 30
0.0
 11
-144.6369999999999
 21
69.359
 31
0.0
  0
LINE
  5
3B1
330
A
100
AcDbEntity
  8
PV
  6
Continuous
 62
     7
100
AcDbLine
 10
-144.8209999999999
 20
68.676
 30
0.0
 11
-145.609
 21
68.221
 31
0.0
  0
LINE
  5
3B2
330
A
100
AcDbEntity
  8
PV
  6
Continuous
 62
     7
100
AcDbLine
 10
-149.821
 20
77.337
 30
0.0
 11
-150.609
 21
76.881
 31
0.0
  0
ENDSEC
  0
SECTION
  2
OBJECTS
  0
DICTIONARY
  5
19
330
0
100
AcDbDictionary
281
     1
  3
ACAD_GROUP
350
1A
  3
ACAD_LAYOUT
350
1E
  3
ACAD_MLINESTYLE
350
1B
  3
ACAD_PLOTSETTINGS
350
22
  3
ACAD_PLOTSTYLENAME
350
1F
  0
DICTIONARY
  5
1A
102
{ACAD_REACTORS
330
19
102
}
330
19
100
AcDbDictionary
281
     1
  0
DICTIONARY
  5
1E
102
{ACAD_REACTORS
330
19
102
}
330
19
100
AcDbDictionary
281
     1
  3
Layout1
350
21
  3
Model
350
20
  0
DICTIONARY
  5
1B
102
{ACAD_REACTORS
330
19
102
}
330
19
100
AcDbDictionary
281
     1
  3
Standard
350
1C
  0
DICTIONARY
  5
22
102
{ACAD_REACTORS
330
19
102
}
330
19
100
AcDbDictionary
281
     1
  0
ACDBDICTIONARYWDFLT
  5
1F
102
{ACAD_REACTORS
330
19
102
}
330
19
100
AcDbDictionary
281
     1
  3
Normal
350
1D
100
AcDbDictionaryWithDefault
340
1D
  0
LAYOUT
  5
21
102
{ACAD_REACTORS
330
1E
102
}
330
1E
100
AcDbPlotSettings
  1

  2

  4

  6

 40
0.0
 41
0.0
 42
0.0
 43
0.0
 44
0.0
 45
0.0
 46
0.0
 47
0.0
 48
0.0
 49
0.0
140
0.0
141
0.0
142
1.0
143
1.0
 70
     0
 72
     0
 73
     0
 74
     0
  7

 75
     0
147
1.0
148
0.0
149
0.0
100
AcDbLayout
  1
Layout1
 70
     0
 71
     1
 10
0.0
 20
0.0
 11
12.0
 21
9.0
 12
0.0
 22
0.0
 32
0.0
 14
1.000000000000000E+20
 24
1.000000000000000E+20
 34
1.000000000000000E+20
 15
-1.000000000000000E+20
 25
-1.000000000000000E+20
 35
-1.000000000000000E+20
146
0.0
 13
0.0
 23
0.0
 33
0.0
 16
1.0
 26
0.0
 36
0.0
 17
0.0
 27
1.0
 37
0.0
 76
     0
330
B
  0
LAYOUT
  5
20
102
{ACAD_REACTORS
330
1E
102
}
330
1E
100
AcDbPlotSettings
  1

  2
Adobe PDF
  4
A4
  6

 40
3.174999952316284
 41
3.174999952316284
 42
3.175003051757812
 43
3.17498779296875
 44
209.9098358154297
 45
297.0318298339843
 46
28.26
 47
0.0
 48
0.0
 49
0.0
140
0.0
141
0.0
142
1.0
143
0.9956882649439211
 70
 11284
 72
     1
 73
     0
 74
     2
  7

 75
     0
147
1.004330406622118
148
208.7825009999999
149
148.713
100
AcDbLayout
  1
Model
 70
     0
 71
     0
 10
0.0
 20
0.0
 11
0.0
 21
0.0
 12
0.0
 22
0.0
 32
0.0
 14
0.0
 24
0.0
 34
0.0
 15
0.0
 25
0.0
 35
0.0
146
0.0
 13
0.0
 23
0.0
 33
0.0
 16
0.0
 26
0.0
 36
0.0
 17
0.0
 27
0.0
 37
0.0
 76
     0
330
A
  0
MLINESTYLE
  5
1C
102
{ACAD_REACTORS
330
1B
102
}
330
1B
100
AcDbMlineStyle
  2
STANDARD
 70
     0
  3

 62
     0
 51
90.0
 52
90.0
 71
     2
 49
0.5
 62
   256
  6
BYLAYER
 49
-0.5
 62
   256
  6
BYLAYER
  0
ACDBPLACEHOLDER
  5
1D
102
{ACAD_REACTORS
330
1F
102
}
330
1F
  0
ENDSEC
  0
EOF
