  0
SECTION
  2
HEADER
  9
$ACADVER
  1
AC1015
  9
$ACADMAINTVER
 70
    10
  9
$DWGCODEPAGE
  3
ANSI_932
  9
$INSBASE
 10
0.0
 20
0.0
 30
0.0
  9
$EXTMIN
 10
-162.4277416820807
 20
-158.9141025311976
 30
-0.0015258207003583
  9
$EXTMAX
 10
145.2518517577498
 20
137.5779587765184
 30
0.0000000349246037
  9
$LIMMIN
 10
-164.2425
 20
-158.905
  9
$LIMMAX
 10
146.284794
 20
139.3895
  9
$ORTHOMODE
 70
     0
  9
$REGENMODE
 70
     1
  9
$FILLMODE
 70
     1
  9
$QTEXTMODE
 70
     0
  9
$MIRRTEXT
 70
     1
  9
$LTSCALE
 40
1.0
  9
$ATTMODE
 70
     1
  9
$TEXTSIZE
 40
3.2
  9
$TRACEWID
 40
0.05
  9
$TEXTSTYLE
  7
MX_NOTE_STANDARD
  9
$CLAYER
  8
PV
  9
$CELTYPE
  6
CONTINUOUS
  9
$CECOLOR
 62
   256
  9
$CELTSCALE
 40
1.0
  9
$DISPSILH
 70
     0
  9
$DIMSCALE
 40
1.0
  9
$DIMASZ
 40
2.5
  9
$DIMEXO
 40
2.54
  9
$DIMDLI
 40
3.75
  9
$DIMRND
 40
0.0
  9
$DIMDLE
 40
0.0
  9
$DIMEXE
 40
2.286
  9
$DIMTP
 40
0.0
  9
$DIMTM
 40
0.0
  9
$DIMTXT
 40
3.2
  9
$DIMCEN
 40
2.5
  9
$DIMTSZ
 40
0.0
  9
$DIMTOL
 70
     0
  9
$DIMLIM
 70
     0
  9
$DIMTIH
 70
     0
  9
$DIMTOH
 70
     0
  9
$DIMSE1
 70
     0
  9
$DIMSE2
 70
     0
  9
$DIMTAD
 70
     1
  9
$DIMZIN
 70
     8
  9
$DIMBLK
  1

  9
$DIMASO
 70
     1
  9
$DIMSHO
 70
     1
  9
$DIMPOST
  1

  9
$DIMAPOST
  1

  9
$DIMALT
 70
     0
  9
$DIMALTD
 70
     4
  9
$DIMALTF
 40
0.03937
  9
$DIMLFAC
 40
1.0
  9
$DIMTOFL
 70
     1
  9
$DIMTVP
 40
0.0
  9
$DIMTIX
 70
     0
  9
$DIMSOXD
 70
     0
  9
$DIMSAH
 70
     1
  9
$DIMBLK1
  1
OPEN30
  9
$DIMBLK2
  1
OPEN30
  9
$DIMSTYLE
  2
MXDIMSTYLE
  9
$DIMCLRD
 70
     0
  9
$DIMCLRE
 70
     0
  9
$DIMCLRT
 70
     0
  9
$DIMTFAC
 40
1.0
  9
$DIMGAP
 40
1.0
  9
$DIMJUST
 70
     0
  9
$DIMSD1
 70
     0
  9
$DIMSD2
 70
     0
  9
$DIMTOLJ
 70
     0
  9
$DIMTZIN
 70
     0
  9
$DIMALTZ
 70
     0
  9
$DIMALTTZ
 70
     0
  9
$DIMUPT
 70
     1
  9
$DIMDEC
 70
     2
  9
$DIMTDEC
 70
     2
  9
$DIMALTU
 70
     2
  9
$DIMALTTD
 70
     4
  9
$DIMTXSTY
  7
MX_NOTE_STANDARD
  9
$DIMAUNIT
 70
     0
  9
$DIMADEC
 70
     0
  9
$DIMALTRND
 40
0.0
  9
$DIMAZIN
 70
     0
  9
$DIMDSEP
 70
    46
  9
$DIMATFIT
 70
     3
  9
$DIMFRAC
 70
     0
  9
$DIMLDRBLK
  1
OPEN30
  9
$DIMLUNIT
 70
     2
  9
$DIMLWD
 70
    -2
  9
$DIMLWE
 70
    -2
  9
$DIMTMOVE
 70
     0
  9
$LUNITS
 70
     2
  9
$LUPREC
 70
     4
  9
$SKETCHINC
 40
0.1
  9
$FILLETRAD
 40
0.0
  9
$AUNITS
 70
     0
  9
$AUPREC
 70
     0
  9
$MENU
  1
acad
  9
$ELEVATION
 40
0.0
  9
$PELEVATION
 40
0.0
  9
$THICKNESS
 40
0.0
  9
$LIMCHECK
 70
     0
  9
$CHAMFERA
 40
0.0
  9
$CHAMFERB
 40
0.0
  9
$CHAMFERC
 40
0.0
  9
$CHAMFERD
 40
0.0
  9
$SKPOLY
 70
     0
  9
$TDCREATE
 40
2455288.593319062
  9
$TDUCREATE
 40
2455288.218319062
  9
$TDUPDATE
 40
2455288.595591944
  9
$TDUUPDATE
 40
2455288.220591945
  9
$TDINDWG
 40
0.0022741319
  9
$TDUSRTIMER
 40
0.0022741319
  9
$USRTIMER
 70
     1
  9
$ANGBASE
 50
0.0
  9
$ANGDIR
 70
     0
  9
$PDMODE
 70
     0
  9
$PDSIZE
 40
0.0
  9
$PLINEWID
 40
0.0
  9
$SPLFRAME
 70
     0
  9
$SPLINETYPE
 70
     6
  9
$SPLINESEGS
 70
     8
  9
$HANDSEED
  5
2B4
  9
$SURFTAB1
 70
     6
  9
$SURFTAB2
 70
     6
  9
$SURFTYPE
 70
     6
  9
$SURFU
 70
     6
  9
$SURFV
 70
     6
  9
$UCSBASE
  2

  9
$UCSNAME
  2

  9
$UCSORG
 10
0.0
 20
0.0
 30
0.0
  9
$UCSXDIR
 10
1.0
 20
0.0
 30
0.0
  9
$UCSYDIR
 10
0.0
 20
1.0
 30
0.0
  9
$UCSORTHOREF
  2

  9
$UCSORTHOVIEW
 70
     0
  9
$UCSORGTOP
 10
0.0
 20
0.0
 30
0.0
  9
$UCSORGBOTTOM
 10
0.0
 20
0.0
 30
0.0
  9
$UCSORGLEFT
 10
0.0
 20
0.0
 30
0.0
  9
$UCSORGRIGHT
 10
0.0
 20
0.0
 30
0.0
  9
$UCSORGFRONT
 10
0.0
 20
0.0
 30
0.0
  9
$UCSORGBACK
 10
0.0
 20
0.0
 30
0.0
  9
$PUCSBASE
  2

  9
$PUCSNAME
  2

  9
$PUCSORG
 10
0.0
 20
0.0
 30
0.0
  9
$PUCSXDIR
 10
1.0
 20
0.0
 30
0.0
  9
$PUCSYDIR
 10
0.0
 20
1.0
 30
0.0
  9
$PUCSORTHOREF
  2

  9
$PUCSORTHOVIEW
 70
     0
  9
$PUCSORGTOP
 10
0.0
 20
0.0
 30
0.0
  9
$PUCSORGBOTTOM
 10
0.0
 20
0.0
 30
0.0
  9
$PUCSORGLEFT
 10
0.0
 20
0.0
 30
0.0
  9
$PUCSORGRIGHT
 10
0.0
 20
0.0
 30
0.0
  9
$PUCSORGFRONT
 10
0.0
 20
0.0
 30
0.0
  9
$PUCSORGBACK
 10
0.0
 20
0.0
 30
0.0
  9
$USERI1
 70
     0
  9
$USERI2
 70
     0
  9
$USERI3
 70
     0
  9
$USERI4
 70
     0
  9
$USERI5
 70
     0
  9
$USERR1
 40
0.0
  9
$USERR2
 40
0.0
  9
$USERR3
 40
0.0
  9
$USERR4
 40
0.0
  9
$USERR5
 40
0.0
  9
$WORLDVIEW
 70
     1
  9
$SHADEDGE
 70
     3
  9
$SHADEDIF
 70
    70
  9
$TILEMODE
 70
     1
  9
$MAXACTVP
 70
    16
  9
$PINSBASE
 10
0.0
 20
0.0
 30
0.0
  9
$PLIMCHECK
 70
     0
  9
$PEXTMIN
 10
1.000000000000000E+20
 20
1.000000000000000E+20
 30
1.000000000000000E+20
  9
$PEXTMAX
 10
-1.000000000000000E+20
 20
-1.000000000000000E+20
 30
-1.000000000000000E+20
  9
$PLIMMIN
 10
0.0
 20
0.0
  9
$PLIMMAX
 10
12.0
 20
9.0
  9
$UNITMODE
 70
     0
  9
$VISRETAIN
 70
     0
  9
$PLINEGEN
 70
     1
  9
$PSLTSCALE
 70
     0
  9
$TREEDEPTH
 70
  3020
  9
$CMLSTYLE
  2
Standard
  9
$CMLJUST
 70
     0
  9
$CMLSCALE
 40
1.0
  9
$PROXYGRAPHICS
 70
     0
  9
$MEASUREMENT
 70
     1
  9
$CELWEIGHT
370
     0
  9
$ENDCAPS
280
     0
  9
$JOINSTYLE
280
     0
  9
$LWDISPLAY
290
     0
  9
$INSUNITS
 70
     0
  9
$HYPERLINKBASE
  1

  9
$STYLESHEET
  1

  9
$XEDIT
290
     1
  9
$CEPSNTYPE
380
     0
  9
$PSTYLEMODE
290
     1
  9
$FINGERPRINTGUID
  2

  9
$VERSIONGUID
  2
{6B41D7E0-386A-4080-B414-49AF657013E3}
  9
$EXTNAMES
290
     1
  9
$PSVPSCALE
 40
0.0
  9
$OLESTARTUP
290
     0
  0
ENDSEC
  0
SECTION
  2
CLASSES
  0
CLASS
  1
LWPOLYLINE
  2
AcDbPolyline
  3
AutoCAD 2000
 90
    32768
280
     0
281
     1
  0
CLASS
  1
IMAGE
  2
AcDbRasterImage
  3
ISM
 90
    32895
280
     0
281
     1
  0
CLASS
  1
OLE2FRAME
  2
AcDbOle2Frame
  3
AutoCAD 2000
 90
    32768
280
     0
281
     1
  0
CLASS
  1
HATCH
  2
AcDbHatch
  3
AutoCAD 2000
 90
    32768
280
     0
281
     1
  0
CLASS
  1
DICTIONARYVAR
  2
AcDbDictionaryVar
  3
AutoCAD 2000
 90
    32768
280
     0
281
     0
  0
CLASS
  1
RASTERVARIABLES
  2
AcDbRasterVariables
  3
ISM
 90
    32768
280
     0
281
     0
  0
CLASS
  1
IMAGEDEF
  2
AcDbRasterImageDef
  3
ISM
 90
    32768
280
     0
281
     0
  0
CLASS
  1
IMAGEDEF_REACTOR
  2
AcDbRasterImageDefReactor
  3
ISM
 90
    32769
280
     0
281
     0
  0
CLASS
  1
IDBUFFER
  2
AcDbIdBuffer
  3
AutoCAD 2000
 90
    32768
280
     0
281
     0
  0
CLASS
  1
SPATIAL_FILTER
  2
AcDbSpatialFilter
  3
AutoCAD 2000
 90
    32768
280
     0
281
     0
  0
CLASS
  1
XRECORD
  2
AcDbXrecord
  3
AutoCAD 2000
 90
    32768
280
     0
281
     0
  0
CLASS
  1
SORTENTSTABLE
  2
AcDbSortentsTable
  3
AutoCAD 2000
 90
    32768
280
     0
281
     0
  0
CLASS
  1
LAYER_INDEX
  2
AcDbLayerIndex
  3
AutoCAD 2000
 90
    32768
280
     0
281
     0
  0
CLASS
  1
SPATIAL_INDEX
  2
AcDbSpatialIndex
  3
AutoCAD 2000
 90
    32768
280
     0
281
     0
  0
CLASS
  1
OBJECT_PTR
  2
CAseDLPNTableRecord
  3
"ASE-LPNTableRecord"
 90
    32769
280
     0
281
     0
  0
CLASS
  1
LAYOUT
  2
AcDbLayout
  3
AutoCAD 2000
 90
        0
280
     0
281
     0
  0
CLASS
  1
PLOTSETTINGS
  2
AcDbPlotSettings
  3
AutoCAD 2000
 90
    32768
280
     0
281
     0
  0
CLASS
  1
ACDBDICTIONARYWDFLT
  2
AcDbDictionaryWithDefault
  3
AutoCAD 2000
 90
        0
280
     0
281
     0
  0
CLASS
  1
ACDBPLACEHOLDER
  2
AcDbPlaceHolder
  3
AutoCAD 2000
 90
        0
280
     0
281
     0
  0
ENDSEC
  0
SECTION
  2
TABLES
  0
TABLE
  2
VPORT
  5
7
330
0
100
AcDbSymbolTable
 70
     2
  0
VPORT
  5
2B3
330
7
100
AcDbSymbolTableRecord
100
AcDbViewportTableRecord
  2
*Active
 70
     0
 10
0.0
 20
0.0
 11
1.0
 21
1.0
 12
-8.978853000000015
 22
9.500983278040195
 13
0.0
 23
0.0
 14
1.0
 24
1.0
 15
0.0
 25
0.0
 16
0.0
 26
0.0
 36
1.0
 17
0.0
 27
0.0
 37
0.0
 40
339.8760395044316
 41
1.192602040816326
 42
50.0
 43
0.0
 44
0.0
 50
0.0
 51
0.0
 71
     0
 72
   100
 73
     1
 74
     1
 75
     0
 76
     0
 77
     0
 78
     0
281
     0
 65
     0
110
0.0
120
0.0
130
0.0
111
1.0
121
0.0
131
0.0
112
0.0
122
1.0
132
0.0
 79
     0
146
0.0
  0
ENDTAB
  0
TABLE
  2
LTYPE
  5
4
330
0
100
AcDbSymbolTable
 70
     2
  0
LTYPE
  5
11
330
4
100
AcDbSymbolTableRecord
100
AcDbLinetypeTableRecord
  2
BYBLOCK
 70
     0
  3

 72
    65
 73
     0
 40
0.0
  0
LTYPE
  5
12
330
4
100
AcDbSymbolTableRecord
100
AcDbLinetypeTableRecord
  2
BYLAYER
 70
     0
  3

 72
    65
 73
     0
 40
0.0
  0
LTYPE
  5
13
330
4
100
AcDbSymbolTableRecord
100
AcDbLinetypeTableRecord
  2
CONTINUOUS
 70
     0
  3
Solid line
 72
    65
 73
     0
 40
0.0
  0
LTYPE
  5
222
330
4
100
AcDbSymbolTableRecord
100
AcDbLinetypeTableRecord
  2
CENTER
 70
     0
  3
Center ____ _ ____ _ ____ _ ____ _ ____ _ ____
 72
    65
 73
     4
 40
50.8
 49
31.75
 74
     0
 49
-6.349999999999999
 74
     0
 49
6.349999999999999
 74
     0
 49
-6.349999999999999
 74
     0
  0
ENDTAB
  0
TABLE
  2
LAYER
  5
2
330
0
100
AcDbSymbolTable
 70
     4
  0
LAYER
  5
14
330
2
100
AcDbSymbolTableRecord
100
AcDbLayerTableRecord
  2
0
 70
     0
 62
     7
  6
CONTINUOUS
370
    -3
390
1D
  0
LAYER
  5
23
330
2
100
AcDbSymbolTableRecord
100
AcDbLayerTableRecord
  2
DEFPOINTS
 70
     0
 62
     7
  6
CONTINUOUS
290
     0
370
    -3
390
1D
  0
LAYER
  5
24
330
2
100
AcDbSymbolTableRecord
100
AcDbLayerTableRecord
  2
PV
 70
     0
 62
     7
  6
CONTINUOUS
370
    -3
390
1D
  0
LAYER
  5
25
330
2
100
AcDbSymbolTableRecord
100
AcDbLayerTableRecord
  2
WV
 70
     0
 62
     7
  6
CONTINUOUS
370
    -3
390
1D
  0
ENDTAB
  0
TABLE
  2
STYLE
  5
3
330
0
100
AcDbSymbolTable
 70
     2
  0
STYLE
  5
17
330
3
100
AcDbSymbolTableRecord
100
AcDbTextStyleTableRecord
  2
MX_NOTE_STANDARD
 70
     0
 40
0.0
 41
1.0
 50
0.0
 71
     0
 42
3.2
  3
txt.shx
  4
extfont.shx
  0
STYLE
  5
2AF
330
3
100
AcDbSymbolTableRecord
100
AcDbTextStyleTableRecord
  2
Standard
 70
     0
 40
0.0
 41
1.0
 50
0.0
 71
     0
 42
0.2
  3

  4

  0
ENDTAB
  0
TABLE
  2
VIEW
  5
5
330
0
100
AcDbSymbolTable
 70
     0
  0
ENDTAB
  0
TABLE
  2
UCS
  5
6
330
0
100
AcDbSymbolTable
 70
     0
  0
ENDTAB
  0
TABLE
  2
APPID
  5
8
330
0
100
AcDbSymbolTable
 70
     1
  0
APPID
  5
16
330
8
100
AcDbSymbolTableRecord
100
AcDbRegAppTableRecord
  2
ACAD
 70
     0
  0
ENDTAB
  0
TABLE
  2
DIMSTYLE
  5
9
330
0
100
AcDbSymbolTable
 70
     1
100
AcDbDimStyleTable
 71
     0
  0
DIMSTYLE
105
18
330
9
100
AcDbSymbolTableRecord
100
AcDbDimStyleTableRecord
  2
MXDIMSTYLE
 70
     0
 41
2.5
 42
2.54
 43
3.75
 44
2.286
 73
     0
 74
     0
 77
     1
 78
     8
140
3.2
141
2.5
143
0.03937
147
1.0
171
     4
172
     1
173
     1
271
     2
272
     2
274
     4
283
     0
288
     1
340
17
341
26
343
26
344
26
  0
ENDTAB
  0
TABLE
  2
BLOCK_RECORD
  5
1
330
0
100
AcDbSymbolTable
 70
     1
  0
BLOCK_RECORD
  5
A
330
1
100
AcDbSymbolTableRecord
100
AcDbBlockTableRecord
  2
*MODEL_SPACE
340
20
  0
BLOCK_RECORD
  5
B
330
1
100
AcDbSymbolTableRecord
100
AcDbBlockTableRecord
  2
*PAPER_SPACE
340
21
  0
BLOCK_RECORD
  5
26
330
1
100
AcDbSymbolTableRecord
100
AcDbBlockTableRecord
  2
_OPEN30
340
0
  0
ENDTAB
  0
ENDSEC
  0
SECTION
  2
BLOCKS
  0
BLOCK
  5
D
330
A
100
AcDbEntity
  8
0
100
AcDbBlockBegin
  2
*MODEL_SPACE
 70
     0
 10
0.0
 20
0.0
 30
0.0
  3
*MODEL_SPACE
  1

  0
ENDBLK
  5
E
330
A
100
AcDbEntity
  8
0
100
AcDbBlockEnd
  0
BLOCK
  5
F
330
B
100
AcDbEntity
 67
     1
  8
0
100
AcDbBlockBegin
  2
*PAPER_SPACE
 70
     0
 10
0.0
 20
0.0
 30
0.0
  3
*PAPER_SPACE
  1

  0
ENDBLK
  5
10
330
B
100
AcDbEntity
 67
     1
  8
0
100
AcDbBlockEnd
  0
BLOCK
  5
27
330
26
100
AcDbEntity
  8
0
  6
ByBlock
 62
     0
370
    -2
100
AcDbBlockBegin
  2
_OPEN30
 70
     2
 10
0.0
 20
0.0
 30
0.0
  3
_OPEN30
  1

  0
LINE
  5
28
330
26
100
AcDbEntity
  8
0
  6
ByBlock
 62
     0
370
    -2
100
AcDbLine
 10
-1.0
 20
0.267949
 30
0.0
 11
0.0
 21
0.0
 31
0.0
  0
LINE
  5
29
330
26
100
AcDbEntity
  8
0
  6
ByBlock
 62
     0
370
    -2
100
AcDbLine
 10
0.0
 20
0.0
 30
0.0
 11
-1.0
 21
-0.267949
 31
0.0
  0
LINE
  5
2A
330
26
100
AcDbEntity
  8
0
  6
ByBlock
 62
     0
370
    -2
100
AcDbLine
 10
0.0
 20
0.0
 30
0.0
 11
-1.0
 21
0.0
 31
0.0
  0
ENDBLK
  5
2B
330
26
100
AcDbEntity
  8
0
  6
ByBlock
 62
     0
370
    -2
100
AcDbBlockEnd
  0
ENDSEC
  0
SECTION
  2
ENTITIES
  0
LEADER
  5
2C
330
A
100
AcDbEntity
  8
0
  6
Continuous
 62
     7
100
AcDbLeader
  3
MXDIMSTYLE
 74
     0
 76
     2
 10
70.0
 20
-9.0
 30
0.0
 10
112.590486
 20
34.63689999999999
 30
0.0
1001
ACAD
1000
DSTYLE
1002
{
1070
    41
1040
2.77
1002
}
  0
LEADER
  5
2D
330
A
100
AcDbEntity
  8
PV
  6
Continuous
 62
     7
100
AcDbLeader
  3
MXDIMSTYLE
 74
     0
 76
     3
 10
70.0
 20
-33.5
 30
0.0
 10
112.590486
 20
34.63689999999999
 30
0.0
 10
144.240924
 20
34.63689999999999
 30
0.0
1001
ACAD
1000
DSTYLE
1002
{
1070
    41
1040
2.77
1002
}
  0
MTEXT
  5
2E
330
A
100
AcDbEntity
  8
PV
  6
Continuous
 62
     7
100
AcDbMText
 10
114.3358409999999
 20
39.38689999999999
 30
0.0
 40
5.5
 41
0.0
 71
     4
 72
     1
  1
\W1.139;\A1;Rc 1/8
 73
     1
 44
0.9
  0
LINE
  5
2F
330
A
100
AcDbEntity
  8
PV
  6
Continuous
 62
     7
100
AcDbLine
 10
-127.692
 20
129.381
 30
0.0
 11
-130.0
 21
130.0
 31
0.0
  0
LINE
  5
30
330
A
100
AcDbEntity
  8
PV
  6
Continuous
 62
     7
100
AcDbLine
 10
-130.0
 20
130.0
 30
0.0
 11
-127.692
 21
130.6189999999999
 31
0.0
  0
LINE
  5
31
330
A
100
AcDbEntity
  8
PV
  6
Continuous
 62
     7
100
AcDbLine
 10
-130.0
 20
130.0
 30
0.0
 11
-127.692
 21
130.0
 31
0.0
  0
LINE
  5
32
330
A
100
AcDbEntity
  8
PV
  6
Continuous
 62
     7
100
AcDbLine
 10
-49.808
 20
130.6189999999999
 30
0.0
 11
-47.5
 21
130.0
 31
0.0
  0
LINE
  5
33
330
A
100
AcDbEntity
  8
PV
  6
Continuous
 62
     7
100
AcDbLine
 10
-47.5
 20
130.0
 30
0.0
 11
-49.808
 21
129.381
 31
0.0
  0
LINE
  5
34
330
A
100
AcDbEntity
  8
PV
  6
Continuous
 62
     7
100
AcDbLine
 10
-47.5
 20
130.0
 30
0.0
 11
-49.808
 21
130.0
 31
0.0
  0
LINE
  5
35
330
A
100
AcDbEntity
  8
PV
  6
Continuous
 62
     7
100
AcDbLine
 10
-130.0
 20
130.0
 30
0.0
 11
-47.5
 21
130.0
 31
0.0
  0
LINE
  5
36
330
A
100
AcDbEntity
  8
PV
  6
Continuous
 62
     7
100
AcDbLine
 10
-130.0
 20
113.9429999999999
 30
0.0
 11
-130.0
 21
131.905
 31
0.0
  0
LINE
  5
37
330
A
100
AcDbEntity
  8
PV
  6
Continuous
 62
     7
100
AcDbLine
 10
-47.5
 20
105.4429999999999
 30
0.0
 11
-47.5
 21
131.905
 31
0.0
  0
MTEXT
  5
38
330
A
100
AcDbEntity
  8
PV
  6
Continuous
 62
     7
100
AcDbMText
 10
-90.0
 20
137.5561669999999
 30
0.0
 40
5.5
 41
0.0
 71
     2
 72
     1
  1
\T1.526;\W0.813;\A1;82.5
 73
     1
 44
1.0
  0
POINT
  5
39
330
A
100
AcDbEntity
  8
PV
  6
Continuous
 62
     7
100
AcDbPoint
 10
-130.0
 20
111.827
 30
0.0
  0
POINT
  5
3A
330
A
100
AcDbEntity
  8
PV
  6
Continuous
 62
     7
100
AcDbPoint
 10
-47.5
 20
103.327
 30
0.0
  0
POINT
  5
3B
330
A
100
AcDbEntity
  8
PV
  6
Continuous
 62
     7
100
AcDbPoint
 10
-47.5
 20
130.0
 30
0.0
  0
LINE
  5
3C
330
A
100
AcDbEntity
  8
PV
  6
Continuous
 62
     7
100
AcDbLine
 10
124.381
 20
-35.80799999999999
 30
0.0
 11
125.0
 21
-33.5
 31
0.0
  0
LINE
  5
3D
330
A
100
AcDbEntity
  8
PV
  6
Continuous
 62
     7
100
AcDbLine
 10
125.0
 20
-33.5
 30
0.0
 11
125.6189999999999
 21
-35.80799999999999
 31
0.0
  0
LINE
  5
3E
330
A
100
AcDbEntity
  8
PV
  6
Continuous
 62
     7
100
AcDbLine
 10
125.0
 20
-33.5
 30
0.0
 11
125.0
 21
-35.80799999999999
 31
0.0
  0
LINE
  5
3F
330
A
100
AcDbEntity
  8
PV
  6
Continuous
 62
     7
100
AcDbLine
 10
125.6189999999999
 20
-132.692
 30
0.0
 11
125.0
 21
-135.0
 31
0.0
  0
LINE
  5
40
330
A
100
AcDbEntity
  8
PV
  6
Continuous
 62
     7
100
AcDbLine
 10
125.0
 20
-135.0
 30
0.0
 11
124.381
 21
-132.692
 31
0.0
  0
LINE
  5
41
330
A
100
AcDbEntity
  8
PV
  6
Continuous
 62
     7
100
AcDbLine
 10
125.0
 20
-135.0
 30
0.0
 11
125.0
 21
-132.692
 31
0.0
  0
LINE
  5
42
330
A
100
AcDbEntity
  8
PV
  6
Continuous
 62
     7
100
AcDbLine
 10
125.0
 20
-33.5
 30
0.0
 11
125.0
 21
-135.0
 31
0.0
  0
LINE
  5
43
330
A
100
AcDbEntity
  8
PV
  6
Continuous
 62
     7
100
AcDbLine
 10
92.117
 20
-135.0
 30
0.0
 11
127.286
 21
-135.0
 31
0.0
  0
MTEXT
  5
44
330
A
100
AcDbEntity
  8
PV
  6
Continuous
 62
     7
100
AcDbMText
 10
118.4438319999999
 20
-84.25
 30
0.0
 40
5.5
 41
0.0
 71
     2
 72
     1
  1
\A1;101.5
 11
0.0
 21
1.0
 31
0.0
 73
     1
 44
1.0
  0
POINT
  5
45
330
A
100
AcDbEntity
  8
PV
  6
Continuous
 62
     7
100
AcDbPoint
 10
76.963
 20
-33.5
 30
0.0
  0
POINT
  5
46
330
A
100
AcDbEntity
  8
PV
  6
Continuous
 62
     7
100
AcDbPoint
 10
90.0
 20
-135.0
 30
0.0
  0
POINT
  5
47
330
A
100
AcDbEntity
  8
PV
  6
Continuous
 62
     7
100
AcDbPoint
 10
125.0
 20
-135.0
 30
0.0
  0
LINE
  5
48
330
A
100
AcDbEntity
  8
PV
  6
Continuous
 62
     7
100
AcDbLine
 10
124.381
 20
-11.308
 30
0.0
 11
125.0
 21
-9.0
 31
0.0
  0
LINE
  5
49
330
A
100
AcDbEntity
  8
PV
  6
Continuous
 62
     7
100
AcDbLine
 10
125.0
 20
-9.0
 30
0.0
 11
125.6189999999999
 21
-11.308
 31
0.0
  0
LINE
  5
4A
330
A
100
AcDbEntity
  8
PV
  6
Continuous
 62
     7
100
AcDbLine
 10
125.0
 20
-9.0
 30
0.0
 11
125.0
 21
-11.308
 31
0.0
  0
LINE
  5
4B
330
A
100
AcDbEntity
  8
PV
  6
Continuous
 62
     7
100
AcDbLine
 10
125.6189999999999
 20
-31.19199999999999
 30
0.0
 11
125.0
 21
-33.5
 31
0.0
  0
LINE
  5
4C
330
A
100
AcDbEntity
  8
PV
  6
Continuous
 62
     7
100
AcDbLine
 10
125.0
 20
-33.5
 30
0.0
 11
124.381
 21
-31.19199999999999
 31
0.0
  0
LINE
  5
4D
330
A
100
AcDbEntity
  8
PV
  6
Continuous
 62
     7
100
AcDbLine
 10
125.0
 20
-33.5
 30
0.0
 11
125.0
 21
-31.19199999999999
 31
0.0
  0
LINE
  5
4E
330
A
100
AcDbEntity
  8
PV
  6
Continuous
 62
     7
100
AcDbLine
 10
125.0
 20
-9.0
 30
0.0
 11
125.0
 21
-33.5
 31
0.0
  0
LINE
  5
4F
330
A
100
AcDbEntity
  8
PV
  6
Continuous
 62
     7
100
AcDbLine
 10
79.08
 20
-9.0
 30
0.0
 11
127.286
 21
-9.0
 31
0.0
  0
LINE
  5
50
330
A
100
AcDbEntity
  8
PV
  6
Continuous
 62
     7
100
AcDbLine
 10
79.08
 20
-33.5
 30
0.0
 11
127.286
 21
-33.5
 31
0.0
  0
MTEXT
  5
51
330
A
100
AcDbEntity
  8
PV
  6
Continuous
 62
     7
100
AcDbMText
 10
117.443834
 20
-21.25
 30
0.0
 40
5.5
 41
0.0
 71
     2
 72
     1
  1
\A1;24.5
 11
0.0
 21
1.0
 31
0.0
 73
     1
 44
1.0
  0
POINT
  5
52
330
A
100
AcDbEntity
  8
PV
  6
Continuous
 62
     7
100
AcDbPoint
 10
76.963
 20
-9.0
 30
0.0
  0
POINT
  5
53
330
A
100
AcDbEntity
  8
PV
  6
Continuous
 62
     7
100
AcDbPoint
 10
76.963
 20
-33.5
 30
0.0
  0
POINT
  5
54
330
A
100
AcDbEntity
  8
PV
  6
Continuous
 62
     7
100
AcDbPoint
 10
125.0
 20
-33.5
 30
0.0
  0
LINE
  5
55
330
A
100
AcDbEntity
  8
PV
  6
Continuous
 62
     7
100
AcDbLine
 10
-29.033
 20
4.192
 30
0.0
 11
-28.414
 21
6.5
 31
0.0
  0
LINE
  5
56
330
A
100
AcDbEntity
  8
PV
  6
Continuous
 62
     7
100
AcDbLine
 10
-28.414
 20
6.5
 30
0.0
 11
-27.796
 21
4.192
 31
0.0
  0
LINE
  5
57
330
A
100
AcDbEntity
  8
PV
  6
Continuous
 62
     7
100
AcDbLine
 10
-28.414
 20
6.5
 30
0.0
 11
-28.414
 21
4.192
 31
0.0
  0
LINE
  5
58
330
A
100
AcDbEntity
  8
PV
  6
Continuous
 62
     7
100
AcDbLine
 10
-27.796
 20
-39.692
 30
0.0
 11
-28.414
 21
-42.0
 31
0.0
  0
LINE
  5
59
330
A
100
AcDbEntity
  8
PV
  6
Continuous
 62
     7
100
AcDbLine
 10
-28.414
 20
-42.0
 30
0.0
 11
-29.033
 21
-39.692
 31
0.0
  0
LINE
  5
5A
330
A
100
AcDbEntity
  8
PV
  6
Continuous
 62
     7
100
AcDbLine
 10
-28.414
 20
-42.0
 30
0.0
 11
-28.414
 21
-39.692
 31
0.0
  0
LINE
  5
5B
330
A
100
AcDbEntity
  8
PV
  6
Continuous
 62
     7
100
AcDbLine
 10
-28.414
 20
6.5
 30
0.0
 11
-28.414
 21
-42.0
 31
0.0
  0
MTEXT
  5
5C
330
A
100
AcDbEntity
  8
PV
  6
Continuous
 62
     7
100
AcDbMText
 10
-35.97016599999999
 20
-17.75
 30
0.0
 40
5.5
 41
0.0
 71
     2
 72
     1
  1
\A1;48.5
 11
0.0
 21
1.0
 31
0.0
 73
     1
 44
1.0
  0
POINT
  5
5D
330
A
100
AcDbEntity
  8
PV
  6
Continuous
 62
     7
100
AcDbPoint
 10
-47.5
 20
6.5
 30
0.0
  0
POINT
  5
5E
330
A
100
AcDbEntity
  8
PV
  6
Continuous
 62
     7
100
AcDbPoint
 10
-47.5
 20
-42.0
 30
0.0
  0
POINT
  5
5F
330
A
100
AcDbEntity
  8
PV
  6
Continuous
 62
     7
100
AcDbPoint
 10
-28.414
 20
-42.0
 30
0.0
  0
LINE
  5
60
330
A
100
AcDbEntity
  8
PV
  6
Continuous
 62
     7
100
AcDbLine
 10
-29.033
 20
-44.308
 30
0.0
 11
-28.414
 21
-42.0
 31
0.0
  0
LINE
  5
61
330
A
100
AcDbEntity
  8
PV
  6
Continuous
 62
     7
100
AcDbLine
 10
-28.414
 20
-42.0
 30
0.0
 11
-27.796
 21
-44.308
 31
0.0
  0
LINE
  5
62
330
A
100
AcDbEntity
  8
PV
  6
Continuous
 62
     7
100
AcDbLine
 10
-28.414
 20
-42.0
 30
0.0
 11
-28.414
 21
-44.308
 31
0.0
  0
LINE
  5
63
330
A
100
AcDbEntity
  8
PV
  6
Continuous
 62
     7
100
AcDbLine
 10
-27.796
 20
-132.692
 30
0.0
 11
-28.414
 21
-135.0
 31
0.0
  0
LINE
  5
64
330
A
100
AcDbEntity
  8
PV
  6
Continuous
 62
     7
100
AcDbLine
 10
-28.414
 20
-135.0
 30
0.0
 11
-29.033
 21
-132.692
 31
0.0
  0
LINE
  5
65
330
A
100
AcDbEntity
  8
PV
  6
Continuous
 62
     7
100
AcDbLine
 10
-28.414
 20
-135.0
 30
0.0
 11
-28.414
 21
-132.692
 31
0.0
  0
LINE
  5
66
330
A
100
AcDbEntity
  8
PV
  6
Continuous
 62
     7
100
AcDbLine
 10
-28.414
 20
-42.0
 30
0.0
 11
-28.414
 21
-135.0
 31
0.0
  0
LINE
  5
67
330
A
100
AcDbEntity
  8
PV
  6
Continuous
 62
     7
100
AcDbLine
 10
-45.383
 20
-42.0
 30
0.0
 11
-26.128
 21
-42.0
 31
0.0
  0
MTEXT
  5
68
330
A
100
AcDbEntity
  8
PV
  6
Continuous
 62
     7
100
AcDbMText
 10
-35.970168
 20
-88.49999999999999
 30
0.0
 40
5.5
 41
0.0
 71
     2
 72
     1
  1
\W0.952;\A1;93
 11
0.0
 21
1.0
 31
0.0
 73
     1
 44
1.0
  0
POINT
  5
69
330
A
100
AcDbEntity
  8
PV
  6
Continuous
 62
     7
100
AcDbPoint
 10
-47.5
 20
-42.0
 30
0.0
  0
POINT
  5
6A
330
A
100
AcDbEntity
  8
PV
  6
Continuous
 62
     7
100
AcDbPoint
 10
-60.0
 20
-135.0
 30
0.0
  0
POINT
  5
6B
330
A
100
AcDbEntity
  8
PV
  6
Continuous
 62
     7
100
AcDbPoint
 10
-28.414
 20
-135.0
 30
0.0
  0
LINE
  5
6C
330
A
100
AcDbEntity
  8
PV
  6
Continuous
 62
     7
100
AcDbLine
 10
-14.264
 20
4.192
 30
0.0
 11
-13.645
 21
6.5
 31
0.0
  0
LINE
  5
6D
330
A
100
AcDbEntity
  8
PV
  6
Continuous
 62
     7
100
AcDbLine
 10
-13.645
 20
6.5
 30
0.0
 11
-13.027
 21
4.192
 31
0.0
  0
LINE
  5
6E
330
A
100
AcDbEntity
  8
PV
  6
Continuous
 62
     7
100
AcDbLine
 10
-13.645
 20
6.5
 30
0.0
 11
-13.645
 21
4.192
 31
0.0
  0
LINE
  5
6F
330
A
100
AcDbEntity
  8
PV
  6
Continuous
 62
     7
100
AcDbLine
 10
-13.027
 20
-132.692
 30
0.0
 11
-13.645
 21
-135.0
 31
0.0
  0
LINE
  5
70
330
A
100
AcDbEntity
  8
PV
  6
Continuous
 62
     7
100
AcDbLine
 10
-13.645
 20
-135.0
 30
0.0
 11
-14.264
 21
-132.692
 31
0.0
  0
LINE
  5
71
330
A
100
AcDbEntity
  8
PV
  6
Continuous
 62
     7
100
AcDbLine
 10
-13.645
 20
-135.0
 30
0.0
 11
-13.645
 21
-132.692
 31
0.0
  0
LINE
  5
72
330
A
100
AcDbEntity
  8
PV
  6
Continuous
 62
     7
100
AcDbLine
 10
-13.645
 20
6.5
 30
0.0
 11
-13.645
 21
-135.0
 31
0.0
  0
LINE
  5
73
330
A
100
AcDbEntity
  8
PV
  6
Continuous
 62
     7
100
AcDbLine
 10
-45.383
 20
6.5
 30
0.0
 11
-11.359
 21
6.5
 31
0.0
  0
LINE
  5
74
330
A
100
AcDbEntity
  8
PV
  6
Continuous
 62
     7
100
AcDbLine
 10
-57.883
 20
-135.0
 30
0.0
 11
-11.359
 21
-135.0
 31
0.0
  0
MTEXT
  5
75
330
A
100
AcDbEntity
  8
PV
  6
Continuous
 62
     7
100
AcDbMText
 10
-21.20116799999999
 20
-63.103
 30
0.0
 40
5.5
 41
0.0
 71
     2
 72
     1
  1
\A1;141.5
 11
0.0
 21
1.0
 31
0.0
 73
     1
 44
1.0
  0
POINT
  5
76
330
A
100
AcDbEntity
  8
PV
  6
Continuous
 62
     7
100
AcDbPoint
 10
-47.5
 20
6.5
 30
0.0
  0
POINT
  5
77
330
A
100
AcDbEntity
  8
PV
  6
Continuous
 62
     7
100
AcDbPoint
 10
-60.0
 20
-135.0
 30
0.0
  0
POINT
  5
78
330
A
100
AcDbEntity
  8
PV
  6
Continuous
 62
     7
100
AcDbPoint
 10
-13.645
 20
-135.0
 30
0.0
  0
LINE
  5
79
330
A
100
AcDbEntity
  8
PV
  6
Continuous
 62
     7
100
AcDbLine
 10
-104.692
 20
-63.67399999999999
 30
0.0
 11
-107.0
 21
-63.056
 31
0.0
  0
LINE
  5
7A
330
A
100
AcDbEntity
  8
PV
  6
Continuous
 62
     7
100
AcDbLine
 10
-107.0
 20
-63.056
 30
0.0
 11
-104.692
 21
-62.437
 31
0.0
  0
LINE
  5
7B
330
A
100
AcDbEntity
  8
PV
  6
Continuous
 62
     7
100
AcDbLine
 10
-107.0
 20
-63.056
 30
0.0
 11
-104.692
 21
-63.056
 31
0.0
  0
LINE
  5
7C
330
A
100
AcDbEntity
  8
PV
  6
Continuous
 62
     7
100
AcDbLine
 10
-55.308
 20
-62.437
 30
0.0
 11
-53.0
 21
-63.056
 31
0.0
  0
LINE
  5
7D
330
A
100
AcDbEntity
  8
PV
  6
Continuous
 62
     7
100
AcDbLine
 10
-53.0
 20
-63.056
 30
0.0
 11
-55.308
 21
-63.67399999999999
 31
0.0
  0
LINE
  5
7E
330
A
100
AcDbEntity
  8
PV
  6
Continuous
 62
     7
100
AcDbLine
 10
-53.0
 20
-63.056
 30
0.0
 11
-55.308
 21
-63.056
 31
0.0
  0
LINE
  5
7F
330
A
100
AcDbEntity
  8
PV
  6
Continuous
 62
     7
100
AcDbLine
 10
-107.0
 20
-63.056
 30
0.0
 11
-53.0
 21
-63.056
 31
0.0
  0
MTEXT
  5
80
330
A
100
AcDbEntity
  8
PV
  6
Continuous
 62
     7
100
AcDbMText
 10
-69.72199999999999
 20
-55.499833
 30
0.0
 40
5.5
 41
0.0
 71
     2
 72
     1
  1
\T0.871;\W1.115;\A1;\U+220554
 73
     1
 44
1.0
  0
POINT
  5
81
330
A
100
AcDbEntity
  8
PV
  6
Continuous
 62
     7
100
AcDbPoint
 10
-107.0
 20
-98.59999999999999
 30
0.0
  0
POINT
  5
82
330
A
100
AcDbEntity
  8
PV
  6
Continuous
 62
     7
100
AcDbPoint
 10
-53.0
 20
-108.0
 30
0.0
  0
POINT
  5
83
330
A
100
AcDbEntity
  8
PV
  6
Continuous
 62
     7
100
AcDbPoint
 10
-53.0
 20
-63.056
 30
0.0
  0
LINE
  5
84
330
A
100
AcDbEntity
  8
PV
  6
Continuous
 62
     7
100
AcDbLine
 10
-154.235
 20
-132.692
 30
0.0
 11
-154.8529999999999
 21
-135.0
 31
0.0
  0
LINE
  5
85
330
A
100
AcDbEntity
  8
PV
  6
Continuous
 62
     7
100
AcDbLine
 10
-154.8529999999999
 20
-135.0
 30
0.0
 11
-155.472
 21
-132.692
 31
0.0
  0
LINE
  5
86
330
A
100
AcDbEntity
  8
PV
  6
Continuous
 62
     7
100
AcDbLine
 10
-154.8529999999999
 20
-135.0
 30
0.0
 11
-154.8529999999999
 21
-132.692
 31
0.0
  0
LINE
  5
87
330
A
100
AcDbEntity
  8
PV
  6
Continuous
 62
     7
100
AcDbLine
 10
-155.472
 20
-87.308
 30
0.0
 11
-154.8529999999999
 21
-85.0
 31
0.0
  0
LINE
  5
88
330
A
100
AcDbEntity
  8
PV
  6
Continuous
 62
     7
100
AcDbLine
 10
-154.8529999999999
 20
-85.0
 30
0.0
 11
-154.235
 21
-87.308
 31
0.0
  0
LINE
  5
89
330
A
100
AcDbEntity
  8
PV
  6
Continuous
 62
     7
100
AcDbLine
 10
-154.8529999999999
 20
-85.0
 30
0.0
 11
-154.8529999999999
 21
-87.308
 31
0.0
  0
LINE
  5
8A
330
A
100
AcDbEntity
  8
PV
  6
Continuous
 62
     7
100
AcDbLine
 10
-154.8529999999999
 20
-135.0
 30
0.0
 11
-154.8529999999999
 21
-85.0
 31
0.0
  0
LINE
  5
8B
330
A
100
AcDbEntity
  8
PV
  6
Continuous
 62
     7
100
AcDbLine
 10
-102.976635
 20
-135.0
 30
0.0
 11
-157.139
 21
-135.0
 31
0.0
  0
LINE
  5
8C
330
A
100
AcDbEntity
  8
PV
  6
Continuous
 62
     7
100
AcDbLine
 10
-143.5027979999999
 20
-85.0
 30
0.0
 11
-157.139
 21
-85.0
 31
0.0
  0
MTEXT
  5
8D
330
A
100
AcDbEntity
  8
PV
  6
Continuous
 62
     7
100
AcDbMText
 10
-162.409167
 20
-110.0
 30
0.0
 40
5.5
 41
0.0
 71
     2
 72
     1
  1
\T1.200;\W0.924;\A1;50
 11
0.0
 21
1.0
 31
0.0
 73
     1
 44
1.0
  0
POINT
  5
8E
330
A
100
AcDbEntity
  8
PV
  6
Continuous
 62
     7
100
AcDbPoint
 10
-100.0
 20
-135.0
 30
0.0
  0
POINT
  5
8F
330
A
100
AcDbEntity
  8
PV
  6
Continuous
 62
     7
100
AcDbPoint
 10
-138.3879999999999
 20
-85.0
 30
0.0
  0
POINT
  5
90
330
A
100
AcDbEntity
  8
PV
  6
Continuous
 62
     7
100
AcDbPoint
 10
-154.8529999999999
 20
-85.0
 30
0.0
  0
LINE
  5
91
330
A
100
AcDbEntity
  8
PV
  6
Continuous
 62
     7
100
AcDbLine
 10
-140.2149999999999
 20
-102.692
 30
0.0
 11
-140.833
 21
-105.0
 31
0.0
  0
LINE
  5
92
330
A
100
AcDbEntity
  8
PV
  6
Continuous
 62
     7
100
AcDbLine
 10
-140.833
 20
-105.0
 30
0.0
 11
-141.4519999999999
 21
-102.692
 31
0.0
  0
LINE
  5
93
330
A
100
AcDbEntity
  8
PV
  6
Continuous
 62
     7
100
AcDbLine
 10
-140.833
 20
-105.0
 30
0.0
 11
-140.833
 21
-102.692
 31
0.0
  0
LINE
  5
94
330
A
100
AcDbEntity
  8
PV
  6
Continuous
 62
     7
100
AcDbLine
 10
-141.4519999999999
 20
-67.30800000000001
 30
0.0
 11
-140.833
 21
-65.0
 31
0.0
  0
LINE
  5
95
330
A
100
AcDbEntity
  8
PV
  6
Continuous
 62
     7
100
AcDbLine
 10
-140.833
 20
-65.0
 30
0.0
 11
-140.2149999999999
 21
-67.30800000000001
 31
0.0
  0
LINE
  5
96
330
A
100
AcDbEntity
  8
PV
  6
Continuous
 62
     7
100
AcDbLine
 10
-140.833
 20
-65.0
 30
0.0
 11
-140.833
 21
-67.30800000000001
 31
0.0
  0
LINE
  5
97
330
A
100
AcDbEntity
  8
PV
  6
Continuous
 62
     7
100
AcDbLine
 10
-140.833
 20
-105.0
 30
0.0
 11
-140.833
 21
-65.0
 31
0.0
  0
LINE
  5
98
330
A
100
AcDbEntity
  8
PV
  6
Continuous
 62
     7
100
AcDbLine
 10
-132.117
 20
-105.0
 30
0.0
 11
-142.738
 21
-105.0
 31
0.0
  0
LINE
  5
99
330
A
100
AcDbEntity
  8
PV
  6
Continuous
 62
     7
100
AcDbLine
 10
-132.117
 20
-65.0
 30
0.0
 11
-142.738
 21
-65.0
 31
0.0
  0
MTEXT
  5
9A
330
A
100
AcDbEntity
  8
PV
  6
Continuous
 62
     7
100
AcDbMText
 10
-148.389167
 20
-75.0
 30
0.0
 40
5.5
 41
0.0
 71
     2
 72
     1
  1
\T1.024;\A1;\U+220540
 11
0.0
 21
1.0
 31
0.0
 73
     1
 44
1.0
  0
POINT
  5
9B
330
A
100
AcDbEntity
  8
PV
  6
Continuous
 62
     7
100
AcDbPoint
 10
-130.0
 20
-105.0
 30
0.0
  0
POINT
  5
9C
330
A
100
AcDbEntity
  8
PV
  6
Continuous
 62
     7
100
AcDbPoint
 10
-130.0
 20
-65.0
 30
0.0
  0
POINT
  5
9D
330
A
100
AcDbEntity
  8
PV
  6
Continuous
 62
     7
100
AcDbPoint
 10
-140.833
 20
-65.0
 30
0.0
  0
LINE
  5
9E
330
A
100
AcDbEntity
  8
PV
  6
Continuous
 62
     7
100
AcDbLine
 10
-82.308
 20
-156.381
 30
0.0
 11
-80.0
 21
-157.0
 31
0.0
  0
LINE
  5
9F
330
A
100
AcDbEntity
  8
PV
  6
Continuous
 62
     7
100
AcDbLine
 10
-80.0
 20
-157.0
 30
0.0
 11
-82.308
 21
-157.6189999999999
 31
0.0
  0
LINE
  5
A0
330
A
100
AcDbEntity
  8
PV
  6
Continuous
 62
     7
100
AcDbLine
 10
-80.0
 20
-157.0
 30
0.0
 11
-82.308
 21
-157.0
 31
0.0
  0
LINE
  5
A1
330
A
100
AcDbEntity
  8
PV
  6
Continuous
 62
     7
100
AcDbLine
 10
-127.692
 20
-157.6189999999999
 30
0.0
 11
-130.0
 21
-157.0
 31
0.0
  0
LINE
  5
A2
330
A
100
AcDbEntity
  8
PV
  6
Continuous
 62
     7
100
AcDbLine
 10
-130.0
 20
-157.0
 30
0.0
 11
-127.692
 21
-156.381
 31
0.0
  0
LINE
  5
A3
330
A
100
AcDbEntity
  8
PV
  6
Continuous
 62
     7
100
AcDbLine
 10
-130.0
 20
-157.0
 30
0.0
 11
-127.692
 21
-157.0
 31
0.0
  0
LINE
  5
A4
330
A
100
AcDbEntity
  8
PV
  6
Continuous
 62
     7
100
AcDbLine
 10
-80.0
 20
-157.0
 30
0.0
 11
-130.0
 21
-157.0
 31
0.0
  0
LINE
  5
A5
330
A
100
AcDbEntity
  8
PV
  6
Continuous
 62
     7
100
AcDbLine
 10
-80.0
 20
-144.8786519999999
 30
0.0
 11
-80.0
 21
-158.905
 31
0.0
  0
LINE
  5
A6
330
A
100
AcDbEntity
  8
PV
  6
Continuous
 62
     7
100
AcDbLine
 10
-130.0
 20
-107.3540649999999
 30
0.0
 11
-130.0
 21
-158.905
 31
0.0
  0
MTEXT
  5
A7
330
A
100
AcDbEntity
  8
PV
  6
Continuous
 62
     7
100
AcDbMText
 10
-105.0
 20
-149.443832
 30
0.0
 40
5.5
 41
0.0
 71
     2
 72
     1
  1
\A1;50
 73
     1
 44
1.0
  0
POINT
  5
A8
330
A
100
AcDbEntity
  8
PV
  6
Continuous
 62
     7
100
AcDbPoint
 10
-80.0
 20
-141.1599999999999
 30
0.0
  0
POINT
  5
A9
330
A
100
AcDbEntity
  8
PV
  6
Continuous
 62
     7
100
AcDbPoint
 10
-130.0
 20
-105.0
 30
0.0
  0
POINT
  5
AA
330
A
100
AcDbEntity
  8
PV
  6
Continuous
 62
     7
100
AcDbPoint
 10
-130.0
 20
-157.0
 30
0.0
  0
LINE
  5
AB
330
A
100
AcDbEntity
  8
PV
  6
Continuous
 62
     7
100
AcDbLine
 10
-62.308
 20
-146.381
 30
0.0
 11
-60.0
 21
-147.0
 31
0.0
  0
LINE
  5
AC
330
A
100
AcDbEntity
  8
PV
  6
Continuous
 62
     7
100
AcDbLine
 10
-60.0
 20
-147.0
 30
0.0
 11
-62.308
 21
-147.619
 31
0.0
  0
LINE
  5
AD
330
A
100
AcDbEntity
  8
PV
  6
Continuous
 62
     7
100
AcDbLine
 10
-60.0
 20
-147.0
 30
0.0
 11
-62.308
 21
-147.0
 31
0.0
  0
LINE
  5
AE
330
A
100
AcDbEntity
  8
PV
  6
Continuous
 62
     7
100
AcDbLine
 10
-97.69200000000001
 20
-147.619
 30
0.0
 11
-100.0
 21
-147.0
 31
0.0
  0
LINE
  5
AF
330
A
100
AcDbEntity
  8
PV
  6
Continuous
 62
     7
100
AcDbLine
 10
-100.0
 20
-147.0
 30
0.0
 11
-97.69200000000001
 21
-146.381
 31
0.0
  0
LINE
  5
B0
330
A
100
AcDbEntity
  8
PV
  6
Continuous
 62
     7
100
AcDbLine
 10
-100.0
 20
-147.0
 30
0.0
 11
-97.69200000000001
 21
-147.0
 31
0.0
  0
LINE
  5
B1
330
A
100
AcDbEntity
  8
PV
  6
Continuous
 62
     7
100
AcDbLine
 10
-60.0
 20
-147.0
 30
0.0
 11
-100.0
 21
-147.0
 31
0.0
  0
LINE
  5
B2
330
A
100
AcDbEntity
  8
PV
  6
Continuous
 62
     7
100
AcDbLine
 10
-60.0
 20
-136.791456
 30
0.0
 11
-60.0
 21
-148.9049999999999
 31
0.0
  0
LINE
  5
B3
330
A
100
AcDbEntity
  8
PV
  6
Continuous
 62
     7
100
AcDbLine
 10
-100.0
 20
-136.791456
 30
0.0
 11
-100.0
 21
-148.9049999999999
 31
0.0
  0
MTEXT
  5
B4
330
A
100
AcDbEntity
  8
PV
  6
Continuous
 62
     7
100
AcDbMText
 10
-70.0
 20
-139.443833
 30
0.0
 40
5.5
 41
0.0
 71
     2
 72
     1
  1
\T1.024;\A1;\U+220540
 73
     1
 44
1.0
  0
POINT
  5
B5
330
A
100
AcDbEntity
  8
PV
  6
Continuous
 62
     7
100
AcDbPoint
 10
-60.0
 20
-135.0
 30
0.0
  0
POINT
  5
B6
330
A
100
AcDbEntity
  8
PV
  6
Continuous
 62
     7
100
AcDbPoint
 10
-100.0
 20
-135.0
 30
0.0
  0
POINT
  5
B7
330
A
100
AcDbEntity
  8
PV
  6
Continuous
 62
     7
100
AcDbPoint
 10
-100.0
 20
-147.0
 30
0.0
  0
LINE
  5
B8
330
A
100
AcDbEntity
  8
PV
  6
Continuous
 62
     7
100
AcDbLine
 10
-29.033
 20
119.0179999999999
 30
0.0
 11
-28.414
 21
121.327
 31
0.0
  0
LINE
  5
B9
330
A
100
AcDbEntity
  8
PV
  6
Continuous
 62
     7
100
AcDbLine
 10
-28.414
 20
121.327
 30
0.0
 11
-27.796
 21
119.0179999999999
 31
0.0
  0
LINE
  5
BA
330
A
100
AcDbEntity
  8
PV
  6
Continuous
 62
     7
100
AcDbLine
 10
-28.414
 20
121.327
 30
0.0
 11
-28.414
 21
119.0179999999999
 31
0.0
  0
LINE
  5
BB
330
A
100
AcDbEntity
  8
PV
  6
Continuous
 62
     7
100
AcDbLine
 10
-27.796
 20
64.635
 30
0.0
 11
-28.414
 21
62.327
 31
0.0
  0
LINE
  5
BC
330
A
100
AcDbEntity
  8
PV
  6
Continuous
 62
     7
100
AcDbLine
 10
-28.414
 20
62.327
 30
0.0
 11
-29.033
 21
64.635
 31
0.0
  0
LINE
  5
BD
330
A
100
AcDbEntity
  8
PV
  6
Continuous
 62
     7
100
AcDbLine
 10
-28.414
 20
62.327
 30
0.0
 11
-28.414
 21
64.635
 31
0.0
  0
LINE
  5
BE
330
A
100
AcDbEntity
  8
PV
  6
Continuous
 62
     7
100
AcDbLine
 10
-28.414
 20
121.327
 30
0.0
 11
-28.414
 21
62.327
 31
0.0
  0
LINE
  5
BF
330
A
100
AcDbEntity
  8
PV
  6
Continuous
 62
     7
100
AcDbLine
 10
-52.374
 20
121.327
 30
0.0
 11
-26.509
 21
121.327
 31
0.0
  0
LINE
  5
C0
330
A
100
AcDbEntity
  8
PV
  6
Continuous
 62
     7
100
AcDbLine
 10
-52.374
 20
62.327
 30
0.0
 11
-26.509
 21
62.327
 31
0.0
  0
MTEXT
  5
C1
330
A
100
AcDbEntity
  8
PV
  6
Continuous
 62
     7
100
AcDbMText
 10
-35.97016699999999
 20
91.82700000000002
 30
0.0
 40
5.5
 41
0.0
 71
     2
 72
     1
  1
\T0.823;\W1.177;\A1;□59
 11
0.0
 21
1.0
 31
0.0
 73
     1
 44
1.0
  0
POINT
  5
C2
330
A
100
AcDbEntity
  8
PV
  6
Continuous
 62
     7
100
AcDbPoint
 10
-54.49
 20
121.327
 30
0.0
  0
POINT
  5
C3
330
A
100
AcDbEntity
  8
PV
  6
Continuous
 62
     7
100
AcDbPoint
 10
-54.49
 20
62.327
 30
0.0
  0
POINT
  5
C4
330
A
100
AcDbEntity
  8
PV
  6
Continuous
 62
     7
100
AcDbPoint
 10
-28.414
 20
62.327
 30
0.0
  0
CIRCLE
  5
C5
330
A
100
AcDbEntity
  8
PV
  6
Continuous
 62
     7
100
AcDbCircle
 10
-57.5
 20
69.327
 30
0.0
 40
4.306999999999999
  0
CIRCLE
  5
C6
330
A
100
AcDbEntity
  8
PV
  6
Continuous
 62
     7
100
AcDbCircle
 10
-57.5
 20
69.327
 30
0.0
 40
5.0
  0
LINE
  5
C7
330
A
100
AcDbEntity
  8
PV
  6
Continuous
 62
     7
100
AcDbLine
 10
-57.5
 20
72.21300000000001
 30
0.0
 11
-60.0
 21
70.76999999999999
 31
0.0
  0
LINE
  5
C8
330
A
100
AcDbEntity
  8
PV
  6
Continuous
 62
     7
100
AcDbLine
 10
-55.0
 20
67.88299999999999
 30
0.0
 11
-57.5
 21
66.44
 31
0.0
  0
LINE
  5
C9
330
A
100
AcDbEntity
  8
PV
  6
Continuous
 62
     7
100
AcDbLine
 10
-60.0
 20
70.76999999999999
 30
0.0
 11
-60.0
 21
67.88299999999999
 31
0.0
  0
LINE
  5
CA
330
A
100
AcDbEntity
  8
PV
  6
Continuous
 62
     7
100
AcDbLine
 10
-55.0
 20
70.76999999999999
 30
0.0
 11
-55.0
 21
67.88299999999999
 31
0.0
  0
LINE
  5
CB
330
A
100
AcDbEntity
  8
PV
  6
Continuous
 62
     7
100
AcDbLine
 10
-55.0
 20
70.76999999999999
 30
0.0
 11
-57.5
 21
72.21300000000001
 31
0.0
  0
LINE
  5
CC
330
A
100
AcDbEntity
  8
PV
  6
Continuous
 62
     7
100
AcDbLine
 10
-57.5
 20
66.44
 30
0.0
 11
-60.0
 21
67.88299999999999
 31
0.0
  0
CIRCLE
  5
CD
330
A
100
AcDbEntity
  8
PV
  6
Continuous
 62
     7
100
AcDbCircle
 10
-57.5
 20
114.327
 30
0.0
 40
4.306999999999999
  0
CIRCLE
  5
CE
330
A
100
AcDbEntity
  8
PV
  6
Continuous
 62
     7
100
AcDbCircle
 10
-57.5
 20
114.327
 30
0.0
 40
5.0
  0
LINE
  5
CF
330
A
100
AcDbEntity
  8
PV
  6
Continuous
 62
     7
100
AcDbLine
 10
-57.5
 20
117.2129999999999
 30
0.0
 11
-55.0
 21
115.7699999999999
 31
0.0
  0
LINE
  5
D0
330
A
100
AcDbEntity
  8
PV
  6
Continuous
 62
     7
100
AcDbLine
 10
-60.0
 20
112.883
 30
0.0
 11
-57.5
 21
111.44
 31
0.0
  0
LINE
  5
D1
330
A
100
AcDbEntity
  8
PV
  6
Continuous
 62
     7
100
AcDbLine
 10
-55.0
 20
115.7699999999999
 30
0.0
 11
-55.0
 21
112.883
 31
0.0
  0
LINE
  5
D2
330
A
100
AcDbEntity
  8
PV
  6
Continuous
 62
     7
100
AcDbLine
 10
-60.0
 20
115.7699999999999
 30
0.0
 11
-60.0
 21
112.883
 31
0.0
  0
LINE
  5
D3
330
A
100
AcDbEntity
  8
PV
  6
Continuous
 62
     7
100
AcDbLine
 10
-60.0
 20
115.7699999999999
 30
0.0
 11
-57.5
 21
117.2129999999999
 31
0.0
  0
LINE
  5
D4
330
A
100
AcDbEntity
  8
PV
  6
Continuous
 62
     7
100
AcDbLine
 10
-57.5
 20
111.44
 30
0.0
 11
-55.0
 21
112.883
 31
0.0
  0
CIRCLE
  5
D5
330
A
100
AcDbEntity
  8
PV
  6
Continuous
 62
     7
100
AcDbCircle
 10
-102.4999999999999
 20
114.327
 30
0.0
 40
4.306999999999999
  0
CIRCLE
  5
D6
330
A
100
AcDbEntity
  8
PV
  6
Continuous
 62
     7
100
AcDbCircle
 10
-102.4999999999999
 20
114.327
 30
0.0
 40
5.0
  0
LINE
  5
D7
330
A
100
AcDbEntity
  8
PV
  6
Continuous
 62
     7
100
AcDbLine
 10
-102.4999999999999
 20
117.2129999999999
 30
0.0
 11
-100.0
 21
115.7699999999999
 31
0.0
  0
LINE
  5
D8
330
A
100
AcDbEntity
  8
PV
  6
Continuous
 62
     7
100
AcDbLine
 10
-105.0
 20
112.883
 30
0.0
 11
-102.4999999999999
 21
111.44
 31
0.0
  0
LINE
  5
D9
330
A
100
AcDbEntity
  8
PV
  6
Continuous
 62
     7
100
AcDbLine
 10
-100.0
 20
115.7699999999999
 30
0.0
 11
-100.0
 21
112.883
 31
0.0
  0
LINE
  5
DA
330
A
100
AcDbEntity
  8
PV
  6
Continuous
 62
     7
100
AcDbLine
 10
-105.0
 20
115.7699999999999
 30
0.0
 11
-105.0
 21
112.883
 31
0.0
  0
LINE
  5
DB
330
A
100
AcDbEntity
  8
PV
  6
Continuous
 62
     7
100
AcDbLine
 10
-105.0
 20
115.7699999999999
 30
0.0
 11
-102.4999999999999
 21
117.2129999999999
 31
0.0
  0
LINE
  5
DC
330
A
100
AcDbEntity
  8
PV
  6
Continuous
 62
     7
100
AcDbLine
 10
-102.4999999999999
 20
111.44
 30
0.0
 11
-100.0
 21
112.883
 31
0.0
  0
CIRCLE
  5
DD
330
A
100
AcDbEntity
  8
PV
  6
Continuous
 62
     7
100
AcDbCircle
 10
-102.4999999999999
 20
69.327
 30
0.0
 40
4.306999999999999
  0
CIRCLE
  5
DE
330
A
100
AcDbEntity
  8
PV
  6
Continuous
 62
     7
100
AcDbCircle
 10
-102.4999999999999
 20
69.327
 30
0.0
 40
5.0
  0
LINE
  5
DF
330
A
100
AcDbEntity
  8
PV
  6
Continuous
 62
     7
100
AcDbLine
 10
-102.4999999999999
 20
72.21300000000001
 30
0.0
 11
-100.0
 21
70.76999999999999
 31
0.0
  0
LINE
  5
E0
330
A
100
AcDbEntity
  8
PV
  6
Continuous
 62
     7
100
AcDbLine
 10
-105.0
 20
67.88299999999999
 30
0.0
 11
-102.4999999999999
 21
66.44
 31
0.0
  0
LINE
  5
E1
330
A
100
AcDbEntity
  8
PV
  6
Continuous
 62
     7
100
AcDbLine
 10
-100.0
 20
70.76999999999999
 30
0.0
 11
-100.0
 21
67.88299999999999
 31
0.0
  0
LINE
  5
E2
330
A
100
AcDbEntity
  8
PV
  6
Continuous
 62
     7
100
AcDbLine
 10
-105.0
 20
70.76999999999999
 30
0.0
 11
-105.0
 21
67.88299999999999
 31
0.0
  0
LINE
  5
E3
330
A
100
AcDbEntity
  8
PV
  6
Continuous
 62
     7
100
AcDbLine
 10
-105.0
 20
70.76999999999999
 30
0.0
 11
-102.4999999999999
 21
72.21300000000001
 31
0.0
  0
LINE
  5
E4
330
A
100
AcDbEntity
  8
PV
  6
Continuous
 62
     7
100
AcDbLine
 10
-102.4999999999999
 20
66.44
 30
0.0
 11
-100.0
 21
67.88299999999999
 31
0.0
  0
LWPOLYLINE
  5
E5
330
A
100
AcDbEntity
  8
PV
  6
Continuous
 62
     7
100
AcDbPolyline
 90
      137
 70
     0
 43
0.0
 10
-87.93600000000001
 20
96.85299999999999
 10
-87.946
 20
96.88200000000001
 10
-87.97
 20
96.94600000000001
 10
-87.99600000000001
 20
97.009
 10
-88.025
 20
97.07
 10
-88.056
 20
97.13
 10
-88.09000000000001
 20
97.18799999999999
 10
-88.12600000000001
 20
97.24400000000001
 10
-88.16399999999999
 20
97.29799999999999
 10
-88.20399999999999
 20
97.34999999999999
 10
-88.24600000000001
 20
97.40000000000001
 10
-88.291
 20
97.44799999999999
 10
-88.337
 20
97.49299999999999
 10
-88.38500000000001
 20
97.536
 10
-88.434
 20
97.57700000000001
 10
-88.48600000000001
 20
97.61499999999999
 10
-88.53799999999999
 20
97.65
 10
-88.59299999999999
 20
97.68299999999999
 10
-88.648
 20
97.713
 10
-88.70499999999999
 20
97.74
 10
-88.76299999999998
 20
97.764
 10
-88.822
 20
97.786
 10
-88.88099999999999
 20
97.804
 10
-88.94200000000001
 20
97.82
 10
-89.00299999999999
 20
97.832
 10
-89.06499999999999
 20
97.84100000000002
 10
-89.127
 20
97.847
 10
-89.18899999999998
 20
97.85099999999999
 10
-89.25200000000002
 20
97.85099999999999
 10
-89.31499999999999
 20
97.848
 10
-89.37700000000001
 20
97.84200000000002
 10
-89.44
 20
97.833
 10
-89.502
 20
97.82
 10
-89.56299999999998
 20
97.80500000000001
 10
-89.625
 20
97.787
 10
-89.685
 20
97.76600000000001
 10
-89.745
 20
97.742
 10
-89.80400000000001
 20
97.71500000000001
 10
-89.86200000000001
 20
97.68500000000001
 10
-89.91899999999999
 20
97.652
 10
-89.97399999999998
 20
97.61700000000001
 10
-90.029
 20
97.57899999999999
 10
-90.082
 20
97.53900000000001
 10
-90.13299999999999
 20
97.496
 10
-90.18299999999999
 20
97.45
 10
-90.23100000000001
 20
97.40299999999999
 10
-90.27700000000001
 20
97.353
 10
-90.32099999999999
 20
97.301
 10
-90.36399999999998
 20
97.24700000000002
 10
-90.40399999999999
 20
97.191
 10
-90.44200000000001
 20
97.133
 10
-90.478
 20
97.073
 10
-90.51199999999999
 20
97.012
 10
-90.54299999999999
 20
96.95
 10
-90.57199999999999
 20
96.886
 10
-90.59899999999998
 20
96.82
 10
-90.62299999999998
 20
96.75399999999999
 10
-90.645
 20
96.68700000000001
 10
-90.66399999999999
 20
96.61799999999999
 10
-90.68000000000001
 20
96.54899999999999
 10
-90.69399999999999
 20
96.48000000000001
 10
-90.70399999999999
 20
96.41
 10
-90.71299999999999
 20
96.339
 10
-90.71799999999999
 20
96.26899999999999
 10
-90.721
 20
96.19799999999999
 10
-90.721
 20
96.128
 10
-90.71899999999999
 20
96.057
 10
-90.71299999999999
 20
95.987
 10
-90.705
 20
95.91799999999999
 10
-90.69399999999999
 20
95.84899999999999
 10
-90.68099999999999
 20
95.78000000000001
 10
-90.66500000000001
 20
95.71299999999999
 10
-90.646
 20
95.646
 10
-90.625
 20
95.58100000000001
 10
-90.601
 20
95.51700000000002
 10
-90.57399999999999
 20
95.45399999999998
 10
-90.545
 20
95.39299999999999
 10
-90.51399999999999
 20
95.334
 10
-90.48100000000001
 20
95.27600000000001
 10
-90.44499999999999
 20
95.219
 10
-90.40700000000001
 20
95.165
 10
-90.36599999999999
 20
95.113
 10
-90.324
 20
95.06299999999999
 10
-90.28
 20
95.015
 10
-90.234
 20
94.96999999999999
 10
-90.18600000000001
 20
94.92700000000001
 10
-90.13600000000002
 20
94.88600000000001
 10
-90.08499999999999
 20
94.84799999999999
 10
-90.03200000000001
 20
94.81299999999999
 10
-89.97799999999999
 20
94.77999999999999
 10
-89.92200000000002
 20
94.74999999999999
 10
-89.86600000000001
 20
94.723
 10
-89.808
 20
94.699
 10
-89.74899999999999
 20
94.677
 10
-89.68899999999999
 20
94.65899999999999
 10
-89.62899999999999
 20
94.64399999999999
 10
-89.56700000000001
 20
94.631
 10
-89.50599999999999
 20
94.62200000000001
 10
-89.44399999999999
 20
94.616
 10
-89.381
 20
94.61299999999999
 10
-89.319
 20
94.61200000000001
 10
-89.25600000000001
 20
94.61499999999999
 10
-89.19299999999999
 20
94.62200000000001
 10
-89.131
 20
94.631
 10
-89.069
 20
94.64299999999999
 10
-89.007
 20
94.65799999999999
 10
-88.946
 20
94.676
 10
-88.885
 20
94.69700000000001
 10
-88.825
 20
94.722
 10
-88.76700000000001
 20
94.748
 10
-88.709
 20
94.778
 10
-88.65199999999999
 20
94.81100000000001
 10
-88.596
 20
94.846
 10
-88.542
 20
94.884
 10
-88.48899999999998
 20
94.92399999999999
 10
-88.43799999999999
 20
94.96700000000002
 10
-88.38799999999999
 20
95.01299999999998
 10
-88.34000000000001
 20
95.06
 10
-88.29399999999999
 20
95.11000000000001
 10
-88.24899999999999
 20
95.16200000000001
 10
-88.207
 20
95.21600000000001
 10
-88.16599999999999
 20
95.272
 10
-88.12799999999999
 20
95.32999999999999
 10
-88.09200000000002
 20
95.38999999999999
 10
-88.05799999999999
 20
95.45100000000001
 10
-88.02699999999999
 20
95.51399999999999
 10
-87.99799999999999
 20
95.57799999999998
 10
-87.971
 20
95.64299999999999
 10
-87.947
 20
95.70899999999999
 10
-87.926
 20
95.777
 10
-87.90700000000001
 20
95.845
 10
-87.89100000000001
 20
95.914
 10
-87.877
 20
95.983
 10
-87.86599999999999
 20
96.05299999999999
 10
-87.858
 20
96.124
 10
-87.85200000000001
 20
96.194
 10
-87.85
 20
96.23200000000002
  0
ARC
  5
E6
330
A
100
AcDbEntity
  8
PV
  6
Continuous
 62
     7
100
AcDbCircle
 10
-62.45499999999999
 20
96.993
 30
0.0
 40
0.585
100
AcDbArc
 50
4.584908
 51
240.0678709999999
  0
ARC
  5
E7
330
A
100
AcDbEntity
  8
PV
  6
Continuous
 62
     7
100
AcDbCircle
 10
-62.45499999999999
 20
96.993
 30
0.0
 40
0.9099999999999999
100
AcDbArc
 50
14.70246199999999
 51
243.207545
  0
ARC
  5
E8
330
A
100
AcDbEntity
  8
PV
  6
Continuous
 62
     7
100
AcDbCircle
 10
-62.782
 20
95.47
 30
0.0
 40
0.585
100
AcDbArc
 50
184.58491
 51
53.886818
  0
ARC
  5
E9
330
A
100
AcDbEntity
  8
PV
  6
Continuous
 62
     7
100
AcDbCircle
 10
-62.782
 20
95.47
 30
0.0
 40
0.9099999999999999
100
AcDbArc
 50
194.702455
 51
58.91297
  0
LINE
  5
EA
330
A
100
AcDbEntity
  8
PV
  6
Continuous
 62
     7
100
AcDbLine
 10
-62.312
 20
96.25
 30
0.0
 11
-62.747
 21
96.48600000000001
 31
0.0
  0
LINE
  5
EB
330
A
100
AcDbEntity
  8
PV
  6
Continuous
 62
     7
100
AcDbLine
 10
-62.866
 20
96.18000000000002
 30
0.0
 11
-62.437
 21
95.943
 31
0.0
  0
LINE
  5
EC
330
A
100
AcDbEntity
  8
PV
  6
Continuous
 62
     7
100
AcDbLine
 10
-61.575
 20
97.224
 30
0.0
 11
-61.872
 21
97.039
 31
0.0
  0
LINE
  5
ED
330
A
100
AcDbEntity
  8
PV
  6
Continuous
 62
     7
100
AcDbLine
 10
-63.662
 20
95.23999999999999
 30
0.0
 11
-63.365
 21
95.42399999999998
 31
0.0
  0
LINE
  5
EE
330
A
100
AcDbEntity
  8
PV
  6
Continuous
 62
     7
100
AcDbLine
 10
-81.804
 20
97.53200000000001
 30
0.0
 11
-81.74600000000001
 21
97.85700000000002
 31
0.0
  0
LINE
  5
EF
330
A
100
AcDbEntity
  8
PV
  6
Continuous
 62
     7
100
AcDbLine
 10
-82.062
 20
96.06900000000001
 30
0.0
 11
-82.004
 21
96.394
 31
0.0
  0
LINE
  5
F0
330
A
100
AcDbEntity
  8
PV
  6
Continuous
 62
     7
100
AcDbLine
 10
-82.31900000000001
 20
94.607
 30
0.0
 11
-82.262
 21
94.93199999999999
 31
0.0
  0
LINE
  5
F1
330
A
100
AcDbEntity
  8
PV
  6
Continuous
 62
     7
100
AcDbLine
 10
-83.2
 20
96.394
 30
0.0
 11
-82.99899999999999
 21
97.53200000000001
 31
0.0
  0
LINE
  5
F2
330
A
100
AcDbEntity
  8
PV
  6
Continuous
 62
     7
100
AcDbLine
 10
-83.25700000000001
 20
96.06900000000001
 30
0.0
 11
-82.062
 21
96.06900000000001
 31
0.0
  0
LINE
  5
F3
330
A
100
AcDbEntity
  8
PV
  6
Continuous
 62
     7
100
AcDbLine
 10
-83.2
 20
96.394
 30
0.0
 11
-82.004
 21
96.394
 31
0.0
  0
LINE
  5
F4
330
A
100
AcDbEntity
  8
PV
  6
Continuous
 62
     7
100
AcDbLine
 10
-82.99899999999999
 20
97.53200000000001
 30
0.0
 11
-81.804
 21
97.53200000000001
 31
0.0
  0
LINE
  5
F5
330
A
100
AcDbEntity
  8
PV
  6
Continuous
 62
     7
100
AcDbLine
 10
-83.27200000000001
 20
97.85700000000002
 30
0.0
 11
-81.74600000000001
 21
97.85700000000002
 31
0.0
  0
LINE
  5
F6
330
A
100
AcDbEntity
  8
PV
  6
Continuous
 62
     7
100
AcDbLine
 10
-83.458
 20
94.93199999999999
 30
0.0
 11
-83.25700000000001
 21
96.06900000000001
 31
0.0
  0
LINE
  5
F7
330
A
100
AcDbEntity
  8
PV
  6
Continuous
 62
     7
100
AcDbLine
 10
-83.458
 20
94.93199999999999
 30
0.0
 11
-82.262
 21
94.93199999999999
 31
0.0
  0
LINE
  5
F8
330
A
100
AcDbEntity
  8
PV
  6
Continuous
 62
     7
100
AcDbLine
 10
-83.845
 20
94.607
 30
0.0
 11
-82.31900000000001
 21
94.607
 31
0.0
  0
LINE
  5
F9
330
A
100
AcDbEntity
  8
PV
  6
Continuous
 62
     7
100
AcDbLine
 10
-83.845
 20
94.607
 30
0.0
 11
-83.27200000000001
 21
97.85700000000002
 31
0.0
  0
LINE
  5
FA
330
A
100
AcDbEntity
  8
PV
  6
Continuous
 62
     7
100
AcDbLine
 10
-76.59699999999999
 20
97.85700000000002
 30
0.0
 11
-76.251
 21
97.85700000000002
 31
0.0
  0
LINE
  5
FB
330
A
100
AcDbEntity
  8
PV
  6
Continuous
 62
     7
100
AcDbLine
 10
-77.858
 20
94.607
 30
0.0
 11
-77.434
 21
94.607
 31
0.0
  0
LINE
  5
FC
330
A
100
AcDbEntity
  8
PV
  6
Continuous
 62
     7
100
AcDbLine
 10
-78.43099999999999
 20
97.85700000000002
 30
0.0
 11
-78.101
 21
97.85700000000002
 31
0.0
  0
LINE
  5
FD
330
A
100
AcDbEntity
  8
PV
  6
Continuous
 62
     7
100
AcDbLine
 10
-77.434
 20
94.607
 30
0.0
 11
-76.251
 21
97.85700000000002
 31
0.0
  0
LINE
  5
FE
330
A
100
AcDbEntity
  8
PV
  6
Continuous
 62
     7
100
AcDbLine
 10
-78.43099999999999
 20
97.85700000000002
 30
0.0
 11
-77.858
 21
94.607
 31
0.0
  0
LINE
  5
FF
330
A
100
AcDbEntity
  8
PV
  6
Continuous
 62
     7
100
AcDbLine
 10
-77.61
 20
95.07299999999998
 30
0.0
 11
-76.59699999999999
 21
97.85700000000002
 31
0.0
  0
LINE
  5
100
330
A
100
AcDbEntity
  8
PV
  6
Continuous
 62
     7
100
AcDbLine
 10
-78.101
 20
97.85700000000002
 30
0.0
 11
-77.61
 21
95.07299999999998
 31
0.0
  0
LINE
  5
101
330
A
100
AcDbEntity
  8
PV
  6
Continuous
 62
     7
100
AcDbLine
 10
-86.348
 20
97.85700000000002
 30
0.0
 11
-86.01799999999999
 21
97.85700000000002
 31
0.0
  0
LINE
  5
102
330
A
100
AcDbEntity
  8
PV
  6
Continuous
 62
     7
100
AcDbLine
 10
-85.13600000000002
 20
94.607
 30
0.0
 11
-85.07799999999999
 21
94.93199999999999
 31
0.0
  0
LINE
  5
103
330
A
100
AcDbEntity
  8
PV
  6
Continuous
 62
     7
100
AcDbLine
 10
-86.53399999999999
 20
94.93199999999999
 30
0.0
 11
-86.01799999999999
 21
97.85700000000002
 31
0.0
  0
LINE
  5
104
330
A
100
AcDbEntity
  8
PV
  6
Continuous
 62
     7
100
AcDbLine
 10
-86.53399999999999
 20
94.93199999999999
 30
0.0
 11
-85.07799999999999
 21
94.93199999999999
 31
0.0
  0
LINE
  5
105
330
A
100
AcDbEntity
  8
PV
  6
Continuous
 62
     7
100
AcDbLine
 10
-86.92100000000001
 20
94.607
 30
0.0
 11
-85.13600000000002
 21
94.607
 31
0.0
  0
LINE
  5
106
330
A
100
AcDbEntity
  8
PV
  6
Continuous
 62
     7
100
AcDbLine
 10
-86.92100000000001
 20
94.607
 30
0.0
 11
-86.348
 21
97.85700000000002
 31
0.0
  0
LINE
  5
107
330
A
100
AcDbEntity
  8
PV
  6
Continuous
 62
     7
100
AcDbLine
 10
-96.425
 20
95.294
 30
0.0
 11
-96.24
 21
94.607
 31
0.0
  0
LINE
  5
108
330
A
100
AcDbEntity
  8
PV
  6
Continuous
 62
     7
100
AcDbLine
 10
-97.62500000000001
 20
95.61899999999999
 30
0.0
 11
-96.98399999999999
 21
97.38100000000001
 31
0.0
  0
LINE
  5
109
330
A
100
AcDbEntity
  8
PV
  6
Continuous
 62
     7
100
AcDbLine
 10
-97.62500000000001
 20
95.61899999999999
 30
0.0
 11
-96.51200000000001
 21
95.61899999999999
 31
0.0
  0
LINE
  5
10A
330
A
100
AcDbEntity
  8
PV
  6
Continuous
 62
     7
100
AcDbLine
 10
-96.98399999999999
 20
97.38100000000001
 30
0.0
 11
-96.51200000000001
 21
95.61899999999999
 31
0.0
  0
LINE
  5
10B
330
A
100
AcDbEntity
  8
PV
  6
Continuous
 62
     7
100
AcDbLine
 10
-97.993
 20
94.607
 30
0.0
 11
-97.743
 21
95.294
 31
0.0
  0
LINE
  5
10C
330
A
100
AcDbEntity
  8
PV
  6
Continuous
 62
     7
100
AcDbLine
 10
-96.24
 20
94.607
 30
0.0
 11
-95.904
 21
94.607
 31
0.0
  0
LINE
  5
10D
330
A
100
AcDbEntity
  8
PV
  6
Continuous
 62
     7
100
AcDbLine
 10
-98.33899999999999
 20
94.607
 30
0.0
 11
-97.993
 21
94.607
 31
0.0
  0
LINE
  5
10E
330
A
100
AcDbEntity
  8
PV
  6
Continuous
 62
     7
100
AcDbLine
 10
-97.743
 20
95.294
 30
0.0
 11
-96.425
 21
95.294
 31
0.0
  0
LINE
  5
10F
330
A
100
AcDbEntity
  8
PV
  6
Continuous
 62
     7
100
AcDbLine
 10
-96.77500000000001
 20
97.85700000000002
 30
0.0
 11
-95.904
 21
94.607
 31
0.0
  0
LINE
  5
110
330
A
100
AcDbEntity
  8
PV
  6
Continuous
 62
     7
100
AcDbLine
 10
-97.15600000000002
 20
97.85700000000002
 30
0.0
 11
-96.77500000000001
 21
97.85700000000002
 31
0.0
  0
LINE
  5
111
330
A
100
AcDbEntity
  8
PV
  6
Continuous
 62
     7
100
AcDbLine
 10
-98.33899999999999
 20
94.607
 30
0.0
 11
-97.15600000000002
 21
97.85700000000002
 31
0.0
  0
LINE
  5
112
330
A
100
AcDbEntity
  8
PV
  6
Continuous
 62
     7
100
AcDbLine
 10
-67.62699999999999
 20
97.85700000000002
 30
0.0
 11
-67.28100000000001
 21
97.85700000000002
 31
0.0
  0
LINE
  5
113
330
A
100
AcDbEntity
  8
PV
  6
Continuous
 62
     7
100
AcDbLine
 10
-68.888
 20
94.607
 30
0.0
 11
-68.464
 21
94.607
 31
0.0
  0
LINE
  5
114
330
A
100
AcDbEntity
  8
PV
  6
Continuous
 62
     7
100
AcDbLine
 10
-69.461
 20
97.85700000000002
 30
0.0
 11
-69.131
 21
97.85700000000002
 31
0.0
  0
LINE
  5
115
330
A
100
AcDbEntity
  8
PV
  6
Continuous
 62
     7
100
AcDbLine
 10
-68.464
 20
94.607
 30
0.0
 11
-67.28100000000001
 21
97.85700000000002
 31
0.0
  0
LINE
  5
116
330
A
100
AcDbEntity
  8
PV
  6
Continuous
 62
     7
100
AcDbLine
 10
-69.461
 20
97.85700000000002
 30
0.0
 11
-68.888
 21
94.607
 31
0.0
  0
LINE
  5
117
330
A
100
AcDbEntity
  8
PV
  6
Continuous
 62
     7
100
AcDbLine
 10
-68.64
 20
95.07299999999998
 30
0.0
 11
-67.62699999999999
 21
97.85700000000002
 31
0.0
  0
LINE
  5
118
330
A
100
AcDbEntity
  8
PV
  6
Continuous
 62
     7
100
AcDbLine
 10
-69.131
 20
97.85700000000002
 30
0.0
 11
-68.64
 21
95.07299999999998
 31
0.0
  0
LINE
  5
119
330
A
100
AcDbEntity
  8
PV
  6
Continuous
 62
     7
100
AcDbLine
 10
-64.384
 20
97.53200000000001
 30
0.0
 11
-64.326
 21
97.85700000000002
 31
0.0
  0
LINE
  5
11A
330
A
100
AcDbEntity
  8
PV
  6
Continuous
 62
     7
100
AcDbLine
 10
-64.64199999999999
 20
96.06900000000001
 30
0.0
 11
-64.58400000000001
 21
96.394
 31
0.0
  0
LINE
  5
11B
330
A
100
AcDbEntity
  8
PV
  6
Continuous
 62
     7
100
AcDbLine
 10
-64.899
 20
94.607
 30
0.0
 11
-64.842
 21
94.93199999999999
 31
0.0
  0
LINE
  5
11C
330
A
100
AcDbEntity
  8
PV
  6
Continuous
 62
     7
100
AcDbLine
 10
-65.78
 20
96.394
 30
0.0
 11
-65.579
 21
97.53200000000001
 31
0.0
  0
LINE
  5
11D
330
A
100
AcDbEntity
  8
PV
  6
Continuous
 62
     7
100
AcDbLine
 10
-65.837
 20
96.06900000000001
 30
0.0
 11
-64.64100000000001
 21
96.06900000000001
 31
0.0
  0
LINE
  5
11E
330
A
100
AcDbEntity
  8
PV
  6
Continuous
 62
     7
100
AcDbLine
 10
-65.78
 20
96.394
 30
0.0
 11
-64.58400000000001
 21
96.394
 31
0.0
  0
LINE
  5
11F
330
A
100
AcDbEntity
  8
PV
  6
Continuous
 62
     7
100
AcDbLine
 10
-65.579
 20
97.53200000000001
 30
0.0
 11
-64.384
 21
97.53200000000001
 31
0.0
  0
LINE
  5
120
330
A
100
AcDbEntity
  8
PV
  6
Continuous
 62
     7
100
AcDbLine
 10
-65.852
 20
97.85700000000002
 30
0.0
 11
-64.326
 21
97.85700000000002
 31
0.0
  0
LINE
  5
121
330
A
100
AcDbEntity
  8
PV
  6
Continuous
 62
     7
100
AcDbLine
 10
-66.03799999999999
 20
94.93199999999999
 30
0.0
 11
-65.837
 21
96.06900000000001
 31
0.0
  0
LINE
  5
122
330
A
100
AcDbEntity
  8
PV
  6
Continuous
 62
     7
100
AcDbLine
 10
-66.03799999999999
 20
94.93199999999999
 30
0.0
 11
-64.842
 21
94.93199999999999
 31
0.0
  0
LINE
  5
123
330
A
100
AcDbEntity
  8
PV
  6
Continuous
 62
     7
100
AcDbLine
 10
-66.425
 20
94.607
 30
0.0
 11
-64.899
 21
94.607
 31
0.0
  0
LINE
  5
124
330
A
100
AcDbEntity
  8
PV
  6
Continuous
 62
     7
100
AcDbLine
 10
-66.425
 20
94.607
 30
0.0
 11
-65.852
 21
97.85700000000002
 31
0.0
  0
LINE
  5
125
330
A
100
AcDbEntity
  8
PV
  6
Continuous
 62
     7
100
AcDbLine
 10
-71.658
 20
97.85700000000002
 30
0.0
 11
-71.328
 21
97.85700000000002
 31
0.0
  0
LINE
  5
126
330
A
100
AcDbEntity
  8
PV
  6
Continuous
 62
     7
100
AcDbLine
 10
-70.44599999999999
 20
94.607
 30
0.0
 11
-70.38800000000001
 21
94.93199999999999
 31
0.0
  0
LINE
  5
127
330
A
100
AcDbEntity
  8
PV
  6
Continuous
 62
     7
100
AcDbLine
 10
-71.844
 20
94.93199999999999
 30
0.0
 11
-71.328
 21
97.85700000000002
 31
0.0
  0
LINE
  5
128
330
A
100
AcDbEntity
  8
PV
  6
Continuous
 62
     7
100
AcDbLine
 10
-71.844
 20
94.93199999999999
 30
0.0
 11
-70.38800000000001
 21
94.93199999999999
 31
0.0
  0
LINE
  5
129
330
A
100
AcDbEntity
  8
PV
  6
Continuous
 62
     7
100
AcDbLine
 10
-72.23100000000001
 20
94.607
 30
0.0
 11
-70.44599999999999
 21
94.607
 31
0.0
  0
LINE
  5
12A
330
A
100
AcDbEntity
  8
PV
  6
Continuous
 62
     7
100
AcDbLine
 10
-72.23100000000001
 20
94.607
 30
0.0
 11
-71.658
 21
97.85700000000002
 31
0.0
  0
LINE
  5
12B
330
A
100
AcDbEntity
  8
PV
  6
Continuous
 62
     7
100
AcDbLine
 10
-88.24200000000001
 20
96.743
 30
0.0
 11
-87.93600000000001
 21
96.85400000000001
 31
0.0
  0
LINE
  5
12C
330
A
100
AcDbEntity
  8
PV
  6
Continuous
 62
     7
100
AcDbLine
 10
-88.94099999999999
 20
95.90700000000001
 30
0.0
 11
-88.884
 21
96.23200000000002
 31
0.0
  0
LINE
  5
12D
330
A
100
AcDbEntity
  8
PV
  6
Continuous
 62
     7
100
AcDbLine
 10
-88.94099999999999
 20
95.90700000000001
 30
0.0
 11
-88.22700000000001
 21
95.90700000000001
 31
0.0
  0
LINE
  5
12E
330
A
100
AcDbEntity
  8
PV
  6
Continuous
 62
     7
100
AcDbLine
 10
-88.884
 20
96.23200000000002
 30
0.0
 11
-87.85
 21
96.23200000000002
 31
0.0
  0
LINE
  5
12F
330
A
100
AcDbEntity
  8
PV
  6
Continuous
 62
     7
100
AcDbLine
 10
-92.65399999999999
 20
95.18299999999999
 30
0.0
 11
-92.18299999999999
 21
97.85700000000002
 31
0.0
  0
LINE
  5
130
330
A
100
AcDbEntity
  8
PV
  6
Continuous
 62
     7
100
AcDbLine
 10
-92.76100000000001
 20
94.607
 30
0.0
 11
-93.87200000000001
 21
97.195
 31
0.0
  0
LINE
  5
131
330
A
100
AcDbEntity
  8
PV
  6
Continuous
 62
     7
100
AcDbLine
 10
-94.32799999999998
 20
94.607
 30
0.0
 11
-93.87200000000001
 21
97.195
 31
0.0
  0
LINE
  5
132
330
A
100
AcDbEntity
  8
PV
  6
Continuous
 62
     7
100
AcDbLine
 10
-73.80500000000001
 20
95.294
 30
0.0
 11
-73.62
 21
94.607
 31
0.0
  0
LINE
  5
133
330
A
100
AcDbEntity
  8
PV
  6
Continuous
 62
     7
100
AcDbLine
 10
-75.00499999999999
 20
95.61899999999999
 30
0.0
 11
-74.36399999999999
 21
97.38100000000001
 31
0.0
  0
LINE
  5
134
330
A
100
AcDbEntity
  8
PV
  6
Continuous
 62
     7
100
AcDbLine
 10
-75.00499999999999
 20
95.61899999999999
 30
0.0
 11
-73.89199999999999
 21
95.61899999999999
 31
0.0
  0
LINE
  5
135
330
A
100
AcDbEntity
  8
PV
  6
Continuous
 62
     7
100
AcDbLine
 10
-74.36399999999999
 20
97.38100000000001
 30
0.0
 11
-73.89199999999999
 21
95.61899999999999
 31
0.0
  0
LINE
  5
136
330
A
100
AcDbEntity
  8
PV
  6
Continuous
 62
     7
100
AcDbLine
 10
-75.373
 20
94.607
 30
0.0
 11
-75.123
 21
95.294
 31
0.0
  0
LINE
  5
137
330
A
100
AcDbEntity
  8
PV
  6
Continuous
 62
     7
100
AcDbLine
 10
-92.65399999999999
 20
95.18299999999999
 30
0.0
 11
-93.802
 21
97.85700000000002
 31
0.0
  0
LINE
  5
138
330
A
100
AcDbEntity
  8
PV
  6
Continuous
 62
     7
100
AcDbLine
 10
-92.18299999999999
 20
97.85700000000002
 30
0.0
 11
-91.85299999999999
 21
97.85700000000002
 31
0.0
  0
LINE
  5
139
330
A
100
AcDbEntity
  8
PV
  6
Continuous
 62
     7
100
AcDbLine
 10
-92.76100000000001
 20
94.607
 30
0.0
 11
-92.42600000000001
 21
94.607
 31
0.0
  0
LINE
  5
13A
330
A
100
AcDbEntity
  8
PV
  6
Continuous
 62
     7
100
AcDbLine
 10
-92.42600000000001
 20
94.607
 30
0.0
 11
-91.85299999999999
 21
97.85700000000002
 31
0.0
  0
LINE
  5
13B
330
A
100
AcDbEntity
  8
PV
  6
Continuous
 62
     7
100
AcDbLine
 10
-94.65799999999999
 20
94.607
 30
0.0
 11
-94.32799999999998
 21
94.607
 31
0.0
  0
LINE
  5
13C
330
A
100
AcDbEntity
  8
PV
  6
Continuous
 62
     7
100
AcDbLine
 10
-94.085
 20
97.85700000000002
 30
0.0
 11
-93.802
 21
97.85700000000002
 31
0.0
  0
LINE
  5
13D
330
A
100
AcDbEntity
  8
PV
  6
Continuous
 62
     7
100
AcDbLine
 10
-94.65899999999999
 20
94.607
 30
0.0
 11
-94.085
 21
97.85700000000002
 31
0.0
  0
LINE
  5
13E
330
A
100
AcDbEntity
  8
PV
  6
Continuous
 62
     7
100
AcDbLine
 10
-73.62
 20
94.607
 30
0.0
 11
-73.28399999999999
 21
94.607
 31
0.0
  0
LINE
  5
13F
330
A
100
AcDbEntity
  8
PV
  6
Continuous
 62
     7
100
AcDbLine
 10
-75.71899999999999
 20
94.607
 30
0.0
 11
-75.373
 21
94.607
 31
0.0
  0
LINE
  5
140
330
A
100
AcDbEntity
  8
PV
  6
Continuous
 62
     7
100
AcDbLine
 10
-75.123
 20
95.294
 30
0.0
 11
-73.80500000000001
 21
95.294
 31
0.0
  0
LINE
  5
141
330
A
100
AcDbEntity
  8
PV
  6
Continuous
 62
     7
100
AcDbLine
 10
-74.155
 20
97.85700000000002
 30
0.0
 11
-73.28399999999999
 21
94.607
 31
0.0
  0
LINE
  5
142
330
A
100
AcDbEntity
  8
PV
  6
Continuous
 62
     7
100
AcDbLine
 10
-74.536
 20
97.85700000000002
 30
0.0
 11
-74.155
 21
97.85700000000002
 31
0.0
  0
LINE
  5
143
330
A
100
AcDbEntity
  8
PV
  6
Continuous
 62
     7
100
AcDbLine
 10
-75.71899999999999
 20
94.607
 30
0.0
 11
-74.536
 21
97.85700000000002
 31
0.0
  0
SOLID
  5
144
330
A
100
AcDbEntity
  8
PV
  6
Continuous
 62
     7
100
AcDbTrace
 10
-82.43
 20
106.336
 30
0.0
 11
-81.08
 21
106.336
 31
0.0
 12
-82.43
 22
109.0859999999999
 32
0.0
 13
-81.08
 23
109.0859999999999
 33
0.0
  0
SOLID
  5
145
330
A
100
AcDbEntity
  8
PV
  6
Continuous
 62
     7
100
AcDbTrace
 10
-88.90799999999998
 20
102.8299999999999
 30
0.0
 11
-88.61
 21
102.8299999999999
 31
0.0
 12
-88.90799999999998
 22
104.3229999999999
 32
0.0
 13
-88.61
 23
104.3229999999999
 33
0.0
  0
SOLID
  5
146
330
A
100
AcDbEntity
  8
PV
  6
Continuous
 62
     7
100
AcDbTrace
 10
-91.22200000000001
 20
102.8299999999999
 30
0.0
 11
-90.92299999999999
 21
102.8299999999999
 31
0.0
 12
-91.22200000000001
 22
104.3229999999999
 32
0.0
 13
-90.92299999999999
 23
104.3229999999999
 33
0.0
  0
MTEXT
  5
147
330
A
100
AcDbEntity
  8
PV
  6
Continuous
 62
     7
100
AcDbMText
 10
-80.188
 20
76.227
 30
0.0
 40
1.0
 41
0.0
 71
     2
 72
     1
  1
\W0.980;\A1;MADE IN JAPAN
 73
     1
 44
1.0
  0
MTEXT
  5
148
330
A
100
AcDbEntity
  8
PV
  6
Continuous
 62
     7
100
AcDbMText
 10
-79.75799999999999
 20
86.96099999999999
 30
0.0
 40
1.9
 41
0.0
 71
     2
 72
     1
  1
\W0.925;\A1;HIGH VACUUM VALVES
 73
     1
 44
1.0
  0
MTEXT
  5
149
330
A
100
AcDbEntity
  8
PV
  6
Continuous
 62
     7
100
AcDbMText
 10
-79.973
 20
81.523
 30
0.0
 40
1.9
 41
0.0
 71
     2
 72
     1
  1
\W0.930;\A1;METAL BELLOWS
 73
     1
 44
1.0
  0
CIRCLE
  5
14A
330
A
100
AcDbEntity
  8
PV
  6
Continuous
 62
   254
100
AcDbCircle
 10
-80.0
 20
91.82700000000002
 30
0.0
 40
20.75
  0
CIRCLE
  5
14B
330
A
100
AcDbEntity
  8
PV
  6
Continuous
 62
     7
100
AcDbCircle
 10
-80.0
 20
91.82700000000002
 30
0.0
 40
21.0
  0
ARC
  5
14C
330
A
100
AcDbEntity
  8
PV
  6
Continuous
 62
     7
100
AcDbCircle
 10
-76.11399999999999
 20
107.711
 30
0.0
 40
0.7
100
AcDbArc
 50
265.3970849999999
 51
94.602915
  0
ARC
  5
14D
330
A
100
AcDbEntity
  8
PV
  6
Continuous
 62
     7
100
AcDbCircle
 10
-76.15000000000001
 20
107.711
 30
0.0
 40
0.7
100
AcDbArc
 50
91.745976
 51
268.254013
  0
ARC
  5
14E
330
A
100
AcDbEntity
  8
PV
  6
Continuous
 62
     7
100
AcDbCircle
 10
-77.355
 20
107.711
 30
0.0
 40
1.375
100
AcDbArc
 50
30.587561
 51
329.4124279999999
  0
ARC
  5
14F
330
A
100
AcDbEntity
  8
PV
  6
Continuous
 62
     7
100
AcDbCircle
 10
-79.68399999999999
 20
107.711
 30
0.0
 40
0.75
100
AcDbArc
 50
269.9999969999999
 51
90.00000300000001
  0
ARC
  5
150
330
A
100
AcDbEntity
  8
PV
  6
Continuous
 62
     7
100
AcDbCircle
 10
-79.68399999999999
 20
107.711
 30
0.0
 40
0.75
100
AcDbArc
 50
90.00000300000001
 51
270.000001
  0
ARC
  5
151
330
A
100
AcDbEntity
  8
PV
  6
Continuous
 62
     7
100
AcDbCircle
 10
-79.68399999999999
 20
107.711
 30
0.0
 40
1.395999999999999
100
AcDbArc
 50
90.00000300000001
 51
270.000001
  0
ARC
  5
152
330
A
100
AcDbEntity
  8
PV
  6
Continuous
 62
     7
100
AcDbCircle
 10
-83.565
 20
108.336
 30
0.0
 40
0.75
100
AcDbArc
 50
179.9999909999999
 51
0.0
  0
ARC
  5
153
330
A
100
AcDbEntity
  8
PV
  6
Continuous
 62
     7
100
AcDbCircle
 10
-83.565
 20
108.336
 30
0.0
 40
0.75
100
AcDbArc
 50
0.0
 51
180.000005
  0
ARC
  5
154
330
A
100
AcDbEntity
  8
PV
  6
Continuous
 62
   254
100
AcDbCircle
 10
-69.729
 20
103.577
 30
0.0
 40
0.746
100
AcDbArc
 50
359.999996
 51
90.00003000000001
  0
ARC
  5
155
330
A
100
AcDbEntity
  8
PV
  6
Continuous
 62
   254
100
AcDbCircle
 10
-69.729
 20
103.577
 30
0.0
 40
0.448
100
AcDbArc
 50
359.999996
 51
90.00003000000001
  0
ARC
  5
156
330
A
100
AcDbEntity
  8
PV
  6
Continuous
 62
   254
100
AcDbCircle
 10
-75.10200000000001
 20
103.577
 30
0.0
 40
0.448
100
AcDbArc
 50
359.999996
 51
89.999975
  0
ARC
  5
157
330
A
100
AcDbEntity
  8
PV
  6
Continuous
 62
   254
100
AcDbCircle
 10
-75.25199999999999
 20
103.577
 30
0.0
 40
0.448
100
AcDbArc
 50
179.999978
 51
270.000001
  0
ARC
  5
158
330
A
100
AcDbEntity
  8
PV
  6
Continuous
 62
   254
100
AcDbCircle
 10
-75.25199999999999
 20
103.577
 30
0.0
 40
0.746
100
AcDbArc
 50
179.999978
 51
270.000001
  0
ARC
  5
159
330
A
100
AcDbEntity
  8
PV
  6
Continuous
 62
   254
100
AcDbCircle
 10
-83.90799999999998
 20
103.577
 30
0.0
 40
0.746
100
AcDbArc
 50
179.999978
 51
270.000001
  0
ARC
  5
15A
330
A
100
AcDbEntity
  8
PV
  6
Continuous
 62
   254
100
AcDbCircle
 10
-83.90799999999998
 20
103.577
 30
0.0
 40
0.448
100
AcDbArc
 50
179.999978
 51
270.000001
  0
ARC
  5
15B
330
A
100
AcDbEntity
  8
PV
  6
Continuous
 62
   254
100
AcDbCircle
 10
-83.75899999999999
 20
103.577
 30
0.0
 40
0.448
100
AcDbArc
 50
359.999996
 51
89.999975
  0
ARC
  5
15C
330
A
100
AcDbEntity
  8
PV
  6
Continuous
 62
   254
100
AcDbCircle
 10
-83.75899999999999
 20
103.577
 30
0.0
 40
0.746
100
AcDbArc
 50
359.999996
 51
89.999975
  0
ARC
  5
15D
330
A
100
AcDbEntity
  8
PV
  6
Continuous
 62
   254
100
AcDbCircle
 10
-89.58
 20
103.875
 30
0.0
 40
0.448
100
AcDbArc
 50
359.999996
 51
89.999975
  0
ARC
  5
15E
330
A
100
AcDbEntity
  8
PV
  6
Continuous
 62
   254
100
AcDbCircle
 10
-89.58
 20
103.875
 30
0.0
 40
0.149
100
AcDbArc
 50
359.999996
 51
89.999975
  0
ARC
  5
15F
330
A
100
AcDbEntity
  8
PV
  6
Continuous
 62
   254
100
AcDbCircle
 10
-76.819
 20
103.577
 30
0.0
 40
0.448
100
AcDbArc
 50
89.999975
 51
270.000001
  0
ARC
  5
160
330
A
100
AcDbEntity
  8
PV
  6
Continuous
 62
   254
100
AcDbCircle
 10
-76.819
 20
103.577
 30
0.0
 40
0.746
100
AcDbArc
 50
89.999975
 51
270.000001
  0
ARC
  5
161
330
A
100
AcDbEntity
  8
PV
  6
Continuous
 62
   254
100
AcDbCircle
 10
-69.729
 20
103.577
 30
0.0
 40
0.448
100
AcDbArc
 50
270.0000109999999
 51
359.999996
  0
ARC
  5
162
330
A
100
AcDbEntity
  8
PV
  6
Continuous
 62
   254
100
AcDbCircle
 10
-69.729
 20
103.577
 30
0.0
 40
0.746
100
AcDbArc
 50
270.0000109999999
 51
359.999996
  0
ARC
  5
163
330
A
100
AcDbEntity
  8
PV
  6
Continuous
 62
   254
100
AcDbCircle
 10
-72.789
 20
103.427
 30
0.0
 40
0.299
100
AcDbArc
 50
179.999978
 51
270.000001
  0
ARC
  5
164
330
A
100
AcDbEntity
  8
PV
  6
Continuous
 62
   254
100
AcDbCircle
 10
-72.789
 20
103.427
 30
0.0
 40
0.597
100
AcDbArc
 50
179.999978
 51
270.000001
  0
CIRCLE
  5
165
330
A
100
AcDbEntity
  8
PV
  6
Continuous
 62
   254
100
AcDbCircle
 10
-74.207
 20
103.017
 30
0.0
 40
0.187
  0
ARC
  5
166
330
A
100
AcDbEntity
  8
PV
  6
Continuous
 62
   254
100
AcDbCircle
 10
-73.729
 20
103.017
 30
0.0
 40
0.187
100
AcDbArc
 50
319.9999189999999
 51
241.536827
  0
ARC
  5
167
330
A
100
AcDbEntity
  8
PV
  6
Continuous
 62
   254
100
AcDbCircle
 10
-83.75899999999999
 20
103.577
 30
0.0
 40
0.448
100
AcDbArc
 50
270.0000109999999
 51
359.999996
  0
ARC
  5
168
330
A
100
AcDbEntity
  8
PV
  6
Continuous
 62
   254
100
AcDbCircle
 10
-83.90799999999998
 20
103.577
 30
0.0
 40
0.448
100
AcDbArc
 50
89.999975
 51
179.99995
  0
ARC
  5
169
330
A
100
AcDbEntity
  8
PV
  6
Continuous
 62
   254
100
AcDbCircle
 10
-83.75899999999999
 20
103.577
 30
0.0
 40
0.746
100
AcDbArc
 50
270.0000109999999
 51
359.999996
  0
ARC
  5
16A
330
A
100
AcDbEntity
  8
PV
  6
Continuous
 62
   254
100
AcDbCircle
 10
-83.90799999999998
 20
103.577
 30
0.0
 40
0.746
100
AcDbArc
 50
89.999975
 51
179.99995
  0
ARC
  5
16B
330
A
100
AcDbEntity
  8
PV
  6
Continuous
 62
   254
100
AcDbCircle
 10
-78.908
 20
103.651
 30
0.0
 40
0.373
100
AcDbArc
 50
359.999996
 51
89.999975
  0
ARC
  5
16C
330
A
100
AcDbEntity
  8
PV
  6
Continuous
 62
   254
100
AcDbCircle
 10
-79.05800000000001
 20
103.651
 30
0.0
 40
0.373
100
AcDbArc
 50
89.999975
 51
179.99995
  0
ARC
  5
16D
330
A
100
AcDbEntity
  8
PV
  6
Continuous
 62
   254
100
AcDbCircle
 10
-78.908
 20
103.651
 30
0.0
 40
0.6720000000000001
100
AcDbArc
 50
359.999996
 51
89.999975
  0
ARC
  5
16E
330
A
100
AcDbEntity
  8
PV
  6
Continuous
 62
   254
100
AcDbCircle
 10
-79.05800000000001
 20
103.651
 30
0.0
 40
0.6720000000000001
100
AcDbArc
 50
89.999975
 51
179.99995
  0
ARC
  5
16F
330
A
100
AcDbEntity
  8
PV
  6
Continuous
 62
   254
100
AcDbCircle
 10
-87.71399999999999
 20
103.577
 30
0.0
 40
0.448
100
AcDbArc
 50
199.471211
 51
270.0000109999999
  0
ARC
  5
170
330
A
100
AcDbEntity
  8
PV
  6
Continuous
 62
   254
100
AcDbCircle
 10
-87.71399999999999
 20
103.577
 30
0.0
 40
0.448
100
AcDbArc
 50
89.999975
 51
160.528775
  0
ARC
  5
171
330
A
100
AcDbEntity
  8
PV
  6
Continuous
 62
   254
100
AcDbCircle
 10
-87.71399999999999
 20
103.577
 30
0.0
 40
0.746
100
AcDbArc
 50
89.999975
 51
270.000001
  0
ARC
  5
172
330
A
100
AcDbEntity
  8
PV
  6
Continuous
 62
   254
100
AcDbCircle
 10
-75.10200000000001
 20
103.577
 30
0.0
 40
0.448
100
AcDbArc
 50
270.0000109999999
 51
359.999996
  0
ARC
  5
173
330
A
100
AcDbEntity
  8
PV
  6
Continuous
 62
   254
100
AcDbCircle
 10
-75.25199999999999
 20
103.577
 30
0.0
 40
0.448
100
AcDbArc
 50
89.999975
 51
179.99995
  0
ARC
  5
174
330
A
100
AcDbEntity
  8
PV
  6
Continuous
 62
   254
100
AcDbCircle
 10
-75.10200000000001
 20
103.577
 30
0.0
 40
0.746
100
AcDbArc
 50
270.0000109999999
 51
359.999996
  0
ARC
  5
175
330
A
100
AcDbEntity
  8
PV
  6
Continuous
 62
   254
100
AcDbCircle
 10
-75.25199999999999
 20
103.577
 30
0.0
 40
0.746
100
AcDbArc
 50
89.999975
 51
179.99995
  0
ARC
  5
176
330
A
100
AcDbEntity
  8
PV
  6
Continuous
 62
   254
100
AcDbCircle
 10
-80.625
 20
103.577
 30
0.0
 40
0.448
100
AcDbArc
 50
199.471211
 51
270.0000109999999
  0
ARC
  5
177
330
A
100
AcDbEntity
  8
PV
  6
Continuous
 62
   254
100
AcDbCircle
 10
-80.625
 20
103.577
 30
0.0
 40
0.448
100
AcDbArc
 50
89.999975
 51
160.528775
  0
ARC
  5
178
330
A
100
AcDbEntity
  8
PV
  6
Continuous
 62
   254
100
AcDbCircle
 10
-80.625
 20
103.577
 30
0.0
 40
0.746
100
AcDbArc
 50
89.999975
 51
270.000001
  0
ARC
  5
179
330
A
100
AcDbEntity
  8
PV
  6
Continuous
 62
   254
100
AcDbCircle
 10
-89.58
 20
103.875
 30
0.0
 40
0.149
100
AcDbArc
 50
270.0000109999999
 51
359.999996
  0
ARC
  5
17A
330
A
100
AcDbEntity
  8
PV
  6
Continuous
 62
   254
100
AcDbCircle
 10
-89.58
 20
103.875
 30
0.0
 40
0.448
100
AcDbArc
 50
273.7218359999999
 51
359.999996
  0
ARC
  5
17B
330
A
100
AcDbEntity
  8
PV
  6
Continuous
 62
   254
100
AcDbCircle
 10
-75.10200000000001
 20
103.577
 30
0.0
 40
0.746
100
AcDbArc
 50
359.999996
 51
89.999975
  0
LINE
  5
17C
330
A
100
AcDbEntity
  8
PV
  6
Continuous
 62
     7
100
AcDbLine
 10
-79.68399999999999
 20
108.461
 30
0.0
 11
-79.68399999999999
 21
106.9609999999999
 31
0.0
  0
LINE
  5
17D
330
A
100
AcDbEntity
  8
PV
  6
Continuous
 62
     7
100
AcDbLine
 10
-79.68399999999999
 20
106.9609999999999
 30
0.0
 11
-79.68399999999999
 21
106.315
 31
0.0
  0
LINE
  5
17E
330
A
100
AcDbEntity
  8
PV
  6
Continuous
 62
     7
100
AcDbLine
 10
-84.31499999999999
 20
108.336
 30
0.0
 11
-82.81499999999999
 21
108.336
 31
0.0
  0
LINE
  5
17F
330
A
100
AcDbEntity
  8
PV
  6
Continuous
 62
     7
100
AcDbLine
 10
-76.132
 20
108.411
 30
0.0
 11
-76.132
 21
107.011
 31
0.0
  0
LINE
  5
180
330
A
100
AcDbEntity
  8
PV
  6
Continuous
 62
     7
100
AcDbLine
 10
-79.68399999999999
 20
109.107
 30
0.0
 11
-79.68399999999999
 21
108.461
 31
0.0
  0
LINE
  5
181
330
A
100
AcDbEntity
  8
PV
  6
Continuous
 62
     7
100
AcDbLine
 10
-81.08
 20
109.0859999999999
 30
0.0
 11
-81.08
 21
106.336
 31
0.0
  0
LINE
  5
182
330
A
100
AcDbEntity
  8
PV
  6
Continuous
 62
     7
100
AcDbLine
 10
-82.43
 20
109.0859999999999
 30
0.0
 11
-82.43
 21
106.336
 31
0.0
  0
LINE
  5
183
330
A
100
AcDbEntity
  8
PV
  6
Continuous
 62
     7
100
AcDbLine
 10
-82.43
 20
109.0859999999999
 30
0.0
 11
-81.08
 21
109.0859999999999
 31
0.0
  0
LINE
  5
184
330
A
100
AcDbEntity
  8
PV
  6
Continuous
 62
     7
100
AcDbLine
 10
-82.43
 20
106.336
 30
0.0
 11
-81.08
 21
106.336
 31
0.0
  0
LINE
  5
185
330
A
100
AcDbEntity
  8
PV
  6
Continuous
 62
     7
100
AcDbLine
 10
-82.81499999999999
 20
108.336
 30
0.0
 11
-82.81499999999999
 21
106.336
 31
0.0
  0
LINE
  5
186
330
A
100
AcDbEntity
  8
PV
  6
Continuous
 62
     7
100
AcDbLine
 10
-84.31499999999999
 20
106.336
 30
0.0
 11
-82.81499999999999
 21
106.336
 31
0.0
  0
LINE
  5
187
330
A
100
AcDbEntity
  8
PV
  6
Continuous
 62
     7
100
AcDbLine
 10
-84.31499999999999
 20
108.336
 30
0.0
 11
-84.31499999999999
 21
106.336
 31
0.0
  0
LINE
  5
188
330
A
100
AcDbEntity
  8
PV
  6
Continuous
 62
   254
100
AcDbLine
 10
-70.25199999999999
 20
103.577
 30
0.0
 11
-70.25199999999999
 21
103.1289999999999
 31
0.0
  0
LINE
  5
189
330
A
100
AcDbEntity
  8
PV
  6
Continuous
 62
   254
100
AcDbLine
 10
-70.54999999999999
 20
103.577
 30
0.0
 11
-70.54999999999999
 21
102.8299999999999
 31
0.0
  0
LINE
  5
18A
330
A
100
AcDbEntity
  8
PV
  6
Continuous
 62
   254
100
AcDbLine
 10
-69.281
 20
103.577
 30
0.0
 11
-68.983
 21
103.577
 31
0.0
  0
LINE
  5
18B
330
A
100
AcDbEntity
  8
PV
  6
Continuous
 62
   254
100
AcDbLine
 10
-70.54999999999999
 20
103.577
 30
0.0
 11
-70.25199999999999
 21
103.577
 31
0.0
  0
LINE
  5
18C
330
A
100
AcDbEntity
  8
PV
  6
Continuous
 62
   254
100
AcDbLine
 10
-74.655
 20
103.577
 30
0.0
 11
-74.356
 21
103.577
 31
0.0
  0
LINE
  5
18D
330
A
100
AcDbEntity
  8
PV
  6
Continuous
 62
   254
100
AcDbLine
 10
-75.998
 20
103.577
 30
0.0
 11
-75.699
 21
103.577
 31
0.0
  0
LINE
  5
18E
330
A
100
AcDbEntity
  8
PV
  6
Continuous
 62
   254
100
AcDbLine
 10
-83.31100000000001
 20
103.577
 30
0.0
 11
-83.01299999999999
 21
103.577
 31
0.0
  0
LINE
  5
18F
330
A
100
AcDbEntity
  8
PV
  6
Continuous
 62
   254
100
AcDbLine
 10
-89.43099999999999
 20
103.875
 30
0.0
 11
-89.13200000000001
 21
103.875
 31
0.0
  0
LINE
  5
190
330
A
100
AcDbEntity
  8
PV
  6
Continuous
 62
   254
100
AcDbLine
 10
-90.625
 20
103.875
 30
0.0
 11
-90.326
 21
103.875
 31
0.0
  0
LINE
  5
191
330
A
100
AcDbEntity
  8
PV
  6
Continuous
 62
   254
100
AcDbLine
 10
-90.326
 20
103.875
 30
0.0
 11
-90.326
 21
103.726
 31
0.0
  0
LINE
  5
192
330
A
100
AcDbEntity
  8
PV
  6
Continuous
 62
   254
100
AcDbLine
 10
-90.625
 20
103.875
 30
0.0
 11
-90.625
 21
102.8299999999999
 31
0.0
  0
LINE
  5
193
330
A
100
AcDbEntity
  8
PV
  6
Continuous
 62
   254
100
AcDbLine
 10
-70.25199999999999
 20
104.024
 30
0.0
 11
-70.25199999999999
 21
103.577
 31
0.0
  0
LINE
  5
194
330
A
100
AcDbEntity
  8
PV
  6
Continuous
 62
   254
100
AcDbLine
 10
-70.25199999999999
 20
103.1289999999999
 30
0.0
 11
-69.729
 21
103.1289999999999
 31
0.0
  0
LINE
  5
195
330
A
100
AcDbEntity
  8
PV
  6
Continuous
 62
   254
100
AcDbLine
 10
-70.54999999999999
 20
104.3229999999999
 30
0.0
 11
-70.54999999999999
 21
103.577
 31
0.0
  0
LINE
  5
196
330
A
100
AcDbEntity
  8
PV
  6
Continuous
 62
   254
100
AcDbLine
 10
-71.595
 20
102.8299999999999
 30
0.0
 11
-71.296
 21
102.8299999999999
 31
0.0
  0
LINE
  5
197
330
A
100
AcDbEntity
  8
PV
  6
Continuous
 62
   254
100
AcDbLine
 10
-71.296
 20
104.024
 30
0.0
 11
-70.699
 21
104.024
 31
0.0
  0
LINE
  5
198
330
A
100
AcDbEntity
  8
PV
  6
Continuous
 62
   254
100
AcDbLine
 10
-70.54999999999999
 20
104.3229999999999
 30
0.0
 11
-69.729
 21
104.3229999999999
 31
0.0
  0
LINE
  5
199
330
A
100
AcDbEntity
  8
PV
  6
Continuous
 62
   254
100
AcDbLine
 10
-70.25199999999999
 20
104.024
 30
0.0
 11
-69.729
 21
104.024
 31
0.0
  0
LINE
  5
19A
330
A
100
AcDbEntity
  8
PV
  6
Continuous
 62
   254
100
AcDbLine
 10
-71.595
 20
104.024
 30
0.0
 11
-71.595
 21
102.8299999999999
 31
0.0
  0
LINE
  5
19B
330
A
100
AcDbEntity
  8
PV
  6
Continuous
 62
   254
100
AcDbLine
 10
-71.296
 20
104.024
 30
0.0
 11
-71.296
 21
102.8299999999999
 31
0.0
  0
LINE
  5
19C
330
A
100
AcDbEntity
  8
PV
  6
Continuous
 62
   254
100
AcDbLine
 10
-72.19199999999999
 20
104.024
 30
0.0
 11
-71.595
 21
104.024
 31
0.0
  0
LINE
  5
19D
330
A
100
AcDbEntity
  8
PV
  6
Continuous
 62
   254
100
AcDbLine
 10
-70.699
 20
104.3229999999999
 30
0.0
 11
-70.699
 21
104.024
 31
0.0
  0
LINE
  5
19E
330
A
100
AcDbEntity
  8
PV
  6
Continuous
 62
   254
100
AcDbLine
 10
-72.19199999999999
 20
104.3229999999999
 30
0.0
 11
-72.19199999999999
 21
104.024
 31
0.0
  0
LINE
  5
19F
330
A
100
AcDbEntity
  8
PV
  6
Continuous
 62
   254
100
AcDbLine
 10
-72.19199999999999
 20
104.3229999999999
 30
0.0
 11
-70.699
 21
104.3229999999999
 31
0.0
  0
LINE
  5
1A0
330
A
100
AcDbEntity
  8
PV
  6
Continuous
 62
   254
100
AcDbLine
 10
-73.38600000000001
 20
104.3229999999999
 30
0.0
 11
-73.087
 21
104.3229999999999
 31
0.0
  0
LINE
  5
1A1
330
A
100
AcDbEntity
  8
PV
  6
Continuous
 62
   254
100
AcDbLine
 10
-70.54999999999999
 20
102.8299999999999
 30
0.0
 11
-69.729
 21
102.8299999999999
 31
0.0
  0
LINE
  5
1A2
330
A
100
AcDbEntity
  8
PV
  6
Continuous
 62
   254
100
AcDbLine
 10
-72.789
 20
103.1289999999999
 30
0.0
 11
-72.043
 21
103.1289999999999
 31
0.0
  0
LINE
  5
1A3
330
A
100
AcDbEntity
  8
PV
  6
Continuous
 62
   254
100
AcDbLine
 10
-73.087
 20
104.3229999999999
 30
0.0
 11
-73.087
 21
103.427
 31
0.0
  0
LINE
  5
1A4
330
A
100
AcDbEntity
  8
PV
  6
Continuous
 62
   254
100
AcDbLine
 10
-72.043
 20
103.1289999999999
 30
0.0
 11
-72.043
 21
102.8299999999999
 31
0.0
  0
LINE
  5
1A5
330
A
100
AcDbEntity
  8
PV
  6
Continuous
 62
   254
100
AcDbLine
 10
-73.38600000000001
 20
104.3229999999999
 30
0.0
 11
-73.38600000000001
 21
103.427
 31
0.0
  0
LINE
  5
1A6
330
A
100
AcDbEntity
  8
PV
  6
Continuous
 62
   254
100
AcDbLine
 10
-73.944
 20
102.702
 30
0.0
 11
-73.83
 21
102.606
 31
0.0
  0
LINE
  5
1A7
330
A
100
AcDbEntity
  8
PV
  6
Continuous
 62
   254
100
AcDbLine
 10
-73.944
 20
102.702
 30
0.0
 11
-73.818
 21
102.8529999999999
 31
0.0
  0
LINE
  5
1A8
330
A
100
AcDbEntity
  8
PV
  6
Continuous
 62
   254
100
AcDbLine
 10
-73.83
 20
102.606
 30
0.0
 11
-73.586
 21
102.897
 31
0.0
  0
LINE
  5
1A9
330
A
100
AcDbEntity
  8
PV
  6
Continuous
 62
   254
100
AcDbLine
 10
-83.90799999999998
 20
104.024
 30
0.0
 11
-83.75899999999999
 21
104.024
 31
0.0
  0
LINE
  5
1AA
330
A
100
AcDbEntity
  8
PV
  6
Continuous
 62
   254
100
AcDbLine
 10
-83.90799999999998
 20
103.1289999999999
 30
0.0
 11
-83.75899999999999
 21
103.1289999999999
 31
0.0
  0
LINE
  5
1AB
330
A
100
AcDbEntity
  8
PV
  6
Continuous
 62
   254
100
AcDbLine
 10
-83.90799999999998
 20
104.3229999999999
 30
0.0
 11
-83.75899999999999
 21
104.3229999999999
 31
0.0
  0
LINE
  5
1AC
330
A
100
AcDbEntity
  8
PV
  6
Continuous
 62
   254
100
AcDbLine
 10
-83.90799999999998
 20
102.8299999999999
 30
0.0
 11
-83.75899999999999
 21
102.8299999999999
 31
0.0
  0
LINE
  5
1AD
330
A
100
AcDbEntity
  8
PV
  6
Continuous
 62
   254
100
AcDbLine
 10
-78.535
 20
102.8299999999999
 30
0.0
 11
-78.23699999999999
 21
102.8299999999999
 31
0.0
  0
LINE
  5
1AE
330
A
100
AcDbEntity
  8
PV
  6
Continuous
 62
   254
100
AcDbLine
 10
-78.535
 20
103.651
 30
0.0
 11
-78.535
 21
102.8299999999999
 31
0.0
  0
LINE
  5
1AF
330
A
100
AcDbEntity
  8
PV
  6
Continuous
 62
   254
100
AcDbLine
 10
-79.431
 20
103.651
 30
0.0
 11
-79.431
 21
102.8299999999999
 31
0.0
  0
LINE
  5
1B0
330
A
100
AcDbEntity
  8
PV
  6
Continuous
 62
   254
100
AcDbLine
 10
-79.05800000000001
 20
104.024
 30
0.0
 11
-78.908
 21
104.024
 31
0.0
  0
LINE
  5
1B1
330
A
100
AcDbEntity
  8
PV
  6
Continuous
 62
   254
100
AcDbLine
 10
-78.23699999999999
 20
103.651
 30
0.0
 11
-78.23699999999999
 21
102.8299999999999
 31
0.0
  0
LINE
  5
1B2
330
A
100
AcDbEntity
  8
PV
  6
Continuous
 62
   254
100
AcDbLine
 10
-79.729
 20
103.651
 30
0.0
 11
-79.729
 21
102.8299999999999
 31
0.0
  0
LINE
  5
1B3
330
A
100
AcDbEntity
  8
PV
  6
Continuous
 62
   254
100
AcDbLine
 10
-79.05800000000001
 20
104.3229999999999
 30
0.0
 11
-78.908
 21
104.3229999999999
 31
0.0
  0
LINE
  5
1B4
330
A
100
AcDbEntity
  8
PV
  6
Continuous
 62
   254
100
AcDbLine
 10
-79.727
 20
102.8299999999999
 30
0.0
 11
-79.431
 21
102.8299999999999
 31
0.0
  0
LINE
  5
1B5
330
A
100
AcDbEntity
  8
PV
  6
Continuous
 62
   254
100
AcDbLine
 10
-72.789
 20
102.8299999999999
 30
0.0
 11
-72.043
 21
102.8299999999999
 31
0.0
  0
LINE
  5
1B6
330
A
100
AcDbEntity
  8
PV
  6
Continuous
 62
   254
100
AcDbLine
 10
-76.07300000000001
 20
104.024
 30
0.0
 11
-76.07300000000001
 21
104.3229999999999
 31
0.0
  0
LINE
  5
1B7
330
A
100
AcDbEntity
  8
PV
  6
Continuous
 62
   254
100
AcDbLine
 10
-76.819
 20
104.024
 30
0.0
 11
-76.07300000000001
 21
104.024
 31
0.0
  0
LINE
  5
1B8
330
A
100
AcDbEntity
  8
PV
  6
Continuous
 62
   254
100
AcDbLine
 10
-76.819
 20
103.1289999999999
 30
0.0
 11
-76.07300000000001
 21
103.1289999999999
 31
0.0
  0
LINE
  5
1B9
330
A
100
AcDbEntity
  8
PV
  6
Continuous
 62
   254
100
AcDbLine
 10
-76.819
 20
104.3229999999999
 30
0.0
 11
-76.07300000000001
 21
104.3229999999999
 31
0.0
  0
LINE
  5
1BA
330
A
100
AcDbEntity
  8
PV
  6
Continuous
 62
   254
100
AcDbLine
 10
-76.819
 20
102.8299999999999
 30
0.0
 11
-76.07300000000001
 21
102.8299999999999
 31
0.0
  0
LINE
  5
1BB
330
A
100
AcDbEntity
  8
PV
  6
Continuous
 62
   254
100
AcDbLine
 10
-87.04299999999999
 20
103.1289999999999
 30
0.0
 11
-87.04299999999999
 21
102.8299999999999
 31
0.0
  0
LINE
  5
1BC
330
A
100
AcDbEntity
  8
PV
  6
Continuous
 62
   254
100
AcDbLine
 10
-87.04299999999999
 20
103.726
 30
0.0
 11
-87.04299999999999
 21
103.427
 31
0.0
  0
LINE
  5
1BD
330
A
100
AcDbEntity
  8
PV
  6
Continuous
 62
   254
100
AcDbLine
 10
-87.71399999999999
 20
103.1289999999999
 30
0.0
 11
-87.04299999999999
 21
103.1289999999999
 31
0.0
  0
LINE
  5
1BE
330
A
100
AcDbEntity
  8
PV
  6
Continuous
 62
   254
100
AcDbLine
 10
-88.136
 20
103.726
 30
0.0
 11
-87.04299999999999
 21
103.726
 31
0.0
  0
LINE
  5
1BF
330
A
100
AcDbEntity
  8
PV
  6
Continuous
 62
   254
100
AcDbLine
 10
-88.136
 20
103.427
 30
0.0
 11
-87.04299999999999
 21
103.427
 31
0.0
  0
LINE
  5
1C0
330
A
100
AcDbEntity
  8
PV
  6
Continuous
 62
   254
100
AcDbLine
 10
-87.71399999999999
 20
102.8299999999999
 30
0.0
 11
-87.04299999999999
 21
102.8299999999999
 31
0.0
  0
LINE
  5
1C1
330
A
100
AcDbEntity
  8
PV
  6
Continuous
 62
   254
100
AcDbLine
 10
-87.71399999999999
 20
104.3229999999999
 30
0.0
 11
-87.04299999999999
 21
104.3229999999999
 31
0.0
  0
LINE
  5
1C2
330
A
100
AcDbEntity
  8
PV
  6
Continuous
 62
   254
100
AcDbLine
 10
-87.04299999999999
 20
104.3229999999999
 30
0.0
 11
-87.04299999999999
 21
104.024
 31
0.0
  0
LINE
  5
1C3
330
A
100
AcDbEntity
  8
PV
  6
Continuous
 62
   254
100
AcDbLine
 10
-84.92499999999999
 20
102.8299999999999
 30
0.0
 11
-84.58
 21
102.8299999999999
 31
0.0
  0
LINE
  5
1C4
330
A
100
AcDbEntity
  8
PV
  6
Continuous
 62
   254
100
AcDbLine
 10
-85.09999999999999
 20
104.3229999999999
 30
0.0
 11
-84.58
 21
104.3229999999999
 31
0.0
  0
LINE
  5
1C5
330
A
100
AcDbEntity
  8
PV
  6
Continuous
 62
   254
100
AcDbLine
 10
-85.84899999999999
 20
103.434
 30
0.0
 11
-85.84899999999999
 21
102.8299999999999
 31
0.0
  0
LINE
  5
1C6
330
A
100
AcDbEntity
  8
PV
  6
Continuous
 62
   254
100
AcDbLine
 10
-85.43899999999998
 20
103.7209999999999
 30
0.0
 11
-85.84899999999999
 21
103.434
 31
0.0
  0
LINE
  5
1C7
330
A
100
AcDbEntity
  8
PV
  6
Continuous
 62
   254
100
AcDbLine
 10
-84.92499999999999
 20
102.8299999999999
 30
0.0
 11
-85.43899999999998
 21
103.7209999999999
 31
0.0
  0
LINE
  5
1C8
330
A
100
AcDbEntity
  8
PV
  6
Continuous
 62
   254
100
AcDbLine
 10
-85.09999999999999
 20
104.3229999999999
 30
0.0
 11
-85.84899999999999
 21
103.7989999999999
 31
0.0
  0
LINE
  5
1C9
330
A
100
AcDbEntity
  8
PV
  6
Continuous
 62
   254
100
AcDbLine
 10
-84.58
 20
104.3229999999999
 30
0.0
 11
-85.194
 21
103.8929999999999
 31
0.0
  0
LINE
  5
1CA
330
A
100
AcDbEntity
  8
PV
  6
Continuous
 62
   254
100
AcDbLine
 10
-84.58
 20
102.8299999999999
 30
0.0
 11
-85.194
 21
103.8929999999999
 31
0.0
  0
LINE
  5
1CB
330
A
100
AcDbEntity
  8
PV
  6
Continuous
 62
   254
100
AcDbLine
 10
-85.84899999999999
 20
104.3229999999999
 30
0.0
 11
-85.84899999999999
 21
103.7989999999999
 31
0.0
  0
LINE
  5
1CC
330
A
100
AcDbEntity
  8
PV
  6
Continuous
 62
   254
100
AcDbLine
 10
-86.147
 20
104.3229999999999
 30
0.0
 11
-86.147
 21
102.8299999999999
 31
0.0
  0
LINE
  5
1CD
330
A
100
AcDbEntity
  8
PV
  6
Continuous
 62
   254
100
AcDbLine
 10
-86.147
 20
102.8299999999999
 30
0.0
 11
-85.84899999999999
 21
102.8299999999999
 31
0.0
  0
LINE
  5
1CE
330
A
100
AcDbEntity
  8
PV
  6
Continuous
 62
   254
100
AcDbLine
 10
-86.147
 20
104.3229999999999
 30
0.0
 11
-85.84899999999999
 21
104.3229999999999
 31
0.0
  0
LINE
  5
1CF
330
A
100
AcDbEntity
  8
PV
  6
Continuous
 62
   254
100
AcDbLine
 10
-75.25199999999999
 20
104.024
 30
0.0
 11
-75.10200000000001
 21
104.024
 31
0.0
  0
LINE
  5
1D0
330
A
100
AcDbEntity
  8
PV
  6
Continuous
 62
   254
100
AcDbLine
 10
-75.25199999999999
 20
103.1289999999999
 30
0.0
 11
-75.10200000000001
 21
103.1289999999999
 31
0.0
  0
LINE
  5
1D1
330
A
100
AcDbEntity
  8
PV
  6
Continuous
 62
   254
100
AcDbLine
 10
-76.07300000000001
 20
102.832
 30
0.0
 11
-76.07300000000001
 21
103.1289999999999
 31
0.0
  0
LINE
  5
1D2
330
A
100
AcDbEntity
  8
PV
  6
Continuous
 62
   254
100
AcDbLine
 10
-75.25199999999999
 20
104.3229999999999
 30
0.0
 11
-75.10200000000001
 21
104.3229999999999
 31
0.0
  0
LINE
  5
1D3
330
A
100
AcDbEntity
  8
PV
  6
Continuous
 62
   254
100
AcDbLine
 10
-75.25199999999999
 20
102.8299999999999
 30
0.0
 11
-75.10200000000001
 21
102.8299999999999
 31
0.0
  0
LINE
  5
1D4
330
A
100
AcDbEntity
  8
PV
  6
Continuous
 62
   254
100
AcDbLine
 10
-81.64100000000001
 20
102.8299999999999
 30
0.0
 11
-81.29600000000001
 21
102.8299999999999
 31
0.0
  0
LINE
  5
1D5
330
A
100
AcDbEntity
  8
PV
  6
Continuous
 62
   254
100
AcDbLine
 10
-81.81699999999999
 20
104.3229999999999
 30
0.0
 11
-81.29600000000001
 21
104.3229999999999
 31
0.0
  0
LINE
  5
1D6
330
A
100
AcDbEntity
  8
PV
  6
Continuous
 62
   254
100
AcDbLine
 10
-82.565
 20
103.434
 30
0.0
 11
-82.565
 21
102.8299999999999
 31
0.0
  0
LINE
  5
1D7
330
A
100
AcDbEntity
  8
PV
  6
Continuous
 62
   254
100
AcDbLine
 10
-82.156
 20
103.7209999999999
 30
0.0
 11
-82.565
 21
103.434
 31
0.0
  0
LINE
  5
1D8
330
A
100
AcDbEntity
  8
PV
  6
Continuous
 62
   254
100
AcDbLine
 10
-81.64100000000001
 20
102.8299999999999
 30
0.0
 11
-82.156
 21
103.7209999999999
 31
0.0
  0
LINE
  5
1D9
330
A
100
AcDbEntity
  8
PV
  6
Continuous
 62
   254
100
AcDbLine
 10
-81.81699999999999
 20
104.3229999999999
 30
0.0
 11
-82.565
 21
103.7989999999999
 31
0.0
  0
LINE
  5
1DA
330
A
100
AcDbEntity
  8
PV
  6
Continuous
 62
   254
100
AcDbLine
 10
-81.29600000000001
 20
104.3229999999999
 30
0.0
 11
-81.91
 21
103.8929999999999
 31
0.0
  0
LINE
  5
1DB
330
A
100
AcDbEntity
  8
PV
  6
Continuous
 62
   254
100
AcDbLine
 10
-81.29600000000001
 20
102.8299999999999
 30
0.0
 11
-81.91
 21
103.8929999999999
 31
0.0
  0
LINE
  5
1DC
330
A
100
AcDbEntity
  8
PV
  6
Continuous
 62
   254
100
AcDbLine
 10
-89.49700000000001
 20
102.8299999999999
 30
0.0
 11
-89.915
 21
103.427
 31
0.0
  0
LINE
  5
1DD
330
A
100
AcDbEntity
  8
PV
  6
Continuous
 62
   254
100
AcDbLine
 10
-89.13200000000001
 20
102.8299999999999
 30
0.0
 11
-89.55099999999999
 21
103.428
 31
0.0
  0
LINE
  5
1DE
330
A
100
AcDbEntity
  8
PV
  6
Continuous
 62
   254
100
AcDbLine
 10
-82.565
 20
104.3229999999999
 30
0.0
 11
-82.565
 21
103.7989999999999
 31
0.0
  0
LINE
  5
1DF
330
A
100
AcDbEntity
  8
PV
  6
Continuous
 62
   254
100
AcDbLine
 10
-82.86399999999998
 20
104.3229999999999
 30
0.0
 11
-82.86399999999998
 21
102.8299999999999
 31
0.0
  0
LINE
  5
1E0
330
A
100
AcDbEntity
  8
PV
  6
Continuous
 62
   254
100
AcDbLine
 10
-79.953
 20
103.1289999999999
 30
0.0
 11
-79.953
 21
102.8299999999999
 31
0.0
  0
LINE
  5
1E1
330
A
100
AcDbEntity
  8
PV
  6
Continuous
 62
   254
100
AcDbLine
 10
-79.953
 20
103.726
 30
0.0
 11
-79.953
 21
103.427
 31
0.0
  0
LINE
  5
1E2
330
A
100
AcDbEntity
  8
PV
  6
Continuous
 62
   254
100
AcDbLine
 10
-80.625
 20
104.024
 30
0.0
 11
-79.953
 21
104.024
 31
0.0
  0
LINE
  5
1E3
330
A
100
AcDbEntity
  8
PV
  6
Continuous
 62
   254
100
AcDbLine
 10
-80.625
 20
103.1289999999999
 30
0.0
 11
-79.953
 21
103.1289999999999
 31
0.0
  0
LINE
  5
1E4
330
A
100
AcDbEntity
  8
PV
  6
Continuous
 62
   254
100
AcDbLine
 10
-81.04699999999999
 20
103.726
 30
0.0
 11
-79.953
 21
103.726
 31
0.0
  0
LINE
  5
1E5
330
A
100
AcDbEntity
  8
PV
  6
Continuous
 62
   254
100
AcDbLine
 10
-81.04699999999999
 20
103.427
 30
0.0
 11
-79.953
 21
103.427
 31
0.0
  0
LINE
  5
1E6
330
A
100
AcDbEntity
  8
PV
  6
Continuous
 62
   254
100
AcDbLine
 10
-82.86399999999998
 20
102.8299999999999
 30
0.0
 11
-82.565
 21
102.8299999999999
 31
0.0
  0
LINE
  5
1E7
330
A
100
AcDbEntity
  8
PV
  6
Continuous
 62
   254
100
AcDbLine
 10
-82.86399999999998
 20
104.3229999999999
 30
0.0
 11
-82.565
 21
104.3229999999999
 31
0.0
  0
LINE
  5
1E8
330
A
100
AcDbEntity
  8
PV
  6
Continuous
 62
   254
100
AcDbLine
 10
-80.625
 20
102.8299999999999
 30
0.0
 11
-79.953
 21
102.8299999999999
 31
0.0
  0
LINE
  5
1E9
330
A
100
AcDbEntity
  8
PV
  6
Continuous
 62
   254
100
AcDbLine
 10
-80.625
 20
104.3229999999999
 30
0.0
 11
-79.953
 21
104.3229999999999
 31
0.0
  0
LINE
  5
1EA
330
A
100
AcDbEntity
  8
PV
  6
Continuous
 62
   254
100
AcDbLine
 10
-88.61
 20
104.3229999999999
 30
0.0
 11
-88.61
 21
102.8299999999999
 31
0.0
  0
LINE
  5
1EB
330
A
100
AcDbEntity
  8
PV
  6
Continuous
 62
   254
100
AcDbLine
 10
-88.90799999999998
 20
104.3229999999999
 30
0.0
 11
-88.90799999999998
 21
102.8299999999999
 31
0.0
  0
LINE
  5
1EC
330
A
100
AcDbEntity
  8
PV
  6
Continuous
 62
   254
100
AcDbLine
 10
-88.90799999999998
 20
102.8299999999999
 30
0.0
 11
-88.61
 21
102.8299999999999
 31
0.0
  0
LINE
  5
1ED
330
A
100
AcDbEntity
  8
PV
  6
Continuous
 62
   254
100
AcDbLine
 10
-88.90799999999998
 20
104.3229999999999
 30
0.0
 11
-88.61
 21
104.3229999999999
 31
0.0
  0
LINE
  5
1EE
330
A
100
AcDbEntity
  8
PV
  6
Continuous
 62
   254
100
AcDbLine
 10
-89.49700000000001
 20
102.8299999999999
 30
0.0
 11
-89.13200000000001
 21
102.8299999999999
 31
0.0
  0
LINE
  5
1EF
330
A
100
AcDbEntity
  8
PV
  6
Continuous
 62
   254
100
AcDbLine
 10
-90.326
 20
103.427
 30
0.0
 11
-90.326
 21
102.8299999999999
 31
0.0
  0
LINE
  5
1F0
330
A
100
AcDbEntity
  8
PV
  6
Continuous
 62
   254
100
AcDbLine
 10
-90.625
 20
104.3229999999999
 30
0.0
 11
-89.58
 21
104.3229999999999
 31
0.0
  0
LINE
  5
1F1
330
A
100
AcDbEntity
  8
PV
  6
Continuous
 62
   254
100
AcDbLine
 10
-90.625
 20
102.8299999999999
 30
0.0
 11
-90.326
 21
102.8299999999999
 31
0.0
  0
LINE
  5
1F2
330
A
100
AcDbEntity
  8
PV
  6
Continuous
 62
   254
100
AcDbLine
 10
-89.58
 20
103.726
 30
0.0
 11
-90.326
 21
103.726
 31
0.0
  0
LINE
  5
1F3
330
A
100
AcDbEntity
  8
PV
  6
Continuous
 62
   254
100
AcDbLine
 10
-89.58
 20
104.024
 30
0.0
 11
-90.326
 21
104.024
 31
0.0
  0
LINE
  5
1F4
330
A
100
AcDbEntity
  8
PV
  6
Continuous
 62
   254
100
AcDbLine
 10
-90.326
 20
103.427
 30
0.0
 11
-89.915
 21
103.427
 31
0.0
  0
LINE
  5
1F5
330
A
100
AcDbEntity
  8
PV
  6
Continuous
 62
   254
100
AcDbLine
 10
-79.953
 20
104.3229999999999
 30
0.0
 11
-79.953
 21
104.024
 31
0.0
  0
LINE
  5
1F6
330
A
100
AcDbEntity
  8
PV
  6
Continuous
 62
   254
100
AcDbLine
 10
-90.326
 20
104.024
 30
0.0
 11
-90.326
 21
103.875
 31
0.0
  0
LINE
  5
1F7
330
A
100
AcDbEntity
  8
PV
  6
Continuous
 62
   254
100
AcDbLine
 10
-90.625
 20
104.3229999999999
 30
0.0
 11
-90.625
 21
103.875
 31
0.0
  0
LINE
  5
1F8
330
A
100
AcDbEntity
  8
PV
  6
Continuous
 62
   254
100
AcDbLine
 10
-90.92299999999999
 20
104.3229999999999
 30
0.0
 11
-90.92299999999999
 21
102.8299999999999
 31
0.0
  0
LINE
  5
1F9
330
A
100
AcDbEntity
  8
PV
  6
Continuous
 62
   254
100
AcDbLine
 10
-91.22200000000001
 20
104.3229999999999
 30
0.0
 11
-91.22200000000001
 21
102.8299999999999
 31
0.0
  0
LINE
  5
1FA
330
A
100
AcDbEntity
  8
PV
  6
Continuous
 62
   254
100
AcDbLine
 10
-91.22200000000001
 20
102.8299999999999
 30
0.0
 11
-90.92299999999999
 21
102.8299999999999
 31
0.0
  0
LINE
  5
1FB
330
A
100
AcDbEntity
  8
PV
  6
Continuous
 62
   254
100
AcDbLine
 10
-91.22200000000001
 20
104.3229999999999
 30
0.0
 11
-90.92299999999999
 21
104.3229999999999
 31
0.0
  0
LINE
  5
1FC
330
A
100
AcDbEntity
  8
PV
  6
Continuous
 62
   254
100
AcDbLine
 10
-87.71399999999999
 20
104.024
 30
0.0
 11
-87.04299999999999
 21
104.024
 31
0.0
  0
LINE
  5
1FD
330
A
100
AcDbEntity
  8
PV
  6
Continuous
 62
   254
100
AcDbLine
 10
-84.655
 20
103.577
 30
0.0
 11
-84.356
 21
103.577
 31
0.0
  0
LINE
  5
1FE
330
A
100
AcDbEntity
  8
PV
  6
Continuous
 62
     7
100
AcDbLine
 10
-98.18100000000001
 20
101.827
 30
0.0
 11
-61.81899999999999
 21
101.827
 31
0.0
  0
CIRCLE
  5
1FF
330
A
100
AcDbEntity
  8
PV
  6
Continuous
 62
     7
100
AcDbCircle
 10
80.0
 20
-38.0
 30
0.0
 40
1.199999999999999
  0
CIRCLE
  5
200
330
A
100
AcDbEntity
  8
PV
  6
Continuous
 62
     7
100
AcDbCircle
 10
80.0
 20
-38.0
 30
0.0
 40
1.5
  0
CIRCLE
  5
201
330
A
100
AcDbEntity
  8
PV
  6
Continuous
 62
     7
100
AcDbCircle
 10
60.0
 20
-38.0
 30
0.0
 40
1.199999999999999
  0
CIRCLE
  5
202
330
A
100
AcDbEntity
  8
PV
  6
Continuous
 62
     7
100
AcDbCircle
 10
60.0
 20
-38.0
 30
0.0
 40
1.5
  0
CIRCLE
  5
203
330
A
100
AcDbEntity
  8
PV
  6
Continuous
 62
     7
100
AcDbCircle
 10
80.0
 20
2.5
 30
0.0
 40
1.199999999999999
  0
CIRCLE
  5
204
330
A
100
AcDbEntity
  8
PV
  6
Continuous
 62
     7
100
AcDbCircle
 10
80.0
 20
2.5
 30
0.0
 40
1.5
  0
CIRCLE
  5
205
330
A
100
AcDbEntity
  8
PV
  6
Continuous
 62
     7
100
AcDbCircle
 10
60.0
 20
2.5
 30
0.0
 40
1.199999999999999
  0
CIRCLE
  5
206
330
A
100
AcDbEntity
  8
PV
  6
Continuous
 62
     7
100
AcDbCircle
 10
60.0
 20
2.5
 30
0.0
 40
1.5
  0
CIRCLE
  5
207
330
A
100
AcDbEntity
  8
PV
  6
Continuous
 62
     7
100
AcDbCircle
 10
70.0
 20
-9.0
 30
0.0
 40
3.879999999999999
  0
CIRCLE
  5
208
330
A
100
AcDbEntity
  8
PV
  6
Continuous
 62
     7
100
AcDbCircle
 10
70.0
 20
-9.0
 30
0.0
 40
4.849999999999999
  0
CIRCLE
  5
209
330
A
100
AcDbEntity
  8
PV
  6
Continuous
 62
     7
100
AcDbCircle
 10
70.0
 20
-33.5
 30
0.0
 40
3.879999999999999
  0
CIRCLE
  5
20A
330
A
100
AcDbEntity
  8
PV
  6
Continuous
 62
     7
100
AcDbCircle
 10
70.0
 20
-33.5
 30
0.0
 40
4.849999999999999
  0
ARC
  5
20B
330
A
100
AcDbEntity
  8
PV
  6
Continuous
 62
     7
100
AcDbCircle
 10
-130.325
 20
-85.0
 30
0.0
 40
27.0
100
AcDbArc
 50
329.754696
 51
30.24530399999999
  0
ARC
  5
20C
330
A
100
AcDbEntity
  8
PV
  6
Continuous
 62
     7
100
AcDbCircle
 10
-128.151
 20
-66.5
 30
0.0
 40
1.5
100
AcDbArc
 50
15.00001099999999
 51
89.999962
  0
ARC
  5
20D
330
A
100
AcDbEntity
  8
PV
  6
Continuous
 62
     7
100
AcDbCircle
 10
-98.50000000000001
 20
-133.151
 30
0.0
 40
1.5
100
AcDbArc
 50
105.000006
 51
179.999937
  0
ARC
  5
20E
330
A
100
AcDbEntity
  8
PV
  6
Continuous
 62
     7
100
AcDbCircle
 10
-61.5
 20
-133.151
 30
0.0
 40
1.5
100
AcDbArc
 50
359.999986
 51
74.999944
  0
ARC
  5
20F
330
A
100
AcDbEntity
  8
PV
  6
Continuous
 62
     7
100
AcDbCircle
 10
-128.151
 20
-103.4999999999999
 30
0.0
 40
1.5
100
AcDbArc
 50
270.0000179999999
 51
344.999976
  0
CIRCLE
  5
210
330
A
100
AcDbEntity
  8
PV
  6
Continuous
 62
     7
100
AcDbCircle
 10
-57.5
 20
114.327
 30
0.0
 40
5.5
  0
CIRCLE
  5
211
330
A
100
AcDbEntity
  8
PV
  6
Continuous
 62
     7
100
AcDbCircle
 10
-102.4999999999999
 20
114.327
 30
0.0
 40
5.5
  0
CIRCLE
  5
212
330
A
100
AcDbEntity
  8
PV
  6
Continuous
 62
     7
100
AcDbCircle
 10
-102.4999999999999
 20
69.327
 30
0.0
 40
5.5
  0
CIRCLE
  5
213
330
A
100
AcDbEntity
  8
PV
  6
Continuous
 62
     7
100
AcDbCircle
 10
-57.5
 20
69.327
 30
0.0
 40
5.5
  0
ARC
  5
214
330
A
100
AcDbEntity
  8
PV
  6
Continuous
 62
     7
100
AcDbCircle
 10
-80.0
 20
91.82700000000002
 30
0.0
 40
39.0
100
AcDbArc
 50
40.851252
 51
49.148747
  0
ARC
  5
215
330
A
100
AcDbEntity
  8
PV
  6
Continuous
 62
     7
100
AcDbCircle
 10
-80.0
 20
91.82700000000002
 30
0.0
 40
39.0
100
AcDbArc
 50
310.851253
 51
319.148748
  0
ARC
  5
216
330
A
100
AcDbEntity
  8
PV
  6
Continuous
 62
     7
100
AcDbCircle
 10
-80.0
 20
91.82700000000002
 30
0.0
 40
39.0
100
AcDbArc
 50
220.851247
 51
229.1487519999999
  0
ARC
  5
217
330
A
100
AcDbEntity
  8
PV
  6
Continuous
 62
     7
100
AcDbCircle
 10
-80.0
 20
91.82700000000002
 30
0.0
 40
39.0
100
AcDbArc
 50
130.851248
 51
139.148753
  0
ARC
  5
218
330
A
100
AcDbEntity
  8
PV
  6
Continuous
 62
     7
100
AcDbCircle
 10
-49.5
 20
80.327
 30
0.0
 40
2.0
100
AcDbArc
 50
269.9999969999999
 51
0.0
  0
ARC
  5
219
330
A
100
AcDbEntity
  8
PV
  6
Continuous
 62
     7
100
AcDbCircle
 10
-49.5
 20
103.327
 30
0.0
 40
2.0
100
AcDbArc
 50
0.0
 51
90.00000300000001
  0
ARC
  5
21A
330
A
100
AcDbEntity
  8
PV
  6
Continuous
 62
     7
100
AcDbCircle
 10
-128.151
 20
73.32699999999999
 30
0.0
 40
1.5
100
AcDbArc
 50
270.0000379999999
 51
344.999989
  0
ARC
  5
21B
330
A
100
AcDbEntity
  8
PV
  6
Continuous
 62
     7
100
AcDbCircle
 10
51.5
 20
-133.151
 30
0.0
 40
1.5
100
AcDbArc
 50
105.000006
 51
179.999937
  0
ARC
  5
21C
330
A
100
AcDbEntity
  8
PV
  6
Continuous
 62
     7
100
AcDbCircle
 10
-128.151
 20
110.327
 30
0.0
 40
1.5
100
AcDbArc
 50
15.00001099999999
 51
89.999962
  0
ARC
  5
21D
330
A
100
AcDbEntity
  8
PV
  6
Continuous
 62
     7
100
AcDbCircle
 10
88.49999999999999
 20
-133.151
 30
0.0
 40
1.5
100
AcDbArc
 50
359.999986
 51
74.999944
  0
LINE
  5
21E
330
A
100
AcDbEntity
  8
PV
  6
Continuous
 62
     7
100
AcDbLine
 10
-54.49
 20
6.5
 30
0.0
 11
-54.49
 21
-42.0
 31
0.0
  0
LINE
  5
21F
330
A
100
AcDbEntity
  8
PV
  6
Continuous
 62
     7
100
AcDbLine
 10
-105.51
 20
6.5
 30
0.0
 11
-105.51
 21
-42.0
 31
0.0
  0
LINE
  5
220
330
A
100
AcDbEntity
  8
PV
  6
Continuous
 62
     7
100
AcDbLine
 10
95.51
 20
6.5
 30
0.0
 11
95.51
 21
-42.0
 31
0.0
  0
LINE
  5
221
330
A
100
AcDbEntity
  8
PV
  6
Continuous
 62
     7
100
AcDbLine
 10
44.49
 20
6.5
 30
0.0
 11
44.49
 21
-42.0
 31
0.0
  0
LINE
  5
223
330
A
100
AcDbEntity
  8
PV
  6
CENTER
 62
     7
100
AcDbLine
 10
80.0
 20
-41.10899999999999
 30
0.0
 11
80.0
 21
-34.864
 31
0.0
  0
LINE
  5
224
330
A
100
AcDbEntity
  8
PV
  6
CENTER
 62
     7
100
AcDbLine
 10
82.60099999999999
 20
-38.0
 30
0.0
 11
77.37100000000001
 21
-38.0
 31
0.0
  0
LINE
  5
225
330
A
100
AcDbEntity
  8
PV
  6
CENTER
 62
     7
100
AcDbLine
 10
57.39899999999999
 20
-38.0
 30
0.0
 11
62.629
 21
-38.0
 31
0.0
  0
LINE
  5
226
330
A
100
AcDbEntity
  8
PV
  6
CENTER
 62
     7
100
AcDbLine
 10
60.0
 20
-41.10899999999999
 30
0.0
 11
60.0
 21
-34.864
 31
0.0
  0
LINE
  5
227
330
A
100
AcDbEntity
  8
PV
  6
CENTER
 62
     7
100
AcDbLine
 10
82.60099999999999
 20
2.5
 30
0.0
 11
77.37100000000001
 21
2.5
 31
0.0
  0
LINE
  5
228
330
A
100
AcDbEntity
  8
PV
  6
CENTER
 62
     7
100
AcDbLine
 10
80.0
 20
5.608999999999999
 30
0.0
 11
80.0
 21
-0.6360000000000001
 31
0.0
  0
LINE
  5
229
330
A
100
AcDbEntity
  8
PV
  6
CENTER
 62
     7
100
AcDbLine
 10
57.39899999999999
 20
2.5
 30
0.0
 11
62.629
 21
2.5
 31
0.0
  0
LINE
  5
22A
330
A
100
AcDbEntity
  8
PV
  6
CENTER
 62
     7
100
AcDbLine
 10
60.0
 20
5.608999999999999
 30
0.0
 11
60.0
 21
-0.6360000000000001
 31
0.0
  0
LINE
  5
22B
330
A
100
AcDbEntity
  8
PV
  6
Continuous
 62
     7
100
AcDbLine
 10
-74.1
 20
67.027
 30
0.0
 11
-67.9
 21
67.027
 31
0.0
  0
LINE
  5
22C
330
A
100
AcDbEntity
  8
PV
  6
Continuous
 62
     7
100
AcDbLine
 10
-68.79999999999999
 20
62.327
 30
0.0
 11
-68.79999999999999
 21
63.32699999999999
 31
0.0
  0
LINE
  5
22D
330
A
100
AcDbEntity
  8
PV
  6
Continuous
 62
     7
100
AcDbLine
 10
-68.79999999999999
 20
63.32699999999999
 30
0.0
 11
-67.9
 21
63.32699999999999
 31
0.0
  0
LINE
  5
22E
330
A
100
AcDbEntity
  8
PV
  6
Continuous
 62
     7
100
AcDbLine
 10
-67.9
 20
63.32699999999999
 30
0.0
 11
-67.9
 21
67.027
 31
0.0
  0
LINE
  5
22F
330
A
100
AcDbEntity
  8
PV
  6
Continuous
 62
     7
100
AcDbLine
 10
-73.2
 20
62.327
 30
0.0
 11
-73.2
 21
63.32699999999999
 31
0.0
  0
LINE
  5
230
330
A
100
AcDbEntity
  8
PV
  6
Continuous
 62
     7
100
AcDbLine
 10
-74.1
 20
63.32699999999999
 30
0.0
 11
-73.2
 21
63.32699999999999
 31
0.0
  0
LINE
  5
231
330
A
100
AcDbEntity
  8
PV
  6
Continuous
 62
     7
100
AcDbLine
 10
-74.1
 20
63.32699999999999
 30
0.0
 11
-74.1
 21
67.027
 31
0.0
  0
LINE
  5
232
330
A
100
AcDbEntity
  8
PV
  6
Continuous
 62
     7
100
AcDbLine
 10
-85.90000000000001
 20
63.32699999999999
 30
0.0
 11
-85.90000000000001
 21
67.027
 31
0.0
  0
LINE
  5
233
330
A
100
AcDbEntity
  8
PV
  6
Continuous
 62
     7
100
AcDbLine
 10
-86.79999999999999
 20
62.327
 30
0.0
 11
-86.79999999999999
 21
63.32699999999999
 31
0.0
  0
LINE
  5
234
330
A
100
AcDbEntity
  8
PV
  6
Continuous
 62
     7
100
AcDbLine
 10
-86.79999999999999
 20
63.32699999999999
 30
0.0
 11
-85.90000000000001
 21
63.32699999999999
 31
0.0
  0
LINE
  5
235
330
A
100
AcDbEntity
  8
PV
  6
Continuous
 62
     7
100
AcDbLine
 10
-91.2
 20
62.327
 30
0.0
 11
-91.2
 21
63.32699999999999
 31
0.0
  0
LINE
  5
236
330
A
100
AcDbEntity
  8
PV
  6
Continuous
 62
     7
100
AcDbLine
 10
-92.09999999999999
 20
63.32699999999999
 30
0.0
 11
-91.2
 21
63.32699999999999
 31
0.0
  0
LINE
  5
237
330
A
100
AcDbEntity
  8
PV
  6
Continuous
 62
     7
100
AcDbLine
 10
-92.09999999999999
 20
63.32699999999999
 30
0.0
 11
-92.09999999999999
 21
67.027
 31
0.0
  0
LINE
  5
238
330
A
100
AcDbEntity
  8
PV
  6
Continuous
 62
     7
100
AcDbLine
 10
-92.09999999999999
 20
67.027
 30
0.0
 11
-85.90000000000001
 21
67.027
 31
0.0
  0
LINE
  5
239
330
A
100
AcDbEntity
  8
PV
  6
CENTER
 62
     7
100
AcDbLine
 10
-102.4999999999999
 20
13.346
 30
0.0
 11
-102.4999999999999
 21
-56.46399999999999
 31
0.0
  0
LINE
  5
23A
330
A
100
AcDbEntity
  8
PV
  6
Continuous
 62
     7
100
AcDbLine
 10
56.5
 20
6.5
 30
0.0
 11
56.5
 21
-42.0
 31
0.0
  0
LINE
  5
23B
330
A
100
AcDbEntity
  8
PV
  6
Continuous
 62
     7
100
AcDbLine
 10
83.49999999999999
 20
6.5
 30
0.0
 11
83.49999999999999
 21
-42.0
 31
0.0
  0
LINE
  5
23C
330
A
100
AcDbEntity
  8
PV
  6
Continuous
 62
     7
100
AcDbLine
 10
-53.015
 20
-107.4999999999999
 30
0.0
 11
-106.949
 21
-107.4999999999999
 31
0.0
  0
LINE
  5
23D
330
A
100
AcDbEntity
  8
PV
  6
Continuous
 62
     7
100
AcDbLine
 10
-53.0
 20
-107.4999999999999
 30
0.0
 11
-55.0
 21
-109.4999999999999
 31
0.0
  0
LINE
  5
23E
330
A
100
AcDbEntity
  8
PV
  6
Continuous
 62
     7
100
AcDbLine
 10
-107.0
 20
-107.4999999999999
 30
0.0
 11
-105.0
 21
-109.4999999999999
 31
0.0
  0
LINE
  5
23F
330
A
100
AcDbEntity
  8
PV
  6
Continuous
 62
     7
100
AcDbLine
 10
-109.4999999999999
 20
-42.04699999999999
 30
0.0
 11
-109.4999999999999
 21
-53.0
 31
0.0
  0
LINE
  5
240
330
A
100
AcDbEntity
  8
PV
  6
Continuous
 62
     7
100
AcDbLine
 10
-109.4999999999999
 20
6.5
 30
0.0
 11
-47.5
 21
6.5
 31
0.0
  0
LINE
  5
241
330
A
100
AcDbEntity
  8
PV
  6
Continuous
 62
     7
100
AcDbLine
 10
-50.5
 20
6.346
 30
0.0
 11
-50.5
 21
-42.0
 31
0.0
  0
LINE
  5
242
330
A
100
AcDbEntity
  8
PV
  6
CENTER
 62
     7
100
AcDbLine
 10
-57.5
 20
13.346
 30
0.0
 11
-57.5
 21
-56.46399999999999
 31
0.0
  0
LINE
  5
243
330
A
100
AcDbEntity
  8
PV
  6
Continuous
 62
     7
100
AcDbLine
 10
-56.0
 20
-42.20699999999999
 30
0.0
 11
-56.0
 21
-53.0
 31
0.0
  0
LINE
  5
244
330
A
100
AcDbEntity
  8
PV
  6
Continuous
 62
     7
100
AcDbLine
 10
-104.0
 20
-42.20699999999999
 30
0.0
 11
-104.0
 21
-53.0
 31
0.0
  0
LINE
  5
245
330
A
100
AcDbEntity
  8
PV
  6
Continuous
 62
     7
100
AcDbLine
 10
-107.0
 20
-98.59999999999999
 30
0.0
 11
-107.0
 21
-107.4999999999999
 31
0.0
  0
LINE
  5
246
330
A
100
AcDbEntity
  8
PV
  6
Continuous
 62
     7
100
AcDbLine
 10
-125.285
 20
-98.59999999999999
 30
0.0
 11
-107.0
 21
-98.59999999999999
 31
0.0
  0
LINE
  5
247
330
A
100
AcDbEntity
  8
PV
  6
Continuous
 62
     7
100
AcDbLine
 10
-125.285
 20
-71.4
 30
0.0
 11
-107.0
 21
-71.4
 31
0.0
  0
LINE
  5
248
330
A
100
AcDbEntity
  8
PV
  6
Continuous
 62
     7
100
AcDbLine
 10
-53.0
 20
-53.0
 30
0.0
 11
-53.0
 21
-107.4999999999999
 31
0.0
  0
LINE
  5
249
330
A
100
AcDbEntity
  8
PV
  6
Continuous
 62
     7
100
AcDbLine
 10
-130.0
 20
-105.0
 30
0.0
 11
-130.0
 21
-65.0
 31
0.0
  0
LINE
  5
24A
330
A
100
AcDbEntity
  8
PV
  6
Continuous
 62
     7
100
AcDbLine
 10
-125.285
 20
-98.59999999999999
 30
0.0
 11
-125.285
 21
-71.4
 31
0.0
  0
LINE
  5
24B
330
A
100
AcDbEntity
  8
PV
  6
Continuous
 62
     7
100
AcDbLine
 10
-127.0
 20
-104.462
 30
0.0
 11
-127.0
 21
-65.53799999999999
 31
0.0
  0
LINE
  5
24C
330
A
100
AcDbEntity
  8
PV
  6
Continuous
 62
     7
100
AcDbLine
 10
-126.702
 20
-66.112
 30
0.0
 11
-125.285
 21
-71.4
 31
0.0
  0
LINE
  5
24D
330
A
100
AcDbEntity
  8
PV
  6
Continuous
 62
     7
100
AcDbLine
 10
-130.0
 20
-65.0
 30
0.0
 11
-128.151
 21
-65.0
 31
0.0
  0
LINE
  5
24E
330
A
100
AcDbEntity
  8
PV
  6
Continuous
 62
     7
100
AcDbLine
 10
-109.4999999999999
 20
6.346
 30
0.0
 11
-109.4999999999999
 21
-42.0
 31
0.0
  0
LINE
  5
24F
330
A
100
AcDbEntity
  8
PV
  6
Continuous
 62
     7
100
AcDbLine
 10
-50.5
 20
-42.04699999999999
 30
0.0
 11
-50.5
 21
-53.0
 31
0.0
  0
LINE
  5
250
330
A
100
AcDbEntity
  8
PV
  6
Continuous
 62
     7
100
AcDbLine
 10
-50.5
 20
-53.0
 30
0.0
 11
-109.4999999999999
 21
-53.0
 31
0.0
  0
LINE
  5
251
330
A
100
AcDbEntity
  8
PV
  6
Continuous
 62
     7
100
AcDbLine
 10
-107.0
 20
-52.997
 30
0.0
 11
-107.0
 21
-71.4
 31
0.0
  0
LINE
  5
252
330
A
100
AcDbEntity
  8
PV
  6
CENTER
 62
     7
100
AcDbLine
 10
-44.729
 20
-31.5
 30
0.0
 11
-57.682
 21
-31.5
 31
0.0
  0
LINE
  5
253
330
A
100
AcDbEntity
  8
PV
  6
CENTER
 62
     7
100
AcDbLine
 10
-44.67999999999999
 20
-9.5
 30
0.0
 11
-57.51699999999999
 21
-9.5
 31
0.0
  0
LINE
  5
254
330
A
100
AcDbEntity
  8
PV
  6
Continuous
 62
     7
100
AcDbLine
 10
-47.5
 20
6.5
 30
0.0
 11
-47.5
 21
-42.0
 31
0.0
  0
LINE
  5
255
330
A
100
AcDbEntity
  8
PV
  6
Continuous
 62
     7
100
AcDbLine
 10
-109.4999999999999
 20
-42.0
 30
0.0
 11
-47.5
 21
-42.0
 31
0.0
  0
LINE
  5
256
330
A
100
AcDbEntity
  8
PV
  6
Continuous
 62
     7
100
AcDbLine
 10
-55.0
 20
-109.4999999999999
 30
0.0
 11
-105.0
 21
-109.4999999999999
 31
0.0
  0
LINE
  5
257
330
A
100
AcDbEntity
  8
PV
  6
CENTER
 62
     7
100
AcDbLine
 10
-80.0
 20
9.722000000000001
 30
0.0
 11
-80.0
 21
-142.7089999999999
 31
0.0
  0
LINE
  5
258
330
A
100
AcDbEntity
  8
PV
  6
Continuous
 62
     7
100
AcDbLine
 10
-60.0
 20
-135.0
 30
0.0
 11
-100.0
 21
-135.0
 31
0.0
  0
LINE
  5
259
330
A
100
AcDbEntity
  8
PV
  6
Continuous
 62
     7
100
AcDbLine
 10
-66.4
 20
-130.285
 30
0.0
 11
-93.59999999999999
 21
-130.285
 31
0.0
  0
LINE
  5
25A
330
A
100
AcDbEntity
  8
PV
  6
Continuous
 62
     7
100
AcDbLine
 10
-60.538
 20
-132.0
 30
0.0
 11
-99.46200000000001
 21
-132.0
 31
0.0
  0
LINE
  5
25B
330
A
100
AcDbEntity
  8
PV
  6
Continuous
 62
     7
100
AcDbLine
 10
-98.88799999999999
 20
-131.702
 30
0.0
 11
-93.59999999999999
 21
-130.285
 31
0.0
  0
LINE
  5
25C
330
A
100
AcDbEntity
  8
PV
  6
Continuous
 62
     7
100
AcDbLine
 10
-100.0
 20
-135.0
 30
0.0
 11
-100.0
 21
-133.151
 31
0.0
  0
LINE
  5
25D
330
A
100
AcDbEntity
  8
PV
  6
Continuous
 62
     7
100
AcDbLine
 10
-93.59999999999999
 20
-130.285
 30
0.0
 11
-93.59999999999999
 21
-109.4999999999999
 31
0.0
  0
LINE
  5
25E
330
A
100
AcDbEntity
  8
PV
  6
CENTER
 62
     7
100
AcDbLine
 10
-138.3879999999999
 20
-85.0
 30
0.0
 11
-93.49999999999999
 21
-85.0
 31
0.0
  0
LINE
  5
25F
330
A
100
AcDbEntity
  8
PV
  6
Continuous
 62
     7
100
AcDbLine
 10
-61.112
 20
-131.702
 30
0.0
 11
-66.4
 21
-130.285
 31
0.0
  0
LINE
  5
260
330
A
100
AcDbEntity
  8
PV
  6
Continuous
 62
     7
100
AcDbLine
 10
-66.4
 20
-130.285
 30
0.0
 11
-66.4
 21
-109.4999999999999
 31
0.0
  0
LINE
  5
261
330
A
100
AcDbEntity
  8
PV
  6
Continuous
 62
     7
100
AcDbLine
 10
-60.0
 20
-135.0
 30
0.0
 11
-60.0
 21
-133.151
 31
0.0
  0
LINE
  5
262
330
A
100
AcDbEntity
  8
PV
  6
Continuous
 62
     7
100
AcDbLine
 10
-126.702
 20
-103.888
 30
0.0
 11
-125.285
 21
-98.59999999999999
 31
0.0
  0
LINE
  5
263
330
A
100
AcDbEntity
  8
PV
  6
Continuous
 62
     7
100
AcDbLine
 10
-130.0
 20
-105.0
 30
0.0
 11
-128.151
 21
-105.0
 31
0.0
  0
LINE
  5
264
330
A
100
AcDbEntity
  8
PV
  6
Continuous
 62
     7
100
AcDbLine
 10
-67.8
 20
-42.0
 30
0.0
 11
-67.8
 21
6.457999999999999
 31
0.0
  0
LINE
  5
265
330
A
100
AcDbEntity
  8
PV
  6
Continuous
 62
     7
100
AcDbLine
 10
-72.2
 20
-41.793
 30
0.0
 11
-72.2
 21
6.346
 31
0.0
  0
LINE
  5
266
330
A
100
AcDbEntity
  8
PV
  6
Continuous
 62
     7
100
AcDbLine
 10
-87.79999999999999
 20
-42.0
 30
0.0
 11
-87.79999999999999
 21
6.528999999999999
 31
0.0
  0
LINE
  5
267
330
A
100
AcDbEntity
  8
PV
  6
Continuous
 62
     7
100
AcDbLine
 10
-92.2
 20
-42.0
 30
0.0
 11
-92.2
 21
6.457999999999999
 31
0.0
  0
LINE
  5
268
330
A
100
AcDbEntity
  8
PV
  6
Continuous
 62
     7
100
AcDbLine
 10
96.98500000000001
 20
-107.4999999999999
 30
0.0
 11
43.051
 21
-107.4999999999999
 31
0.0
  0
LINE
  5
269
330
A
100
AcDbEntity
  8
PV
  6
Continuous
 62
     7
100
AcDbLine
 10
97.0
 20
-107.4999999999999
 30
0.0
 11
95.0
 21
-109.4999999999999
 31
0.0
  0
LINE
  5
26A
330
A
100
AcDbEntity
  8
PV
  6
Continuous
 62
     7
100
AcDbLine
 10
43.0
 20
-107.4999999999999
 30
0.0
 11
45.0
 21
-109.4999999999999
 31
0.0
  0
LINE
  5
26B
330
A
100
AcDbEntity
  8
PV
  6
CENTER
 62
     7
100
AcDbLine
 10
-97.505
 20
114.327
 30
0.0
 11
-106.7839999999999
 21
114.327
 31
0.0
  0
LINE
  5
26C
330
A
100
AcDbEntity
  8
PV
  6
Continuous
 62
     7
100
AcDbLine
 10
-73.59999999999999
 20
120.327
 30
0.0
 11
-72.7
 21
120.327
 31
0.0
  0
LINE
  5
26D
330
A
100
AcDbEntity
  8
PV
  6
Continuous
 62
     7
100
AcDbLine
 10
-72.7
 20
121.327
 30
0.0
 11
-72.7
 21
120.327
 31
0.0
  0
LINE
  5
26E
330
A
100
AcDbEntity
  8
PV
  6
Continuous
 62
     7
100
AcDbLine
 10
-68.3
 20
121.327
 30
0.0
 11
-68.3
 21
120.327
 31
0.0
  0
LINE
  5
26F
330
A
100
AcDbEntity
  8
PV
  6
Continuous
 62
     7
100
AcDbLine
 10
-68.3
 20
120.327
 30
0.0
 11
-67.40000000000001
 21
120.327
 31
0.0
  0
LINE
  5
270
330
A
100
AcDbEntity
  8
PV
  6
Continuous
 62
     7
100
AcDbLine
 10
-67.40000000000001
 20
120.327
 30
0.0
 11
-67.40000000000001
 21
116.627
 31
0.0
  0
LINE
  5
271
330
A
100
AcDbEntity
  8
PV
  6
Continuous
 62
     7
100
AcDbLine
 10
-73.59999999999999
 20
116.627
 30
0.0
 11
-67.40000000000001
 21
116.627
 31
0.0
  0
LINE
  5
272
330
A
100
AcDbEntity
  8
PV
  6
Continuous
 62
     7
100
AcDbLine
 10
-73.59999999999999
 20
120.327
 30
0.0
 11
-73.59999999999999
 21
116.627
 31
0.0
  0
LINE
  5
273
330
A
100
AcDbEntity
  8
PV
  6
Continuous
 62
     7
100
AcDbLine
 10
-91.2
 20
121.327
 30
0.0
 11
-91.2
 21
120.327
 31
0.0
  0
LINE
  5
274
330
A
100
AcDbEntity
  8
PV
  6
Continuous
 62
     7
100
AcDbLine
 10
-92.09999999999999
 20
120.327
 30
0.0
 11
-91.2
 21
120.327
 31
0.0
  0
LINE
  5
275
330
A
100
AcDbEntity
  8
PV
  6
Continuous
 62
     7
100
AcDbLine
 10
-86.79999999999999
 20
121.327
 30
0.0
 11
-86.79999999999999
 21
120.327
 31
0.0
  0
LINE
  5
276
330
A
100
AcDbEntity
  8
PV
  6
Continuous
 62
     7
100
AcDbLine
 10
-86.79999999999999
 20
120.327
 30
0.0
 11
-85.90000000000001
 21
120.327
 31
0.0
  0
LINE
  5
277
330
A
100
AcDbEntity
  8
PV
  6
Continuous
 62
     7
100
AcDbLine
 10
-85.90000000000001
 20
120.327
 30
0.0
 11
-85.90000000000001
 21
116.627
 31
0.0
  0
LINE
  5
278
330
A
100
AcDbEntity
  8
PV
  6
Continuous
 62
     7
100
AcDbLine
 10
-92.09999999999999
 20
116.627
 30
0.0
 11
-85.90000000000001
 21
116.627
 31
0.0
  0
LINE
  5
279
330
A
100
AcDbEntity
  8
PV
  6
Continuous
 62
     7
100
AcDbLine
 10
-92.09999999999999
 20
120.327
 30
0.0
 11
-92.09999999999999
 21
116.627
 31
0.0
  0
LINE
  5
27A
330
A
100
AcDbEntity
  8
PV
  6
Continuous
 62
     7
100
AcDbLine
 10
40.49999999999999
 20
-42.04699999999999
 30
0.0
 11
40.49999999999999
 21
-53.0
 31
0.0
  0
LINE
  5
27B
330
A
100
AcDbEntity
  8
PV
  6
Continuous
 62
     7
100
AcDbLine
 10
40.49999999999999
 20
6.5
 30
0.0
 11
99.50000000000001
 21
6.5
 31
0.0
  0
LINE
  5
27C
330
A
100
AcDbEntity
  8
PV
  6
CENTER
 62
     7
100
AcDbLine
 10
47.5
 20
9.722000000000001
 30
0.0
 11
47.5
 21
-56.46399999999999
 31
0.0
  0
LINE
  5
27D
330
A
100
AcDbEntity
  8
PV
  6
CENTER
 62
     7
100
AcDbLine
 10
92.5
 20
12.859
 30
0.0
 11
92.5
 21
-56.46399999999999
 31
0.0
  0
LINE
  5
27E
330
A
100
AcDbEntity
  8
PV
  6
Continuous
 62
     7
100
AcDbLine
 10
94.0
 20
-42.20699999999999
 30
0.0
 11
94.0
 21
-53.0
 31
0.0
  0
LINE
  5
27F
330
A
100
AcDbEntity
  8
PV
  6
Continuous
 62
     7
100
AcDbLine
 10
46.0
 20
-42.20699999999999
 30
0.0
 11
46.0
 21
-53.0
 31
0.0
  0
LINE
  5
280
330
A
100
AcDbEntity
  8
PV
  6
Continuous
 62
     7
100
AcDbLine
 10
97.0
 20
-53.205
 30
0.0
 11
97.0
 21
-107.4999999999999
 31
0.0
  0
LINE
  5
281
330
A
100
AcDbEntity
  8
PV
  6
Continuous
 62
     7
100
AcDbLine
 10
-125.285
 20
105.427
 30
0.0
 11
-125.285
 21
78.22700000000001
 31
0.0
  0
LINE
  5
282
330
A
100
AcDbEntity
  8
PV
  6
Continuous
 62
     7
100
AcDbLine
 10
-127.0
 20
111.2889999999999
 30
0.0
 11
-127.0
 21
72.36499999999999
 31
0.0
  0
LINE
  5
283
330
A
100
AcDbEntity
  8
PV
  6
Continuous
 62
     7
100
AcDbLine
 10
-126.702
 20
72.938
 30
0.0
 11
-125.285
 21
78.22700000000001
 31
0.0
  0
LINE
  5
284
330
A
100
AcDbEntity
  8
PV
  6
Continuous
 62
     7
100
AcDbLine
 10
-125.285
 20
78.22700000000001
 30
0.0
 11
-109.662
 21
78.22700000000001
 31
0.0
  0
LINE
  5
285
330
A
100
AcDbEntity
  8
PV
  6
Continuous
 62
     7
100
AcDbLine
 10
-130.0
 20
71.827
 30
0.0
 11
-128.151
 21
71.827
 31
0.0
  0
LINE
  5
286
330
A
100
AcDbEntity
  8
PV
  6
Continuous
 62
     7
100
AcDbLine
 10
40.49999999999999
 20
6.5
 30
0.0
 11
40.49999999999999
 21
-42.0
 31
0.0
  0
LINE
  5
287
330
A
100
AcDbEntity
  8
PV
  6
CENTER
 62
     7
100
AcDbLine
 10
-51.0
 20
69.327
 30
0.0
 11
-64.0
 21
69.327
 31
0.0
  0
LINE
  5
288
330
A
100
AcDbEntity
  8
PV
  6
CENTER
 62
     7
100
AcDbLine
 10
-57.5
 20
75.82699999999999
 30
0.0
 11
-57.5
 21
62.827
 31
0.0
  0
LINE
  5
289
330
A
100
AcDbEntity
  8
PV
  6
CENTER
 62
     7
100
AcDbLine
 10
-57.5
 20
107.827
 30
0.0
 11
-57.5
 21
120.827
 31
0.0
  0
LINE
  5
28A
330
A
100
AcDbEntity
  8
PV
  6
CENTER
 62
     7
100
AcDbLine
 10
-52.14
 20
114.327
 30
0.0
 11
-62.597
 21
114.327
 31
0.0
  0
LINE
  5
28B
330
A
100
AcDbEntity
  8
PV
  6
CENTER
 62
     7
100
AcDbLine
 10
-102.4999999999999
 20
107.827
 30
0.0
 11
-102.4999999999999
 21
120.827
 31
0.0
  0
LINE
  5
28C
330
A
100
AcDbEntity
  8
PV
  6
CENTER
 62
     7
100
AcDbLine
 10
-109.0
 20
69.327
 30
0.0
 11
-96.0
 21
69.327
 31
0.0
  0
LINE
  5
28D
330
A
100
AcDbEntity
  8
PV
  6
CENTER
 62
     7
100
AcDbLine
 10
-102.4999999999999
 20
75.82699999999999
 30
0.0
 11
-102.4999999999999
 21
62.827
 31
0.0
  0
LINE
  5
28E
330
A
100
AcDbEntity
  8
PV
  6
CENTER
 62
     7
100
AcDbLine
 10
-133.156
 20
91.82700000000002
 30
0.0
 11
-40.533
 21
91.82700000000002
 31
0.0
  0
LINE
  5
28F
330
A
100
AcDbEntity
  8
PV
  6
CENTER
 62
     7
100
AcDbLine
 10
-80.0
 20
124.4269999999999
 30
0.0
 11
-80.0
 21
59.22699999999999
 31
0.0
  0
LINE
  5
290
330
A
100
AcDbEntity
  8
PV
  6
Continuous
 62
     7
100
AcDbLine
 10
99.50000000000001
 20
6.5
 30
0.0
 11
99.50000000000001
 21
-53.0
 31
0.0
  0
LINE
  5
291
330
A
100
AcDbEntity
  8
PV
  6
Continuous
 62
     7
100
AcDbLine
 10
99.50000000000001
 20
-53.0
 30
0.0
 11
40.49999999999999
 21
-53.0
 31
0.0
  0
LINE
  5
292
330
A
100
AcDbEntity
  8
PV
  6
Continuous
 62
     7
100
AcDbLine
 10
-50.5
 20
78.32699999999999
 30
0.0
 11
-50.5
 21
66.31699999999999
 31
0.0
  0
LINE
  5
293
330
A
100
AcDbEntity
  8
PV
  6
Continuous
 62
     7
100
AcDbLine
 10
-54.49
 20
121.327
 30
0.0
 11
-105.51
 21
121.327
 31
0.0
  0
LINE
  5
294
330
A
100
AcDbEntity
  8
PV
  6
Continuous
 62
     7
100
AcDbLine
 10
-54.49
 20
62.327
 30
0.0
 11
-105.51
 21
62.327
 31
0.0
  0
LINE
  5
295
330
A
100
AcDbEntity
  8
PV
  6
Continuous
 62
     7
100
AcDbLine
 10
-50.5
 20
117.3359999999999
 30
0.0
 11
-50.5
 21
105.327
 31
0.0
  0
LINE
  5
296
330
A
100
AcDbEntity
  8
PV
  6
Continuous
 62
     7
100
AcDbLine
 10
-109.4999999999999
 20
117.3359999999999
 30
0.0
 11
-109.4999999999999
 21
66.31699999999999
 31
0.0
  0
LINE
  5
297
330
A
100
AcDbEntity
  8
PV
  6
Continuous
 62
     7
100
AcDbLine
 10
-47.5
 20
103.327
 30
0.0
 11
-47.5
 21
80.327
 31
0.0
  0
LINE
  5
298
330
A
100
AcDbEntity
  8
PV
  6
Continuous
 62
     7
100
AcDbLine
 10
-49.64100000000001
 20
78.32699999999999
 30
0.0
 11
-50.635
 21
78.32699999999999
 31
0.0
  0
LINE
  5
299
330
A
100
AcDbEntity
  8
PV
  6
Continuous
 62
     7
100
AcDbLine
 10
-49.52799999999999
 20
105.327
 30
0.0
 11
-50.659
 21
105.327
 31
0.0
  0
LINE
  5
29A
330
A
100
AcDbEntity
  8
PV
  6
Continuous
 62
     7
100
AcDbLine
 10
43.0
 20
-53.0
 30
0.0
 11
43.0
 21
-107.4999999999999
 31
0.0
  0
LINE
  5
29B
330
A
100
AcDbEntity
  8
PV
  6
CENTER
 62
     7
100
AcDbLine
 10
76.963
 20
-33.5
 30
0.0
 11
62.924
 21
-33.5
 31
0.0
  0
LINE
  5
29C
330
A
100
AcDbEntity
  8
PV
  6
CENTER
 62
     7
100
AcDbLine
 10
76.963
 20
-9.0
 30
0.0
 11
63.063
 21
-9.0
 31
0.0
  0
LINE
  5
29D
330
A
100
AcDbEntity
  8
PV
  6
Continuous
 62
     7
100
AcDbLine
 10
40.49999999999999
 20
-42.0
 30
0.0
 11
99.50000000000001
 21
-42.0
 31
0.0
  0
LINE
  5
29E
330
A
100
AcDbEntity
  8
PV
  6
Continuous
 62
     7
100
AcDbLine
 10
95.0
 20
-109.4999999999999
 30
0.0
 11
45.0
 21
-109.4999999999999
 31
0.0
  0
LINE
  5
29F
330
A
100
AcDbEntity
  8
PV
  6
CENTER
 62
     7
100
AcDbLine
 10
70.0
 20
10.55599999999999
 30
0.0
 11
70.0
 21
-142.7089999999999
 31
0.0
  0
LINE
  5
2A0
330
A
100
AcDbEntity
  8
PV
  6
Continuous
 62
     7
100
AcDbLine
 10
90.0
 20
-135.0
 30
0.0
 11
50.0
 21
-135.0
 31
0.0
  0
LINE
  5
2A1
330
A
100
AcDbEntity
  8
PV
  6
Continuous
 62
     7
100
AcDbLine
 10
83.59999999999999
 20
-130.285
 30
0.0
 11
56.4
 21
-130.285
 31
0.0
  0
LINE
  5
2A2
330
A
100
AcDbEntity
  8
PV
  6
Continuous
 62
     7
100
AcDbLine
 10
89.46200000000001
 20
-132.0
 30
0.0
 11
50.538
 21
-132.0
 31
0.0
  0
LINE
  5
2A3
330
A
100
AcDbEntity
  8
PV
  6
Continuous
 62
     7
100
AcDbLine
 10
51.112
 20
-131.702
 30
0.0
 11
56.4
 21
-130.285
 31
0.0
  0
LINE
  5
2A4
330
A
100
AcDbEntity
  8
PV
  6
Continuous
 62
     7
100
AcDbLine
 10
50.0
 20
-135.0
 30
0.0
 11
50.0
 21
-133.151
 31
0.0
  0
LINE
  5
2A5
330
A
100
AcDbEntity
  8
PV
  6
Continuous
 62
     7
100
AcDbLine
 10
56.4
 20
-130.285
 30
0.0
 11
56.4
 21
-109.4999999999999
 31
0.0
  0
LINE
  5
2A6
330
A
100
AcDbEntity
  8
PV
  6
Continuous
 62
     7
100
AcDbLine
 10
-130.0
 20
71.827
 30
0.0
 11
-130.0
 21
111.827
 31
0.0
  0
LINE
  5
2A7
330
A
100
AcDbEntity
  8
PV
  6
Continuous
 62
     7
100
AcDbLine
 10
-126.702
 20
110.715
 30
0.0
 11
-125.285
 21
105.427
 31
0.0
  0
LINE
  5
2A8
330
A
100
AcDbEntity
  8
PV
  6
Continuous
 62
     7
100
AcDbLine
 10
-125.285
 20
105.427
 30
0.0
 11
-109.662
 21
105.427
 31
0.0
  0
LINE
  5
2A9
330
A
100
AcDbEntity
  8
PV
  6
Continuous
 62
     7
100
AcDbLine
 10
-130.0
 20
111.827
 30
0.0
 11
-128.151
 21
111.827
 31
0.0
  0
LINE
  5
2AA
330
A
100
AcDbEntity
  8
PV
  6
Continuous
 62
     7
100
AcDbLine
 10
88.88799999999999
 20
-131.702
 30
0.0
 11
83.59999999999999
 21
-130.285
 31
0.0
  0
LINE
  5
2AB
330
A
100
AcDbEntity
  8
PV
  6
Continuous
 62
     7
100
AcDbLine
 10
83.59999999999999
 20
-130.285
 30
0.0
 11
83.59999999999999
 21
-109.4999999999999
 31
0.0
  0
LINE
  5
2AC
330
A
100
AcDbEntity
  8
PV
  6
Continuous
 62
     7
100
AcDbLine
 10
90.0
 20
-135.0
 30
0.0
 11
90.0
 21
-133.151
 31
0.0
  0
ENDSEC
  0
SECTION
  2
OBJECTS
  0
DICTIONARY
  5
19
330
0
100
AcDbDictionary
281
     1
  3
ACAD_GROUP
350
1A
  3
ACAD_LAYOUT
350
1E
  3
ACAD_MLINESTYLE
350
1B
  3
ACAD_PLOTSETTINGS
350
22
  3
ACAD_PLOTSTYLENAME
350
1F
  0
DICTIONARY
  5
1A
102
{ACAD_REACTORS
330
19
102
}
330
19
100
AcDbDictionary
281
     1
  0
DICTIONARY
  5
1E
102
{ACAD_REACTORS
330
19
102
}
330
19
100
AcDbDictionary
281
     1
  3
Layout1
350
21
  3
Model
350
20
  0
DICTIONARY
  5
1B
102
{ACAD_REACTORS
330
19
102
}
330
19
100
AcDbDictionary
281
     1
  3
Standard
350
1C
  0
DICTIONARY
  5
22
102
{ACAD_REACTORS
330
19
102
}
330
19
100
AcDbDictionary
281
     1
  0
ACDBDICTIONARYWDFLT
  5
1F
102
{ACAD_REACTORS
330
19
102
}
330
19
100
AcDbDictionary
281
     1
  3
Normal
350
1D
100
AcDbDictionaryWithDefault
340
1D
  0
LAYOUT
  5
21
102
{ACAD_REACTORS
330
1E
102
}
330
1E
100
AcDbPlotSettings
  1

  2

  4

  6

 40
0.0
 41
0.0
 42
0.0
 43
0.0
 44
0.0
 45
0.0
 46
0.0
 47
0.0
 48
0.0
 49
0.0
140
0.0
141
0.0
142
1.0
143
1.0
 70
     0
 72
     0
 73
     0
 74
     0
  7

 75
     0
147
1.0
148
0.0
149
0.0
100
AcDbLayout
  1
Layout1
 70
     0
 71
     1
 10
0.0
 20
0.0
 11
12.0
 21
9.0
 12
0.0
 22
0.0
 32
0.0
 14
1.000000000000000E+20
 24
1.000000000000000E+20
 34
1.000000000000000E+20
 15
-1.000000000000000E+20
 25
-1.000000000000000E+20
 35
-1.000000000000000E+20
146
0.0
 13
0.0
 23
0.0
 33
0.0
 16
1.0
 26
0.0
 36
0.0
 17
0.0
 27
1.0
 37
0.0
 76
     0
330
B
  0
LAYOUT
  5
20
102
{ACAD_REACTORS
330
1E
102
}
330
1E
100
AcDbPlotSettings
  1

  2
Adobe PDF
  4
A3
  6

 40
3.174999952316284
 41
3.174999952316284
 42
3.17498779296875
 43
3.17498779296875
 44
297.0318298339843
 45
420.1583251953125
 46
0.0
 47
55.6
 48
0.0
 49
0.0
140
0.0
141
0.0
142
1.0
143
1.02618896955035
 70
 11284
 72
     1
 73
     1
 74
     2
  7

 75
     0
147
0.9744793889552083
148
164.2425
149
158.905
100
AcDbLayout
  1
Model
 70
     0
 71
     0
 10
0.0
 20
0.0
 11
0.0
 21
0.0
 12
0.0
 22
0.0
 32
0.0
 14
0.0
 24
0.0
 34
0.0
 15
0.0
 25
0.0
 35
0.0
146
0.0
 13
0.0
 23
0.0
 33
0.0
 16
0.0
 26
0.0
 36
0.0
 17
0.0
 27
0.0
 37
0.0
 76
     0
330
A
  0
MLINESTYLE
  5
1C
102
{ACAD_REACTORS
330
1B
102
}
330
1B
100
AcDbMlineStyle
  2
STANDARD
 70
     0
  3

 62
     0
 51
90.0
 52
90.0
 71
     2
 49
0.5
 62
   256
  6
BYLAYER
 49
-0.5
 62
   256
  6
BYLAYER
  0
ACDBPLACEHOLDER
  5
1D
102
{ACAD_REACTORS
330
1F
102
}
330
1F
  0
ENDSEC
  0
EOF
