  0
SECTION
  2
HEADER
  9
$ACADVER
  1
AC1015
  9
$ACADMAINTVER
 70
    10
  9
$DWGCODEPAGE
  3
ANSI_932
  9
$INSBASE
 10
0.0
 20
0.0
 30
0.0
  9
$EXTMIN
 10
-60.28443169161469
 20
-134.7958382589464
 30
-0.0015258207003583
  9
$EXTMAX
 10
56.51660524531746
 20
120.7508997644227
 30
0.0000000349246037
  9
$LIMMIN
 10
-61.614666
 20
-134.7879999999999
  9
$LIMMAX
 10
56.513
 20
122.0756659999999
  9
$ORTHOMODE
 70
     0
  9
$REGENMODE
 70
     1
  9
$FILLMODE
 70
     1
  9
$QTEXTMODE
 70
     0
  9
$MIRRTEXT
 70
     1
  9
$LTSCALE
 40
0.1
  9
$ATTMODE
 70
     1
  9
$TEXTSIZE
 40
3.2
  9
$TRACEWID
 40
0.05
  9
$TEXTSTYLE
  7
MX_NOTE_STANDARD
  9
$CLAYER
  8
0
  9
$CELTYPE
  6
CONTINUOUS
  9
$CECOLOR
 62
   256
  9
$CELTSCALE
 40
1.0
  9
$DISPSILH
 70
     0
  9
$DIMSCALE
 40
1.0
  9
$DIMASZ
 40
2.5
  9
$DIMEXO
 40
2.54
  9
$DIMDLI
 40
3.75
  9
$DIMRND
 40
0.0
  9
$DIMDLE
 40
0.0
  9
$DIMEXE
 40
2.286
  9
$DIMTP
 40
0.0
  9
$DIMTM
 40
0.0
  9
$DIMTXT
 40
3.2
  9
$DIMCEN
 40
2.5
  9
$DIMTSZ
 40
0.0
  9
$DIMTOL
 70
     0
  9
$DIMLIM
 70
     0
  9
$DIMTIH
 70
     0
  9
$DIMTOH
 70
     0
  9
$DIMSE1
 70
     0
  9
$DIMSE2
 70
     0
  9
$DIMTAD
 70
     1
  9
$DIMZIN
 70
     8
  9
$DIMBLK
  1

  9
$DIMASO
 70
     1
  9
$DIMSHO
 70
     1
  9
$DIMPOST
  1

  9
$DIMAPOST
  1

  9
$DIMALT
 70
     0
  9
$DIMALTD
 70
     4
  9
$DIMALTF
 40
0.03937
  9
$DIMLFAC
 40
1.0
  9
$DIMTOFL
 70
     1
  9
$DIMTVP
 40
0.0
  9
$DIMTIX
 70
     0
  9
$DIMSOXD
 70
     0
  9
$DIMSAH
 70
     1
  9
$DIMBLK1
  1
OPEN30
  9
$DIMBLK2
  1
OPEN30
  9
$DIMSTYLE
  2
MXDIMSTYLE
  9
$DIMCLRD
 70
     0
  9
$DIMCLRE
 70
     0
  9
$DIMCLRT
 70
     0
  9
$DIMTFAC
 40
1.0
  9
$DIMGAP
 40
1.0
  9
$DIMJUST
 70
     0
  9
$DIMSD1
 70
     0
  9
$DIMSD2
 70
     0
  9
$DIMTOLJ
 70
     0
  9
$DIMTZIN
 70
     0
  9
$DIMALTZ
 70
     0
  9
$DIMALTTZ
 70
     0
  9
$DIMUPT
 70
     1
  9
$DIMDEC
 70
     2
  9
$DIMTDEC
 70
     2
  9
$DIMALTU
 70
     2
  9
$DIMALTTD
 70
     4
  9
$DIMTXSTY
  7
MX_NOTE_STANDARD
  9
$DIMAUNIT
 70
     0
  9
$DIMADEC
 70
     0
  9
$DIMALTRND
 40
0.0
  9
$DIMAZIN
 70
     0
  9
$DIMDSEP
 70
    46
  9
$DIMATFIT
 70
     3
  9
$DIMFRAC
 70
     0
  9
$DIMLDRBLK
  1
OPEN30
  9
$DIMLUNIT
 70
     2
  9
$DIMLWD
 70
    -2
  9
$DIMLWE
 70
    -2
  9
$DIMTMOVE
 70
     0
  9
$LUNITS
 70
     2
  9
$LUPREC
 70
     4
  9
$SKETCHINC
 40
0.1
  9
$FILLETRAD
 40
0.0
  9
$AUNITS
 70
     0
  9
$AUPREC
 70
     0
  9
$MENU
  1
acad
  9
$ELEVATION
 40
0.0
  9
$PELEVATION
 40
0.0
  9
$THICKNESS
 40
0.0
  9
$LIMCHECK
 70
     0
  9
$CHAMFERA
 40
0.0
  9
$CHAMFERB
 40
0.0
  9
$CHAMFERC
 40
0.0
  9
$CHAMFERD
 40
0.0
  9
$SKPOLY
 70
     0
  9
$TDCREATE
 40
2455288.600098379
  9
$TDUCREATE
 40
2455288.225098379
  9
$TDUPDATE
 40
2455288.601017777
  9
$TDUUPDATE
 40
2455288.226017777
  9
$TDINDWG
 40
0.0009204861
  9
$TDUSRTIMER
 40
0.0009204861
  9
$USRTIMER
 70
     1
  9
$ANGBASE
 50
0.0
  9
$ANGDIR
 70
     0
  9
$PDMODE
 70
     0
  9
$PDSIZE
 40
0.0
  9
$PLINEWID
 40
0.0
  9
$SPLFRAME
 70
     0
  9
$SPLINETYPE
 70
     6
  9
$SPLINESEGS
 70
     8
  9
$HANDSEED
  5
39A
  9
$SURFTAB1
 70
     6
  9
$SURFTAB2
 70
     6
  9
$SURFTYPE
 70
     6
  9
$SURFU
 70
     6
  9
$SURFV
 70
     6
  9
$UCSBASE
  2

  9
$UCSNAME
  2

  9
$UCSORG
 10
0.0
 20
0.0
 30
0.0
  9
$UCSXDIR
 10
1.0
 20
0.0
 30
0.0
  9
$UCSYDIR
 10
0.0
 20
1.0
 30
0.0
  9
$UCSORTHOREF
  2

  9
$UCSORTHOVIEW
 70
     0
  9
$UCSORGTOP
 10
0.0
 20
0.0
 30
0.0
  9
$UCSORGBOTTOM
 10
0.0
 20
0.0
 30
0.0
  9
$UCSORGLEFT
 10
0.0
 20
0.0
 30
0.0
  9
$UCSORGRIGHT
 10
0.0
 20
0.0
 30
0.0
  9
$UCSORGFRONT
 10
0.0
 20
0.0
 30
0.0
  9
$UCSORGBACK
 10
0.0
 20
0.0
 30
0.0
  9
$PUCSBASE
  2

  9
$PUCSNAME
  2

  9
$PUCSORG
 10
0.0
 20
0.0
 30
0.0
  9
$PUCSXDIR
 10
1.0
 20
0.0
 30
0.0
  9
$PUCSYDIR
 10
0.0
 20
1.0
 30
0.0
  9
$PUCSORTHOREF
  2

  9
$PUCSORTHOVIEW
 70
     0
  9
$PUCSORGTOP
 10
0.0
 20
0.0
 30
0.0
  9
$PUCSORGBOTTOM
 10
0.0
 20
0.0
 30
0.0
  9
$PUCSORGLEFT
 10
0.0
 20
0.0
 30
0.0
  9
$PUCSORGRIGHT
 10
0.0
 20
0.0
 30
0.0
  9
$PUCSORGFRONT
 10
0.0
 20
0.0
 30
0.0
  9
$PUCSORGBACK
 10
0.0
 20
0.0
 30
0.0
  9
$USERI1
 70
     0
  9
$USERI2
 70
     0
  9
$USERI3
 70
     0
  9
$USERI4
 70
     0
  9
$USERI5
 70
     0
  9
$USERR1
 40
0.0
  9
$USERR2
 40
0.0
  9
$USERR3
 40
0.0
  9
$USERR4
 40
0.0
  9
$USERR5
 40
0.0
  9
$WORLDVIEW
 70
     1
  9
$SHADEDGE
 70
     3
  9
$SHADEDIF
 70
    70
  9
$TILEMODE
 70
     1
  9
$MAXACTVP
 70
    16
  9
$PINSBASE
 10
0.0
 20
0.0
 30
0.0
  9
$PLIMCHECK
 70
     0
  9
$PEXTMIN
 10
1.000000000000000E+20
 20
1.000000000000000E+20
 30
1.000000000000000E+20
  9
$PEXTMAX
 10
-1.000000000000000E+20
 20
-1.000000000000000E+20
 30
-1.000000000000000E+20
  9
$PLIMMIN
 10
0.0
 20
0.0
  9
$PLIMMAX
 10
12.0
 20
9.0
  9
$UNITMODE
 70
     0
  9
$VISRETAIN
 70
     0
  9
$PLINEGEN
 70
     1
  9
$PSLTSCALE
 70
     0
  9
$TREEDEPTH
 70
  3020
  9
$CMLSTYLE
  2
Standard
  9
$CMLJUST
 70
     0
  9
$CMLSCALE
 40
1.0
  9
$PROXYGRAPHICS
 70
     0
  9
$MEASUREMENT
 70
     1
  9
$CELWEIGHT
370
     0
  9
$ENDCAPS
280
     0
  9
$JOINSTYLE
280
     0
  9
$LWDISPLAY
290
     0
  9
$INSUNITS
 70
     0
  9
$HYPERLINKBASE
  1

  9
$STYLESHEET
  1

  9
$XEDIT
290
     1
  9
$CEPSNTYPE
380
     0
  9
$PSTYLEMODE
290
     1
  9
$FINGERPRINTGUID
  2

  9
$VERSIONGUID
  2
{40DB1787-61F3-4690-B4DB-BA87B58A0AD8}
  9
$EXTNAMES
290
     1
  9
$PSVPSCALE
 40
0.0
  9
$OLESTARTUP
290
     0
  0
ENDSEC
  0
SECTION
  2
CLASSES
  0
CLASS
  1
LWPOLYLINE
  2
AcDbPolyline
  3
AutoCAD 2000
 90
    32768
280
     0
281
     1
  0
CLASS
  1
IMAGE
  2
AcDbRasterImage
  3
ISM
 90
    32895
280
     0
281
     1
  0
CLASS
  1
OLE2FRAME
  2
AcDbOle2Frame
  3
AutoCAD 2000
 90
    32768
280
     0
281
     1
  0
CLASS
  1
HATCH
  2
AcDbHatch
  3
AutoCAD 2000
 90
    32768
280
     0
281
     1
  0
CLASS
  1
DICTIONARYVAR
  2
AcDbDictionaryVar
  3
AutoCAD 2000
 90
    32768
280
     0
281
     0
  0
CLASS
  1
RASTERVARIABLES
  2
AcDbRasterVariables
  3
ISM
 90
    32768
280
     0
281
     0
  0
CLASS
  1
IMAGEDEF
  2
AcDbRasterImageDef
  3
ISM
 90
    32768
280
     0
281
     0
  0
CLASS
  1
IMAGEDEF_REACTOR
  2
AcDbRasterImageDefReactor
  3
ISM
 90
    32769
280
     0
281
     0
  0
CLASS
  1
IDBUFFER
  2
AcDbIdBuffer
  3
AutoCAD 2000
 90
    32768
280
     0
281
     0
  0
CLASS
  1
SPATIAL_FILTER
  2
AcDbSpatialFilter
  3
AutoCAD 2000
 90
    32768
280
     0
281
     0
  0
CLASS
  1
XRECORD
  2
AcDbXrecord
  3
AutoCAD 2000
 90
    32768
280
     0
281
     0
  0
CLASS
  1
SORTENTSTABLE
  2
AcDbSortentsTable
  3
AutoCAD 2000
 90
    32768
280
     0
281
     0
  0
CLASS
  1
LAYER_INDEX
  2
AcDbLayerIndex
  3
AutoCAD 2000
 90
    32768
280
     0
281
     0
  0
CLASS
  1
SPATIAL_INDEX
  2
AcDbSpatialIndex
  3
AutoCAD 2000
 90
    32768
280
     0
281
     0
  0
CLASS
  1
OBJECT_PTR
  2
CAseDLPNTableRecord
  3
"ASE-LPNTableRecord"
 90
    32769
280
     0
281
     0
  0
CLASS
  1
LAYOUT
  2
AcDbLayout
  3
AutoCAD 2000
 90
        0
280
     0
281
     0
  0
CLASS
  1
PLOTSETTINGS
  2
AcDbPlotSettings
  3
AutoCAD 2000
 90
    32768
280
     0
281
     0
  0
CLASS
  1
ACDBDICTIONARYWDFLT
  2
AcDbDictionaryWithDefault
  3
AutoCAD 2000
 90
        0
280
     0
281
     0
  0
CLASS
  1
ACDBPLACEHOLDER
  2
AcDbPlaceHolder
  3
AutoCAD 2000
 90
        0
280
     0
281
     0
  0
ENDSEC
  0
SECTION
  2
TABLES
  0
TABLE
  2
VPORT
  5
7
330
0
100
AcDbSymbolTable
 70
     2
  0
VPORT
  5
399
330
7
100
AcDbSymbolTableRecord
100
AcDbViewportTableRecord
  2
*Active
 70
     0
 10
0.0
 20
0.0
 11
1.0
 21
1.0
 12
-2.550833000000011
 22
10.22767493740326
 13
0.0
 23
0.0
 14
1.0
 24
1.0
 15
0.0
 25
0.0
 16
0.0
 26
0.0
 36
1.0
 17
0.0
 27
0.0
 37
0.0
 40
292.5999868748064
 41
1.535714285714285
 42
50.0
 43
0.0
 44
0.0
 50
0.0
 51
0.0
 71
     0
 72
   100
 73
     1
 74
     1
 75
     0
 76
     0
 77
     0
 78
     0
281
     0
 65
     0
110
0.0
120
0.0
130
0.0
111
1.0
121
0.0
131
0.0
112
0.0
122
1.0
132
0.0
 79
     0
146
0.0
  0
ENDTAB
  0
TABLE
  2
LTYPE
  5
4
330
0
100
AcDbSymbolTable
 70
     3
  0
LTYPE
  5
11
330
4
100
AcDbSymbolTableRecord
100
AcDbLinetypeTableRecord
  2
BYBLOCK
 70
     0
  3

 72
    65
 73
     0
 40
0.0
  0
LTYPE
  5
12
330
4
100
AcDbSymbolTableRecord
100
AcDbLinetypeTableRecord
  2
BYLAYER
 70
     0
  3

 72
    65
 73
     0
 40
0.0
  0
LTYPE
  5
13
330
4
100
AcDbSymbolTableRecord
100
AcDbLinetypeTableRecord
  2
CONTINUOUS
 70
     0
  3
Solid line
 72
    65
 73
     0
 40
0.0
  0
LTYPE
  5
3B
330
4
100
AcDbSymbolTableRecord
100
AcDbLinetypeTableRecord
  2
CENTER
 70
     0
  3
Center ____ _ ____ _ ____ _ ____ _ ____ _ ____
 72
    65
 73
     4
 40
50.8
 49
31.75
 74
     0
 49
-6.349999999999999
 74
     0
 49
6.349999999999999
 74
     0
 49
-6.349999999999999
 74
     0
  0
LTYPE
  5
61
330
4
100
AcDbSymbolTableRecord
100
AcDbLinetypeTableRecord
  2
PHANTOM
 70
     0
  3
Phantom ______  __  __  ______  __  __  ______
 72
    65
 73
     6
 40
63.5
 49
31.75
 74
     0
 49
-6.349999999999999
 74
     0
 49
6.349999999999999
 74
     0
 49
-6.349999999999999
 74
     0
 49
6.349999999999999
 74
     0
 49
-6.349999999999999
 74
     0
  0
ENDTAB
  0
TABLE
  2
LAYER
  5
2
330
0
100
AcDbSymbolTable
 70
     4
  0
LAYER
  5
14
330
2
100
AcDbSymbolTableRecord
100
AcDbLayerTableRecord
  2
0
 70
     0
 62
     7
  6
CONTINUOUS
370
    -3
390
1D
  0
LAYER
  5
23
330
2
100
AcDbSymbolTableRecord
100
AcDbLayerTableRecord
  2
DEFPOINTS
 70
     0
 62
     7
  6
CONTINUOUS
290
     0
370
    -3
390
1D
  0
LAYER
  5
24
330
2
100
AcDbSymbolTableRecord
100
AcDbLayerTableRecord
  2
PV
 70
     0
 62
     7
  6
CONTINUOUS
370
    -3
390
1D
  0
LAYER
  5
25
330
2
100
AcDbSymbolTableRecord
100
AcDbLayerTableRecord
  2
WV
 70
     0
 62
     7
  6
CONTINUOUS
370
    -3
390
1D
  0
ENDTAB
  0
TABLE
  2
STYLE
  5
3
330
0
100
AcDbSymbolTable
 70
     2
  0
STYLE
  5
17
330
3
100
AcDbSymbolTableRecord
100
AcDbTextStyleTableRecord
  2
MX_NOTE_STANDARD
 70
     0
 40
0.0
 41
1.0
 50
0.0
 71
     0
 42
3.2
  3
txt.shx
  4
extfont.shx
  0
STYLE
  5
395
330
3
100
AcDbSymbolTableRecord
100
AcDbTextStyleTableRecord
  2
Standard
 70
     0
 40
0.0
 41
1.0
 50
0.0
 71
     0
 42
0.2
  3

  4

  0
ENDTAB
  0
TABLE
  2
VIEW
  5
5
330
0
100
AcDbSymbolTable
 70
     0
  0
ENDTAB
  0
TABLE
  2
UCS
  5
6
330
0
100
AcDbSymbolTable
 70
     0
  0
ENDTAB
  0
TABLE
  2
APPID
  5
8
330
0
100
AcDbSymbolTable
 70
     1
  0
APPID
  5
16
330
8
100
AcDbSymbolTableRecord
100
AcDbRegAppTableRecord
  2
ACAD
 70
     0
  0
ENDTAB
  0
TABLE
  2
DIMSTYLE
  5
9
330
0
100
AcDbSymbolTable
 70
     1
100
AcDbDimStyleTable
 71
     0
  0
DIMSTYLE
105
18
330
9
100
AcDbSymbolTableRecord
100
AcDbDimStyleTableRecord
  2
MXDIMSTYLE
 70
     0
 41
2.5
 42
2.54
 43
3.75
 44
2.286
 73
     0
 74
     0
 77
     1
 78
     8
140
3.2
141
2.5
143
0.03937
147
1.0
171
     4
172
     1
173
     1
271
     2
272
     2
274
     4
283
     0
288
     1
340
17
341
26
343
26
344
26
  0
ENDTAB
  0
TABLE
  2
BLOCK_RECORD
  5
1
330
0
100
AcDbSymbolTable
 70
     1
  0
BLOCK_RECORD
  5
A
330
1
100
AcDbSymbolTableRecord
100
AcDbBlockTableRecord
  2
*MODEL_SPACE
340
20
  0
BLOCK_RECORD
  5
B
330
1
100
AcDbSymbolTableRecord
100
AcDbBlockTableRecord
  2
*PAPER_SPACE
340
21
  0
BLOCK_RECORD
  5
26
330
1
100
AcDbSymbolTableRecord
100
AcDbBlockTableRecord
  2
_OPEN30
340
0
  0
ENDTAB
  0
ENDSEC
  0
SECTION
  2
BLOCKS
  0
BLOCK
  5
D
330
A
100
AcDbEntity
  8
0
100
AcDbBlockBegin
  2
*MODEL_SPACE
 70
     0
 10
0.0
 20
0.0
 30
0.0
  3
*MODEL_SPACE
  1

  0
ENDBLK
  5
E
330
A
100
AcDbEntity
  8
0
100
AcDbBlockEnd
  0
BLOCK
  5
F
330
B
100
AcDbEntity
 67
     1
  8
0
100
AcDbBlockBegin
  2
*PAPER_SPACE
 70
     0
 10
0.0
 20
0.0
 30
0.0
  3
*PAPER_SPACE
  1

  0
ENDBLK
  5
10
330
B
100
AcDbEntity
 67
     1
  8
0
100
AcDbBlockEnd
  0
BLOCK
  5
27
330
26
100
AcDbEntity
  8
0
  6
ByBlock
 62
     0
370
    -2
100
AcDbBlockBegin
  2
_OPEN30
 70
     2
 10
0.0
 20
0.0
 30
0.0
  3
_OPEN30
  1

  0
LINE
  5
28
330
26
100
AcDbEntity
  8
0
  6
ByBlock
 62
     0
370
    -2
100
AcDbLine
 10
-1.0
 20
0.267949
 30
0.0
 11
0.0
 21
0.0
 31
0.0
  0
LINE
  5
29
330
26
100
AcDbEntity
  8
0
  6
ByBlock
 62
     0
370
    -2
100
AcDbLine
 10
0.0
 20
0.0
 30
0.0
 11
-1.0
 21
-0.267949
 31
0.0
  0
LINE
  5
2A
330
26
100
AcDbEntity
  8
0
  6
ByBlock
 62
     0
370
    -2
100
AcDbLine
 10
0.0
 20
0.0
 30
0.0
 11
-1.0
 21
0.0
 31
0.0
  0
ENDBLK
  5
2B
330
26
100
AcDbEntity
  8
0
  6
ByBlock
 62
     0
370
    -2
100
AcDbBlockEnd
  0
ENDSEC
  0
SECTION
  2
ENTITIES
  0
POINT
  5
2C
330
A
100
AcDbEntity
  8
0
  6
Continuous
 62
     7
100
AcDbPoint
 10
21.627
 20
-9.794999999999999
 30
0.0
  0
POINT
  5
2D
330
A
100
AcDbEntity
  8
0
  6
Continuous
 62
     7
100
AcDbPoint
 10
20.127
 20
-86.42299999999998
 30
0.0
  0
POINT
  5
2E
330
A
100
AcDbEntity
  8
0
  6
Continuous
 62
     7
100
AcDbPoint
 10
20.127
 20
-86.42299999999998
 30
0.0
  0
POINT
  5
2F
330
A
100
AcDbEntity
  8
0
  6
Continuous
 62
     7
100
AcDbPoint
 10
-19.873
 20
-86.42299999999998
 30
0.0
  0
POINT
  5
30
330
A
100
AcDbEntity
  8
0
  6
Continuous
 62
     7
100
AcDbPoint
 10
-39.873
 20
-88.29500000000001
 30
0.0
  0
POINT
  5
31
330
A
100
AcDbEntity
  8
0
  6
Continuous
 62
     7
100
AcDbPoint
 10
-39.873
 20
-58.295
 30
0.0
  0
POINT
  5
32
330
A
100
AcDbEntity
  8
0
  6
Continuous
 62
     7
100
AcDbPoint
 10
-39.873
 20
-73.295
 30
0.0
  0
POINT
  5
33
330
A
100
AcDbEntity
  8
0
  6
Continuous
 62
     7
100
AcDbPoint
 10
-14.873
 20
-113.295
 30
0.0
  0
POINT
  5
34
330
A
100
AcDbEntity
  8
0
  6
Continuous
 62
     7
100
AcDbPoint
 10
15.127
 20
-113.295
 30
0.0
  0
POINT
  5
35
330
A
100
AcDbEntity
  8
0
  6
Continuous
 62
     7
100
AcDbPoint
 10
22.627
 20
-19.795
 30
0.0
  0
POINT
  5
36
330
A
100
AcDbEntity
  8
0
  6
Continuous
 62
     7
100
AcDbPoint
 10
15.627
 20
-16.795
 30
0.0
  0
POINT
  5
37
330
A
100
AcDbEntity
  8
0
  6
Continuous
 62
     7
100
AcDbPoint
 10
-39.873
 20
95.211
 30
0.0
  0
POINT
  5
38
330
A
100
AcDbEntity
  8
0
  6
Continuous
 62
     7
100
AcDbPoint
 10
19.62699999999999
 20
56.711
 30
0.0
  0
POINT
  5
39
330
A
100
AcDbEntity
  8
0
  6
Continuous
 62
     7
100
AcDbPoint
 10
23.62699999999999
 20
99.71099999999999
 30
0.0
  0
POINT
  5
3A
330
A
100
AcDbEntity
  8
0
  6
Continuous
 62
     7
100
AcDbPoint
 10
19.62699999999999
 20
103.7109999999999
 30
0.0
  0
LINE
  5
3C
330
A
100
AcDbEntity
  8
PV
  6
CENTER
 62
     7
100
AcDbLine
 10
0.127
 20
23.294
 30
0.0
 11
0.127
 21
-118.4409999999999
 31
0.0
  0
LINE
  5
3D
330
A
100
AcDbEntity
  8
PV
  6
Continuous
 62
     7
100
AcDbLine
 10
-19.873
 20
-83.29500000000001
 30
0.0
 11
-19.873
 21
-89.295
 31
0.0
  0
LINE
  5
3E
330
A
100
AcDbEntity
  8
PV
  6
Continuous
 62
     7
100
AcDbLine
 10
20.127
 20
-40.295
 30
0.0
 11
20.127
 21
-89.295
 31
0.0
  0
LINE
  5
3F
330
A
100
AcDbEntity
  8
PV
  6
Continuous
 62
     7
100
AcDbLine
 10
18.12699999999999
 20
-91.295
 30
0.0
 11
-17.873
 21
-91.295
 31
0.0
  0
LINE
  5
40
330
A
100
AcDbEntity
  8
PV
  6
Continuous
 62
     7
100
AcDbLine
 10
15.127
 20
-113.295
 30
0.0
 11
-14.873
 21
-113.295
 31
0.0
  0
LINE
  5
41
330
A
100
AcDbEntity
  8
PV
  6
Continuous
 62
     7
100
AcDbLine
 10
-14.873
 20
-113.295
 30
0.0
 11
-14.873
 21
-111.446
 31
0.0
  0
LINE
  5
42
330
A
100
AcDbEntity
  8
PV
  6
Continuous
 62
     7
100
AcDbLine
 10
15.127
 20
-113.295
 30
0.0
 11
15.127
 21
-111.446
 31
0.0
  0
LINE
  5
43
330
A
100
AcDbEntity
  8
PV
  6
Continuous
 62
     7
100
AcDbLine
 10
-9.872999999999999
 20
-108.956
 30
0.0
 11
-9.872999999999999
 21
-92.29499999999999
 31
0.0
  0
LINE
  5
44
330
A
100
AcDbEntity
  8
PV
  6
Continuous
 62
     7
100
AcDbLine
 10
10.127
 20
-108.956
 30
0.0
 11
10.127
 21
-92.29499999999999
 31
0.0
  0
LINE
  5
45
330
A
100
AcDbEntity
  8
PV
  6
Continuous
 62
     7
100
AcDbLine
 10
14.015
 20
-109.997
 30
0.0
 11
10.127
 21
-108.955
 31
0.0
  0
LINE
  5
46
330
A
100
AcDbEntity
  8
PV
  6
Continuous
 62
     7
100
AcDbLine
 10
-13.761
 20
-109.997
 30
0.0
 11
-9.872999999999999
 21
-108.956
 31
0.0
  0
LINE
  5
47
330
A
100
AcDbEntity
  8
PV
  6
Continuous
 62
     7
100
AcDbLine
 10
14.589
 20
-110.295
 30
0.0
 11
-14.335
 21
-110.295
 31
0.0
  0
LINE
  5
48
330
A
100
AcDbEntity
  8
PV
  6
Continuous
 62
     7
100
AcDbLine
 10
10.127
 20
-108.956
 30
0.0
 11
-9.872999999999999
 21
-108.956
 31
0.0
  0
LINE
  5
49
330
A
100
AcDbEntity
  8
PV
  6
Continuous
 62
     7
100
AcDbLine
 10
-19.873
 20
-40.295
 30
0.0
 11
-19.873
 21
-63.295
 31
0.0
  0
LINE
  5
4A
330
A
100
AcDbEntity
  8
PV
  6
Continuous
 62
     7
100
AcDbLine
 10
23.62699999999999
 20
-40.295
 30
0.0
 11
-23.373
 21
-40.295
 31
0.0
  0
LINE
  5
4B
330
A
100
AcDbEntity
  8
PV
  6
Continuous
 62
     7
100
AcDbLine
 10
23.62699999999999
 20
-29.795
 30
0.0
 11
-23.373
 21
-29.795
 31
0.0
  0
LINE
  5
4C
330
A
100
AcDbEntity
  8
PV
  6
Continuous
 62
     7
100
AcDbLine
 10
-39.873
 20
-88.29500000000001
 30
0.0
 11
-39.873
 21
-58.295
 31
0.0
  0
LINE
  5
4D
330
A
100
AcDbEntity
  8
PV
  6
Continuous
 62
     7
100
AcDbLine
 10
-39.873
 20
-58.295
 30
0.0
 11
-38.024
 21
-58.295
 31
0.0
  0
LINE
  5
4E
330
A
100
AcDbEntity
  8
PV
  6
Continuous
 62
     7
100
AcDbLine
 10
-39.873
 20
-88.29500000000001
 30
0.0
 11
-38.024
 21
-88.29500000000001
 31
0.0
  0
LINE
  5
4F
330
A
100
AcDbEntity
  8
PV
  6
Continuous
 62
     7
100
AcDbLine
 10
-35.533
 20
-63.295
 30
0.0
 11
-19.873
 21
-63.295
 31
0.0
  0
LINE
  5
50
330
A
100
AcDbEntity
  8
PV
  6
Continuous
 62
     7
100
AcDbLine
 10
-35.533
 20
-83.29500000000001
 30
0.0
 11
-19.873
 21
-83.29500000000001
 31
0.0
  0
LINE
  5
51
330
A
100
AcDbEntity
  8
PV
  6
Continuous
 62
     7
100
AcDbLine
 10
-36.575
 20
-87.18299999999999
 30
0.0
 11
-35.533
 21
-83.29500000000001
 31
0.0
  0
LINE
  5
52
330
A
100
AcDbEntity
  8
PV
  6
Continuous
 62
     7
100
AcDbLine
 10
-36.575
 20
-59.40699999999999
 30
0.0
 11
-35.533
 21
-63.295
 31
0.0
  0
LINE
  5
53
330
A
100
AcDbEntity
  8
PV
  6
Continuous
 62
     7
100
AcDbLine
 10
-36.873
 20
-87.757
 30
0.0
 11
-36.873
 21
-58.833
 31
0.0
  0
LINE
  5
54
330
A
100
AcDbEntity
  8
PV
  6
Continuous
 62
     7
100
AcDbLine
 10
-35.533
 20
-83.29500000000001
 30
0.0
 11
-35.533
 21
-63.295
 31
0.0
  0
LINE
  5
55
330
A
100
AcDbEntity
  8
PV
  6
CENTER
 62
     7
100
AcDbLine
 10
-15.387
 20
-73.295
 30
0.0
 11
-42.75
 21
-73.295
 31
0.0
  0
LINE
  5
56
330
A
100
AcDbEntity
  8
PV
  6
Continuous
 62
     7
100
AcDbLine
 10
18.12699999999999
 20
-29.795
 30
0.0
 11
18.12699999999999
 21
-30.295
 31
0.0
  0
LINE
  5
57
330
A
100
AcDbEntity
  8
PV
  6
Continuous
 62
     7
100
AcDbLine
 10
22.627
 20
-19.795
 30
0.0
 11
-22.373
 21
-19.795
 31
0.0
  0
LINE
  5
58
330
A
100
AcDbEntity
  8
PV
  6
CENTER
 62
     7
100
AcDbLine
 10
-42.423
 20
80.211
 30
0.0
 11
25.825
 21
80.211
 31
0.0
  0
LINE
  5
59
330
A
100
AcDbEntity
  8
PV
  6
CENTER
 62
     7
100
AcDbLine
 10
0.127
 20
106.231
 30
0.0
 11
0.127
 21
53.393
 31
0.0
  0
LINE
  5
5A
330
A
100
AcDbEntity
  8
PV
  6
Continuous
 62
     7
100
AcDbLine
 10
-39.873
 20
65.211
 30
0.0
 11
-39.873
 21
95.211
 31
0.0
  0
LINE
  5
5B
330
A
100
AcDbEntity
  8
PV
  6
Continuous
 62
     7
100
AcDbLine
 10
-39.873
 20
95.211
 30
0.0
 11
-38.024
 21
95.211
 31
0.0
  0
LINE
  5
5C
330
A
100
AcDbEntity
  8
PV
  6
Continuous
 62
     7
100
AcDbLine
 10
-35.533
 20
90.211
 30
0.0
 11
-23.373
 21
90.211
 31
0.0
  0
LINE
  5
5D
330
A
100
AcDbEntity
  8
PV
  6
Continuous
 62
     7
100
AcDbLine
 10
-36.575
 20
94.09899999999998
 30
0.0
 11
-35.533
 21
90.211
 31
0.0
  0
LINE
  5
5E
330
A
100
AcDbEntity
  8
PV
  6
Continuous
 62
     7
100
AcDbLine
 10
-36.873
 20
80.211
 30
0.0
 11
-36.873
 21
94.67299999999999
 31
0.0
  0
LINE
  5
5F
330
A
100
AcDbEntity
  8
PV
  6
Continuous
 62
     7
100
AcDbLine
 10
-35.533
 20
80.211
 30
0.0
 11
-35.533
 21
90.211
 31
0.0
  0
LINE
  5
60
330
A
100
AcDbEntity
  8
PV
  6
CENTER
 62
     7
100
AcDbLine
 10
-16.873
 20
-18.23199999999999
 30
0.0
 11
-16.873
 21
-42.593
 31
0.0
  0
LINE
  5
62
330
A
100
AcDbEntity
  8
PV
  6
PHANTOM
 62
     7
100
AcDbLine
 10
-21.373
 20
-3.794999999999999
 30
0.0
 11
21.627
 21
-3.794999999999999
 31
0.0
  0
LINE
  5
63
330
A
100
AcDbEntity
  8
PV
  6
PHANTOM
 62
     7
100
AcDbLine
 10
-18.471
 20
16.20499999999999
 30
0.0
 11
18.724
 21
16.20499999999999
 31
0.0
  0
LINE
  5
64
330
A
100
AcDbEntity
  8
PV
  6
PHANTOM
 62
     7
100
AcDbLine
 10
-21.373
 20
-3.794999999999999
 30
0.0
 11
-20.468
 21
14.305
 31
0.0
  0
LINE
  5
65
330
A
100
AcDbEntity
  8
PV
  6
PHANTOM
 62
     7
100
AcDbLine
 10
20.722
 20
14.305
 30
0.0
 11
21.627
 21
-3.794999999999999
 31
0.0
  0
LINE
  5
66
330
A
100
AcDbEntity
  8
PV
  6
Continuous
 62
     7
100
AcDbLine
 10
-4.873
 20
10.20499999999999
 30
0.0
 11
-4.873
 21
0.205
 31
0.0
  0
LINE
  5
67
330
A
100
AcDbEntity
  8
PV
  6
Continuous
 62
     7
100
AcDbLine
 10
5.127
 20
10.20499999999999
 30
0.0
 11
5.127
 21
0.205
 31
0.0
  0
LINE
  5
68
330
A
100
AcDbEntity
  8
PV
  6
PHANTOM
 62
     7
100
AcDbLine
 10
-17.373
 20
17.20499999999999
 30
0.0
 11
17.62699999999999
 21
17.20499999999999
 31
0.0
  0
LINE
  5
69
330
A
100
AcDbEntity
  8
PV
  6
Continuous
 62
     7
100
AcDbLine
 10
-15.482
 20
10.20499999999999
 30
0.0
 11
-15.482
 21
0.205
 31
0.0
  0
LINE
  5
6A
330
A
100
AcDbEntity
  8
PV
  6
Continuous
 62
     7
100
AcDbLine
 10
-20.482
 20
8.023999999999999
 30
0.0
 11
-20.482
 21
0.205
 31
0.0
  0
LINE
  5
6B
330
A
100
AcDbEntity
  8
PV
  6
Continuous
 62
     7
100
AcDbLine
 10
-19.48199999999999
 20
9.929999999999999
 30
0.0
 11
-19.48199999999999
 21
0.205
 31
0.0
  0
LINE
  5
6C
330
A
100
AcDbEntity
  8
PV
  6
Continuous
 62
     7
100
AcDbLine
 10
-18.49599999999999
 20
-3.447999999999999
 30
0.0
 11
-17.458
 21
-4.684
 31
0.0
  0
LINE
  5
6D
330
A
100
AcDbEntity
  8
PV
  6
Continuous
 62
     7
100
AcDbLine
 10
18.75
 20
-3.447999999999999
 30
0.0
 11
17.712
 21
-4.684
 31
0.0
  0
LINE
  5
6E
330
A
100
AcDbEntity
  8
PV
  6
Continuous
 62
     7
100
AcDbLine
 10
19.736
 20
9.929999999999999
 30
0.0
 11
19.736
 21
0.205
 31
0.0
  0
LINE
  5
6F
330
A
100
AcDbEntity
  8
PV
  6
Continuous
 62
     7
100
AcDbLine
 10
20.736
 20
8.023999999999999
 30
0.0
 11
20.736
 21
0.205
 31
0.0
  0
LINE
  5
70
330
A
100
AcDbEntity
  8
PV
  6
Continuous
 62
     7
100
AcDbLine
 10
15.73599999999999
 20
10.20499999999999
 30
0.0
 11
15.73599999999999
 21
0.205
 31
0.0
  0
LINE
  5
71
330
A
100
AcDbEntity
  8
PV
  6
Continuous
 62
     7
100
AcDbLine
 10
-3.873
 20
-9.794999999999999
 30
0.0
 11
-3.873
 21
-16.795
 31
0.0
  0
LINE
  5
72
330
A
100
AcDbEntity
  8
PV
  6
Continuous
 62
     7
100
AcDbLine
 10
4.126999999999999
 20
-9.794999999999999
 30
0.0
 11
4.126999999999999
 21
-16.795
 31
0.0
  0
LINE
  5
73
330
A
100
AcDbEntity
  8
PV
  6
Continuous
 62
     7
100
AcDbLine
 10
-35.533
 20
80.211
 30
0.0
 11
-35.533
 21
70.211
 31
0.0
  0
LINE
  5
74
330
A
100
AcDbEntity
  8
PV
  6
Continuous
 62
     7
100
AcDbLine
 10
-39.873
 20
65.211
 30
0.0
 11
-38.024
 21
65.211
 31
0.0
  0
LINE
  5
75
330
A
100
AcDbEntity
  8
PV
  6
Continuous
 62
     7
100
AcDbLine
 10
-35.533
 20
70.211
 30
0.0
 11
-23.373
 21
70.211
 31
0.0
  0
LINE
  5
76
330
A
100
AcDbEntity
  8
PV
  6
Continuous
 62
     7
100
AcDbLine
 10
-36.575
 20
66.323
 30
0.0
 11
-35.533
 21
70.211
 31
0.0
  0
LINE
  5
77
330
A
100
AcDbEntity
  8
PV
  6
Continuous
 62
     7
100
AcDbLine
 10
-36.873
 20
80.211
 30
0.0
 11
-36.873
 21
65.74899999999999
 31
0.0
  0
LINE
  5
78
330
A
100
AcDbEntity
  8
PV
  6
Continuous
 62
     7
100
AcDbLine
 10
15.627
 20
-16.795
 30
0.0
 11
-15.373
 21
-16.795
 31
0.0
  0
LINE
  5
79
330
A
100
AcDbEntity
  8
PV
  6
Continuous
 62
     7
100
AcDbLine
 10
-21.373
 20
-9.794999999999999
 30
0.0
 11
21.627
 21
-9.794999999999999
 31
0.0
  0
LINE
  5
7A
330
A
100
AcDbEntity
  8
PV
  6
Continuous
 62
     7
100
AcDbLine
 10
20.722
 20
8.304999999999999
 30
0.0
 11
21.627
 21
-9.794999999999999
 31
0.0
  0
LINE
  5
7B
330
A
100
AcDbEntity
  8
PV
  6
Continuous
 62
     7
100
AcDbLine
 10
-18.471
 20
10.20499999999999
 30
0.0
 11
18.724
 21
10.20499999999999
 31
0.0
  0
LINE
  5
7C
330
A
100
AcDbEntity
  8
PV
  6
Continuous
 62
     7
100
AcDbLine
 10
-17.373
 20
11.205
 30
0.0
 11
17.62699999999999
 21
11.205
 31
0.0
  0
LINE
  5
7D
330
A
100
AcDbEntity
  8
PV
  6
Continuous
 62
     7
100
AcDbLine
 10
-21.373
 20
-9.794999999999999
 30
0.0
 11
-20.468
 21
8.304999999999999
 31
0.0
  0
LINE
  5
7E
330
A
100
AcDbEntity
  8
PV
  6
Continuous
 62
     7
100
AcDbLine
 10
-23.373
 20
-20.795
 30
0.0
 11
-23.373
 21
-29.795
 31
0.0
  0
LINE
  5
7F
330
A
100
AcDbEntity
  8
PV
  6
Continuous
 62
     7
100
AcDbLine
 10
-23.373
 20
99.71099999999999
 30
0.0
 11
-23.373
 21
60.71100000000001
 31
0.0
  0
LINE
  5
80
330
A
100
AcDbEntity
  8
PV
  6
Continuous
 62
     7
100
AcDbLine
 10
23.62699999999999
 20
99.71099999999999
 30
0.0
 11
23.62699999999999
 21
60.71100000000001
 31
0.0
  0
LINE
  5
81
330
A
100
AcDbEntity
  8
PV
  6
Continuous
 62
     7
100
AcDbLine
 10
-19.373
 20
56.711
 30
0.0
 11
19.62699999999999
 21
56.711
 31
0.0
  0
LINE
  5
82
330
A
100
AcDbEntity
  8
PV
  6
Continuous
 62
     7
100
AcDbLine
 10
-19.373
 20
103.7109999999999
 30
0.0
 11
19.62699999999999
 21
103.7109999999999
 31
0.0
  0
LINE
  5
83
330
A
100
AcDbEntity
  8
PV
  6
Continuous
 62
     7
100
AcDbLine
 10
-19.373
 20
56.711
 30
0.0
 11
-23.373
 21
60.71100000000001
 31
0.0
  0
LINE
  5
84
330
A
100
AcDbEntity
  8
PV
  6
Continuous
 62
     7
100
AcDbLine
 10
-23.373
 20
99.71099999999999
 30
0.0
 11
-19.373
 21
103.7109999999999
 31
0.0
  0
LINE
  5
85
330
A
100
AcDbEntity
  8
PV
  6
Continuous
 62
     7
100
AcDbLine
 10
19.62699999999999
 20
103.7109999999999
 30
0.0
 11
23.62699999999999
 21
99.71099999999999
 31
0.0
  0
LINE
  5
86
330
A
100
AcDbEntity
  8
PV
  6
Continuous
 62
     7
100
AcDbLine
 10
23.62699999999999
 20
60.71100000000001
 30
0.0
 11
19.62699999999999
 21
56.711
 31
0.0
  0
LINE
  5
87
330
A
100
AcDbEntity
  8
PV
  6
CENTER
 62
     7
100
AcDbLine
 10
17.62699999999999
 20
68.046
 30
0.0
 11
17.62699999999999
 21
56.461
 31
0.0
  0
LINE
  5
88
330
A
100
AcDbEntity
  8
PV
  6
Continuous
 62
     7
100
AcDbLine
 10
17.62699999999999
 20
60.402
 30
0.0
 11
15.627
 21
61.556
 31
0.0
  0
LINE
  5
89
330
A
100
AcDbEntity
  8
PV
  6
Continuous
 62
     7
100
AcDbLine
 10
19.62699999999999
 20
61.556
 30
0.0
 11
17.62699999999999
 21
60.402
 31
0.0
  0
LINE
  5
8A
330
A
100
AcDbEntity
  8
PV
  6
CENTER
 62
     7
100
AcDbLine
 10
23.208
 20
62.711
 30
0.0
 11
12.30199999999999
 21
62.711
 31
0.0
  0
LINE
  5
8B
330
A
100
AcDbEntity
  8
PV
  6
Continuous
 62
     7
100
AcDbLine
 10
17.62699999999999
 20
65.021
 30
0.0
 11
15.627
 21
63.86600000000001
 31
0.0
  0
LINE
  5
8C
330
A
100
AcDbEntity
  8
PV
  6
Continuous
 62
     7
100
AcDbLine
 10
19.62699999999999
 20
63.86600000000001
 30
0.0
 11
17.62699999999999
 21
65.021
 31
0.0
  0
LINE
  5
8D
330
A
100
AcDbEntity
  8
PV
  6
Continuous
 62
     7
100
AcDbLine
 10
19.62699999999999
 20
63.86600000000001
 30
0.0
 11
19.62699999999999
 21
61.556
 31
0.0
  0
LINE
  5
8E
330
A
100
AcDbEntity
  8
PV
  6
Continuous
 62
     7
100
AcDbLine
 10
15.627
 20
63.86600000000001
 30
0.0
 11
15.627
 21
61.556
 31
0.0
  0
LINE
  5
8F
330
A
100
AcDbEntity
  8
PV
  6
Continuous
 62
     7
100
AcDbLine
 10
-23.373
 20
-29.773
 30
0.0
 11
-23.373
 21
-40.295
 31
0.0
  0
LINE
  5
90
330
A
100
AcDbEntity
  8
PV
  6
Continuous
 62
     7
100
AcDbLine
 10
-19.373
 20
-19.82099999999999
 30
0.0
 11
-19.373
 21
-40.295
 31
0.0
  0
LINE
  5
91
330
A
100
AcDbEntity
  8
PV
  6
Continuous
 62
     7
100
AcDbLine
 10
19.62699999999999
 20
-19.82099999999999
 30
0.0
 11
19.62699999999999
 21
-40.295
 31
0.0
  0
LINE
  5
92
330
A
100
AcDbEntity
  8
PV
  6
Continuous
 62
     7
100
AcDbLine
 10
23.62699999999999
 20
-29.91099999999999
 30
0.0
 11
23.62699999999999
 21
-40.295
 31
0.0
  0
LINE
  5
93
330
A
100
AcDbEntity
  8
PV
  6
Continuous
 62
     7
100
AcDbLine
 10
23.62699999999999
 20
-20.795
 30
0.0
 11
23.62699999999999
 21
-29.795
 31
0.0
  0
LINE
  5
94
330
A
100
AcDbEntity
  8
PV
  6
CENTER
 62
     7
100
AcDbLine
 10
17.12699999999999
 20
-18.23199999999999
 30
0.0
 11
17.12699999999999
 21
-44.515
 31
0.0
  0
LINE
  5
95
330
A
100
AcDbEntity
  8
PV
  6
CENTER
 62
     7
100
AcDbLine
 10
-17.373
 20
67.91299999999999
 30
0.0
 11
-17.373
 21
56.461
 31
0.0
  0
LINE
  5
96
330
A
100
AcDbEntity
  8
PV
  6
Continuous
 62
     7
100
AcDbLine
 10
-17.373
 20
60.402
 30
0.0
 11
-15.373
 21
61.556
 31
0.0
  0
LINE
  5
97
330
A
100
AcDbEntity
  8
PV
  6
Continuous
 62
     7
100
AcDbLine
 10
-19.373
 20
61.556
 30
0.0
 11
-17.373
 21
60.402
 31
0.0
  0
LINE
  5
98
330
A
100
AcDbEntity
  8
PV
  6
CENTER
 62
     7
100
AcDbLine
 10
-23.623
 20
62.711
 30
0.0
 11
-12.55099999999999
 21
62.711
 31
0.0
  0
LINE
  5
99
330
A
100
AcDbEntity
  8
PV
  6
Continuous
 62
     7
100
AcDbLine
 10
-17.373
 20
65.021
 30
0.0
 11
-15.373
 21
63.86600000000001
 31
0.0
  0
LINE
  5
9A
330
A
100
AcDbEntity
  8
PV
  6
Continuous
 62
     7
100
AcDbLine
 10
-19.373
 20
63.86600000000001
 30
0.0
 11
-17.373
 21
65.021
 31
0.0
  0
LINE
  5
9B
330
A
100
AcDbEntity
  8
PV
  6
Continuous
 62
     7
100
AcDbLine
 10
-19.373
 20
63.86600000000001
 30
0.0
 11
-19.373
 21
61.556
 31
0.0
  0
LINE
  5
9C
330
A
100
AcDbEntity
  8
PV
  6
Continuous
 62
     7
100
AcDbLine
 10
-15.373
 20
63.86600000000001
 30
0.0
 11
-15.373
 21
61.556
 31
0.0
  0
LINE
  5
9D
330
A
100
AcDbEntity
  8
PV
  6
CENTER
 62
     7
100
AcDbLine
 10
17.62699999999999
 20
92.76200000000001
 30
0.0
 11
17.62699999999999
 21
103.9609999999999
 31
0.0
  0
LINE
  5
9E
330
A
100
AcDbEntity
  8
PV
  6
Continuous
 62
     7
100
AcDbLine
 10
17.62699999999999
 20
100.021
 30
0.0
 11
15.627
 21
98.86600000000001
 31
0.0
  0
LINE
  5
9F
330
A
100
AcDbEntity
  8
PV
  6
Continuous
 62
     7
100
AcDbLine
 10
19.62699999999999
 20
98.86600000000001
 30
0.0
 11
17.62699999999999
 21
100.021
 31
0.0
  0
LINE
  5
A0
330
A
100
AcDbEntity
  8
PV
  6
CENTER
 62
     7
100
AcDbLine
 10
23.877
 20
97.711
 30
0.0
 11
11.989
 21
97.711
 31
0.0
  0
LINE
  5
A1
330
A
100
AcDbEntity
  8
PV
  6
Continuous
 62
     7
100
AcDbLine
 10
17.62699999999999
 20
95.402
 30
0.0
 11
15.627
 21
96.55599999999999
 31
0.0
  0
LINE
  5
A2
330
A
100
AcDbEntity
  8
PV
  6
Continuous
 62
     7
100
AcDbLine
 10
19.62699999999999
 20
96.55599999999999
 30
0.0
 11
17.62699999999999
 21
95.402
 31
0.0
  0
LINE
  5
A3
330
A
100
AcDbEntity
  8
PV
  6
Continuous
 62
     7
100
AcDbLine
 10
19.62699999999999
 20
96.55599999999999
 30
0.0
 11
19.62699999999999
 21
98.86600000000001
 31
0.0
  0
LINE
  5
A4
330
A
100
AcDbEntity
  8
PV
  6
Continuous
 62
     7
100
AcDbLine
 10
15.627
 20
96.55599999999999
 30
0.0
 11
15.627
 21
98.86600000000001
 31
0.0
  0
LINE
  5
A5
330
A
100
AcDbEntity
  8
PV
  6
CENTER
 62
     7
100
AcDbLine
 10
-17.373
 20
92.315
 30
0.0
 11
-17.373
 21
103.265
 31
0.0
  0
LINE
  5
A6
330
A
100
AcDbEntity
  8
PV
  6
Continuous
 62
     7
100
AcDbLine
 10
-17.373
 20
100.021
 30
0.0
 11
-15.373
 21
98.86600000000001
 31
0.0
  0
LINE
  5
A7
330
A
100
AcDbEntity
  8
PV
  6
Continuous
 62
     7
100
AcDbLine
 10
-19.373
 20
98.86600000000001
 30
0.0
 11
-17.373
 21
100.021
 31
0.0
  0
LINE
  5
A8
330
A
100
AcDbEntity
  8
PV
  6
CENTER
 62
     7
100
AcDbLine
 10
-22.873
 20
97.711
 30
0.0
 11
-12.55099999999999
 21
97.711
 31
0.0
  0
LINE
  5
A9
330
A
100
AcDbEntity
  8
PV
  6
Continuous
 62
     7
100
AcDbLine
 10
-17.373
 20
95.402
 30
0.0
 11
-15.373
 21
96.55599999999999
 31
0.0
  0
LINE
  5
AA
330
A
100
AcDbEntity
  8
PV
  6
Continuous
 62
     7
100
AcDbLine
 10
-19.373
 20
96.55599999999999
 30
0.0
 11
-17.373
 21
95.402
 31
0.0
  0
LINE
  5
AB
330
A
100
AcDbEntity
  8
PV
  6
Continuous
 62
     7
100
AcDbLine
 10
-19.373
 20
96.55599999999999
 30
0.0
 11
-19.373
 21
98.86600000000001
 31
0.0
  0
LINE
  5
AC
330
A
100
AcDbEntity
  8
PV
  6
Continuous
 62
     7
100
AcDbLine
 10
-15.373
 20
96.55599999999999
 30
0.0
 11
-15.373
 21
98.86600000000001
 31
0.0
  0
LINE
  5
AD
330
A
100
AcDbEntity
  8
PV
  6
Continuous
 62
     7
100
AcDbLine
 10
22.627
 20
-19.795
 30
0.0
 11
23.62699999999999
 21
-20.795
 31
0.0
  0
LINE
  5
AE
330
A
100
AcDbEntity
  8
PV
  6
Continuous
 62
     7
100
AcDbLine
 10
-22.373
 20
-19.795
 30
0.0
 11
-23.373
 21
-20.795
 31
0.0
  0
LINE
  5
AF
330
A
100
AcDbEntity
  8
PV
  6
Continuous
 62
     7
100
AcDbLine
 10
-19.873
 20
-89.295
 30
0.0
 11
-17.873
 21
-91.295
 31
0.0
  0
LINE
  5
B0
330
A
100
AcDbEntity
  8
PV
  6
Continuous
 62
     7
100
AcDbLine
 10
20.127
 20
-89.295
 30
0.0
 11
18.12699999999999
 21
-91.295
 31
0.0
  0
LINE
  5
B1
330
A
100
AcDbEntity
  8
PV
  6
Continuous
 62
     7
100
AcDbLine
 10
20.19
 20
-89.295
 30
0.0
 11
-19.798
 21
-89.295
 31
0.0
  0
ARC
  5
B2
330
A
100
AcDbEntity
  8
PV
  6
Continuous
 62
     7
100
AcDbCircle
 10
-10.87299999999999
 20
-92.29499999999999
 30
0.0
 40
1.0
100
AcDbArc
 50
0.0
 51
90.00000300000001
  0
ARC
  5
B3
330
A
100
AcDbEntity
  8
PV
  6
Continuous
 62
     7
100
AcDbCircle
 10
11.127
 20
-92.29499999999999
 30
0.0
 40
1.0
100
AcDbArc
 50
90.00000300000001
 51
180.000005
  0
ARC
  5
B4
330
A
100
AcDbEntity
  8
PV
  6
Continuous
 62
     7
100
AcDbCircle
 10
-13.37299999999999
 20
-111.446
 30
0.0
 40
1.5
100
AcDbArc
 50
104.999979
 51
179.9999639999999
  0
ARC
  5
B5
330
A
100
AcDbEntity
  8
PV
  6
Continuous
 62
     7
100
AcDbCircle
 10
13.627
 20
-111.446
 30
0.0
 40
1.5
100
AcDbArc
 50
359.9999819999999
 51
74.999965
  0
ARC
  5
B6
330
A
100
AcDbEntity
  8
PV
  6
Continuous
 62
     7
100
AcDbCircle
 10
-38.024
 20
-86.795
 30
0.0
 40
1.5
100
AcDbArc
 50
269.9999839999999
 51
344.999964
  0
ARC
  5
B7
330
A
100
AcDbEntity
  8
PV
  6
Continuous
 62
     7
100
AcDbCircle
 10
-38.024
 20
-59.795
 30
0.0
 40
1.5
100
AcDbArc
 50
14.999978
 51
89.999962
  0
ARC
  5
B8
330
A
100
AcDbEntity
  8
PV
  6
Continuous
 62
     7
100
AcDbCircle
 10
-38.024
 20
93.711
 30
0.0
 40
1.5
100
AcDbArc
 50
14.999978
 51
89.999962
  0
ARC
  5
B9
330
A
100
AcDbEntity
  8
PV
  6
Continuous
 62
     7
100
AcDbCircle
 10
-37.18999999999999
 20
-73.295
 30
0.0
 40
19.99699999999999
100
AcDbArc
 50
329.994569
 51
30.005431
  0
ARC
  5
BA
330
A
100
AcDbEntity
  8
PV
  6
PHANTOM
 62
     7
100
AcDbCircle
 10
-18.471
 20
14.205
 30
0.0
 40
2.0
100
AcDbArc
 50
90.00000300000001
 51
177.137596
  0
ARC
  5
BB
330
A
100
AcDbEntity
  8
PV
  6
PHANTOM
 62
     7
100
AcDbCircle
 10
18.724
 20
14.205
 30
0.0
 40
2.0
100
AcDbArc
 50
2.862404999999999
 51
90.00000300000001
  0
ARC
  5
BC
330
A
100
AcDbEntity
  8
PV
  6
Continuous
 62
     7
100
AcDbCircle
 10
0.127
 20
0.205
 30
0.0
 40
5.0
100
AcDbArc
 50
179.9999909999999
 51
270.000001
  0
ARC
  5
BD
330
A
100
AcDbEntity
  8
PV
  6
Continuous
 62
     7
100
AcDbCircle
 10
0.127
 20
0.205
 30
0.0
 40
5.0
100
AcDbArc
 50
269.9999969999999
 51
0.0
  0
ARC
  5
BE
330
A
100
AcDbEntity
  8
PV
  6
PHANTOM
 62
     7
100
AcDbCircle
 10
-17.373
 20
16.20499999999999
 30
0.0
 40
1.0
100
AcDbArc
 50
90.00000300000001
 51
180.000005
  0
ARC
  5
BF
330
A
100
AcDbEntity
  8
PV
  6
PHANTOM
 62
     7
100
AcDbCircle
 10
17.62699999999999
 20
16.20499999999999
 30
0.0
 40
1.0
100
AcDbArc
 50
0.0
 51
90.00000300000001
  0
ARC
  5
C0
330
A
100
AcDbEntity
  8
PV
  6
Continuous
 62
   254
100
AcDbCircle
 10
9.352999999999999
 20
95.707
 30
0.0
 40
1.790999999999999
100
AcDbArc
 50
268.6023769999999
 51
270.0000109999999
  0
ARC
  5
C1
330
A
100
AcDbEntity
  8
PV
  6
Continuous
 62
     7
100
AcDbCircle
 10
-38.024
 20
66.711
 30
0.0
 40
1.5
100
AcDbArc
 50
270.0000379999999
 51
345.000022
  0
ARC
  5
C2
330
A
100
AcDbEntity
  8
PV
  6
Continuous
 62
     7
100
AcDbCircle
 10
-18.373
 20
-16.795
 30
0.0
 40
3.0
100
AcDbArc
 50
269.9999969999999
 51
0.0
  0
ARC
  5
C3
330
A
100
AcDbEntity
  8
PV
  6
Continuous
 62
     7
100
AcDbCircle
 10
18.627
 20
-16.795
 30
0.0
 40
3.0
100
AcDbArc
 50
179.9999909999999
 51
270.000001
  0
ARC
  5
C4
330
A
100
AcDbEntity
  8
PV
  6
Continuous
 62
     7
100
AcDbCircle
 10
18.724
 20
8.205
 30
0.0
 40
2.0
100
AcDbArc
 50
2.862404999999999
 51
90.00000300000001
  0
ARC
  5
C5
330
A
100
AcDbEntity
  8
PV
  6
Continuous
 62
     7
100
AcDbCircle
 10
17.62699999999999
 20
10.20499999999999
 30
0.0
 40
1.0
100
AcDbArc
 50
0.0
 51
90.00000300000001
  0
ARC
  5
C6
330
A
100
AcDbEntity
  8
PV
  6
Continuous
 62
     7
100
AcDbCircle
 10
-17.373
 20
10.20499999999999
 30
0.0
 40
1.0
100
AcDbArc
 50
90.00000300000001
 51
180.000005
  0
ARC
  5
C7
330
A
100
AcDbEntity
  8
PV
  6
Continuous
 62
     7
100
AcDbCircle
 10
-18.471
 20
8.205
 30
0.0
 40
2.0
100
AcDbArc
 50
90.00000300000001
 51
177.137596
  0
ARC
  5
C8
330
A
100
AcDbEntity
  8
PV
  6
Continuous
 62
     7
100
AcDbCircle
 10
17.62699999999999
 20
62.711
 30
0.0
 40
4.25
100
AcDbArc
 50
172.816381
 51
97.768294
  0
ARC
  5
C9
330
A
100
AcDbEntity
  8
PV
  6
Continuous
 62
     7
100
AcDbCircle
 10
17.62699999999999
 20
62.711
 30
0.0
 40
3.729999999999999
100
AcDbArc
 50
164.526444
 51
104.180093
  0
ARC
  5
CA
330
A
100
AcDbEntity
  8
PV
  6
Continuous
 62
     7
100
AcDbCircle
 10
17.62699999999999
 20
62.711
 30
0.0
 40
4.75
100
AcDbArc
 50
177.780112
 51
90.07446800000002
  0
ARC
  5
CB
330
A
100
AcDbEntity
  8
PV
  6
Continuous
 62
     7
100
AcDbCircle
 10
-17.373
 20
62.711
 30
0.0
 40
4.75
100
AcDbArc
 50
91.31482099999999
 51
0.7544450000000001
  0
ARC
  5
CC
330
A
100
AcDbEntity
  8
PV
  6
Continuous
 62
     7
100
AcDbCircle
 10
-17.373
 20
62.711
 30
0.0
 40
4.25
100
AcDbArc
 50
81.751204
 51
5.509541
  0
ARC
  5
CD
330
A
100
AcDbEntity
  8
PV
  6
Continuous
 62
     7
100
AcDbCircle
 10
-17.373
 20
62.711
 30
0.0
 40
3.729999999999999
100
AcDbArc
 50
73.03126500000001
 51
13.190663
  0
ARC
  5
CE
330
A
100
AcDbEntity
  8
PV
  6
Continuous
 62
     7
100
AcDbCircle
 10
17.62699999999999
 20
97.711
 30
0.0
 40
4.75
100
AcDbArc
 50
267.137568
 51
179.860901
  0
ARC
  5
CF
330
A
100
AcDbEntity
  8
PV
  6
Continuous
 62
     7
100
AcDbCircle
 10
17.62699999999999
 20
97.711
 30
0.0
 40
4.25
100
AcDbArc
 50
264.5483589999999
 51
186.576412
  0
ARC
  5
D0
330
A
100
AcDbEntity
  8
PV
  6
Continuous
 62
     7
100
AcDbCircle
 10
17.62699999999999
 20
97.711
 30
0.0
 40
3.729999999999999
100
AcDbArc
 50
254.7889339999999
 51
194.683928
  0
ARC
  5
D1
330
A
100
AcDbEntity
  8
PV
  6
Continuous
 62
     7
100
AcDbCircle
 10
-17.373
 20
97.711
 30
0.0
 40
4.75
100
AcDbArc
 50
357.9797319999999
 51
272.2030649999999
  0
ARC
  5
D2
330
A
100
AcDbEntity
  8
PV
  6
Continuous
 62
     7
100
AcDbCircle
 10
-17.373
 20
97.711
 30
0.0
 40
4.25
100
AcDbArc
 50
351.122573
 51
277.423132
  0
ARC
  5
D3
330
A
100
AcDbEntity
  8
PV
  6
Continuous
 62
     7
100
AcDbCircle
 10
-17.373
 20
97.711
 30
0.0
 40
3.729999999999999
100
AcDbArc
 50
344.534538
 51
285.5786509999999
  0
LWPOLYLINE
  5
D4
330
A
100
AcDbEntity
  8
PV
  6
Continuous
 62
     7
100
AcDbPolyline
 90
       73
 70
     0
 43
0.0
 10
-20.482
 20
0.205
 10
-20.48
 20
-0.013
 10
-20.47299999999999
 20
-0.231
 10
-20.461
 20
-0.448
 10
-20.444
 20
-0.6629999999999999
 10
-20.423
 20
-0.8769999999999999
 10
-20.397
 20
-1.088999999999999
 10
-20.36599999999999
 20
-1.299
 10
-20.331
 20
-1.504999999999999
 10
-20.292
 20
-1.709
 10
-20.248
 20
-1.908
 10
-20.2
 20
-2.104
 10
-20.147
 20
-2.294999999999999
 10
-20.09099999999999
 20
-2.481999999999999
 10
-20.03
 20
-2.663
 10
-19.96599999999999
 20
-2.839
 10
-19.897
 20
-3.008999999999999
 10
-19.82499999999999
 20
-3.173
 10
-19.75
 20
-3.331
 10
-19.671
 20
-3.481999999999999
 10
-19.589
 20
-3.625
 10
-19.504
 20
-3.762
 10
-19.416
 20
-3.891
 10
-19.325
 20
-4.011999999999999
 10
-19.23199999999999
 20
-4.125
 10
-19.137
 20
-4.23
 10
-19.039
 20
-4.326999999999999
 10
-18.939
 20
-4.415
 10
-18.837
 20
-4.493999999999999
 10
-18.734
 20
-4.564
 10
-18.629
 20
-4.625
 10
-18.52299999999999
 20
-4.676999999999999
 10
-18.416
 20
-4.718999999999999
 10
-18.30799999999999
 20
-4.751999999999999
 10
-18.2
 20
-4.775999999999999
 10
-18.09099999999999
 20
-4.79
 10
-17.982
 20
-4.794999999999999
 10
-17.873
 20
-4.79
 10
-17.76399999999999
 20
-4.775999999999999
 10
-17.656
 20
-4.751999999999999
 10
-17.54799999999999
 20
-4.718999999999999
 10
-17.44099999999999
 20
-4.676999999999999
 10
-17.335
 20
-4.625
 10
-17.23
 20
-4.564
 10
-17.12699999999999
 20
-4.493999999999999
 10
-17.02499999999999
 20
-4.415
 10
-16.92599999999999
 20
-4.326999999999999
 10
-16.828
 20
-4.23
 10
-16.732
 20
-4.125
 10
-16.63899999999999
 20
-4.011999999999999
 10
-16.54799999999999
 20
-3.891
 10
-16.46
 20
-3.762
 10
-16.375
 20
-3.625
 10
-16.29299999999999
 20
-3.481999999999999
 10
-16.214
 20
-3.331
 10
-16.139
 20
-3.173
 10
-16.067
 20
-3.008999999999999
 10
-15.999
 20
-2.839
 10
-15.934
 20
-2.663
 10
-15.874
 20
-2.481999999999999
 10
-15.817
 20
-2.294999999999999
 10
-15.765
 20
-2.104
 10
-15.716
 20
-1.908
 10
-15.672
 20
-1.709
 10
-15.63299999999999
 20
-1.504999999999999
 10
-15.598
 20
-1.299
 10
-15.567
 20
-1.088999999999999
 10
-15.541
 20
-0.8769999999999999
 10
-15.52
 20
-0.6629999999999999
 10
-15.504
 20
-0.448
 10
-15.492
 20
-0.231
 10
-15.48499999999999
 20
-0.013
 10
-15.482
 20
0.205
  0
LWPOLYLINE
  5
D5
330
A
100
AcDbEntity
  8
PV
  6
Continuous
 62
     7
100
AcDbPolyline
 90
       73
 70
     0
 43
0.0
 10
15.73599999999999
 20
0.205
 10
15.738
 20
-0.013
 10
15.745
 20
-0.231
 10
15.757
 20
-0.448
 10
15.774
 20
-0.6629999999999999
 10
15.795
 20
-0.8769999999999999
 10
15.821
 20
-1.088999999999999
 10
15.852
 20
-1.299
 10
15.887
 20
-1.504999999999999
 10
15.926
 20
-1.709
 10
15.97
 20
-1.908
 10
16.018
 20
-2.104
 10
16.07099999999999
 20
-2.294999999999999
 10
16.127
 20
-2.481999999999999
 10
16.188
 20
-2.663
 10
16.253
 20
-2.839
 10
16.32099999999999
 20
-3.008999999999999
 10
16.393
 20
-3.173
 10
16.46799999999999
 20
-3.331
 10
16.547
 20
-3.481999999999999
 10
16.629
 20
-3.625
 10
16.714
 20
-3.762
 10
16.802
 20
-3.891
 10
16.893
 20
-4.011999999999999
 10
16.986
 20
-4.125
 10
17.082
 20
-4.23
 10
17.179
 20
-4.326999999999999
 10
17.27899999999999
 20
-4.415
 10
17.381
 20
-4.493999999999999
 10
17.484
 20
-4.564
 10
17.589
 20
-4.625
 10
17.695
 20
-4.676999999999999
 10
17.80199999999999
 20
-4.718999999999999
 10
17.91
 20
-4.751999999999999
 10
18.018
 20
-4.775999999999999
 10
18.12699999999999
 20
-4.79
 10
18.236
 20
-4.794999999999999
 10
18.345
 20
-4.79
 10
18.454
 20
-4.775999999999999
 10
18.562
 20
-4.751999999999999
 10
18.67
 20
-4.718999999999999
 10
18.777
 20
-4.676999999999999
 10
18.883
 20
-4.625
 10
18.98799999999999
 20
-4.564
 10
19.09099999999999
 20
-4.493999999999999
 10
19.19299999999999
 20
-4.415
 10
19.292
 20
-4.326999999999999
 10
19.39
 20
-4.23
 10
19.486
 20
-4.125
 10
19.579
 20
-4.011999999999999
 10
19.67
 20
-3.891
 10
19.75799999999999
 20
-3.762
 10
19.843
 20
-3.625
 10
19.925
 20
-3.481999999999999
 10
20.004
 20
-3.331
 10
20.079
 20
-3.173
 10
20.15099999999999
 20
-3.008999999999999
 10
20.219
 20
-2.839
 10
20.284
 20
-2.663
 10
20.344
 20
-2.481999999999999
 10
20.401
 20
-2.294999999999999
 10
20.453
 20
-2.104
 10
20.50199999999999
 20
-1.908
 10
20.546
 20
-1.709
 10
20.58499999999999
 20
-1.504999999999999
 10
20.62
 20
-1.299
 10
20.651
 20
-1.088999999999999
 10
20.67699999999999
 20
-0.8769999999999999
 10
20.698
 20
-0.6629999999999999
 10
20.71499999999999
 20
-0.448
 10
20.72599999999999
 20
-0.231
 10
20.734
 20
-0.013
 10
20.736
 20
0.205
  0
LINE
  5
D6
330
A
100
AcDbEntity
  8
PV
  6
Continuous
 62
     7
100
AcDbLine
 10
3.419999999999999
 20
82.34999999999999
 30
0.0
 11
4.33
 21
84.84999999999999
 31
0.0
  0
LINE
  5
D7
330
A
100
AcDbEntity
  8
PV
  6
Continuous
 62
     7
100
AcDbLine
 10
4.33
 20
84.84999999999999
 30
0.0
 11
4.623
 21
84.84999999999999
 31
0.0
  0
LINE
  5
D8
330
A
100
AcDbEntity
  8
PV
  6
Continuous
 62
     7
100
AcDbLine
 10
4.623
 20
84.84999999999999
 30
0.0
 11
5.292999999999999
 21
82.34999999999999
 31
0.0
  0
LINE
  5
D9
330
A
100
AcDbEntity
  8
PV
  6
Continuous
 62
     7
100
AcDbLine
 10
3.878
 20
82.87799999999998
 30
0.0
 11
4.892999999999999
 21
82.87799999999998
 31
0.0
  0
LINE
  5
DA
330
A
100
AcDbEntity
  8
PV
  6
Continuous
 62
     7
100
AcDbLine
 10
3.419999999999999
 20
82.34999999999999
 30
0.0
 11
3.686
 21
82.34999999999999
 31
0.0
  0
LINE
  5
DB
330
A
100
AcDbEntity
  8
PV
  6
Continuous
 62
     7
100
AcDbLine
 10
5.033999999999999
 20
82.34999999999999
 30
0.0
 11
5.292999999999999
 21
82.34999999999999
 31
0.0
  0
LINE
  5
DC
330
A
100
AcDbEntity
  8
PV
  6
Continuous
 62
     7
100
AcDbLine
 10
-11.149
 20
82.34999999999999
 30
0.0
 11
-10.70799999999999
 21
84.84999999999999
 31
0.0
  0
LINE
  5
DD
330
A
100
AcDbEntity
  8
PV
  6
Continuous
 62
     7
100
AcDbLine
 10
-10.70799999999999
 20
84.84999999999999
 30
0.0
 11
-10.49
 21
84.84999999999999
 31
0.0
  0
LINE
  5
DE
330
A
100
AcDbEntity
  8
PV
  6
Continuous
 62
     7
100
AcDbLine
 10
-11.149
 20
82.34999999999999
 30
0.0
 11
-10.89499999999999
 21
82.34999999999999
 31
0.0
  0
LINE
  5
DF
330
A
100
AcDbEntity
  8
PV
  6
Continuous
 62
     7
100
AcDbLine
 10
-9.432
 20
82.34999999999999
 30
0.0
 11
-8.990999999999999
 21
84.84999999999999
 31
0.0
  0
LINE
  5
E0
330
A
100
AcDbEntity
  8
PV
  6
Continuous
 62
     7
100
AcDbLine
 10
-9.689
 20
82.34999999999999
 30
0.0
 11
-9.432
 21
82.34999999999999
 31
0.0
  0
LINE
  5
E1
330
A
100
AcDbEntity
  8
PV
  6
Continuous
 62
     7
100
AcDbLine
 10
-9.244999999999999
 20
84.84999999999999
 30
0.0
 11
-8.990999999999999
 21
84.84999999999999
 31
0.0
  0
LINE
  5
E2
330
A
100
AcDbEntity
  8
PV
  6
Continuous
 62
     7
100
AcDbLine
 10
-9.607000000000001
 20
82.79299999999999
 30
0.0
 11
-10.49
 21
84.84999999999999
 31
0.0
  0
LINE
  5
E3
330
A
100
AcDbEntity
  8
PV
  6
Continuous
 62
     7
100
AcDbLine
 10
3.686
 20
82.34999999999999
 30
0.0
 11
3.878
 21
82.87799999999998
 31
0.0
  0
LINE
  5
E4
330
A
100
AcDbEntity
  8
PV
  6
Continuous
 62
     7
100
AcDbLine
 10
4.461999999999999
 20
84.48299999999999
 30
0.0
 11
4.826
 21
83.12799999999999
 31
0.0
  0
LINE
  5
E5
330
A
100
AcDbEntity
  8
PV
  6
Continuous
 62
     7
100
AcDbLine
 10
3.968999999999999
 20
83.12799999999999
 30
0.0
 11
4.826
 21
83.12799999999999
 31
0.0
  0
LINE
  5
E6
330
A
100
AcDbEntity
  8
PV
  6
Continuous
 62
     7
100
AcDbLine
 10
3.968999999999999
 20
83.12799999999999
 30
0.0
 11
4.461999999999999
 21
84.48299999999999
 31
0.0
  0
LINE
  5
E7
330
A
100
AcDbEntity
  8
PV
  6
Continuous
 62
     7
100
AcDbLine
 10
4.892999999999999
 20
82.87799999999998
 30
0.0
 11
5.033999999999999
 21
82.34999999999999
 31
0.0
  0
LINE
  5
E8
330
A
100
AcDbEntity
  8
PV
  6
Continuous
 62
     7
100
AcDbLine
 10
-10.89499999999999
 20
82.34999999999999
 30
0.0
 11
-10.544
 21
84.341
 31
0.0
  0
LINE
  5
E9
330
A
100
AcDbEntity
  8
PV
  6
Continuous
 62
     7
100
AcDbLine
 10
-9.689
 20
82.34999999999999
 30
0.0
 11
-10.544
 21
84.341
 31
0.0
  0
LINE
  5
EA
330
A
100
AcDbEntity
  8
PV
  6
Continuous
 62
     7
100
AcDbLine
 10
-9.607000000000001
 20
82.79299999999999
 30
0.0
 11
-9.244999999999999
 21
84.84999999999999
 31
0.0
  0
LINE
  5
EB
330
A
100
AcDbEntity
  8
PV
  6
Continuous
 62
     7
100
AcDbLine
 10
-6.707
 20
83.59999999999999
 30
0.0
 11
-5.912
 21
83.59999999999999
 31
0.0
  0
LINE
  5
EC
330
A
100
AcDbEntity
  8
PV
  6
Continuous
 62
     7
100
AcDbLine
 10
-6.751
 20
83.34999999999999
 30
0.0
 11
-6.201
 21
83.34999999999999
 31
0.0
  0
LINE
  5
ED
330
A
100
AcDbEntity
  8
PV
  6
Continuous
 62
     7
100
AcDbLine
 10
-6.751
 20
83.34999999999999
 30
0.0
 11
-6.707
 21
83.59999999999999
 31
0.0
  0
LINE
  5
EE
330
A
100
AcDbEntity
  8
PV
  6
Continuous
 62
     7
100
AcDbLine
 10
-6.212999999999999
 20
83.993
 30
0.0
 11
-5.977999999999999
 21
84.07799999999999
 31
0.0
  0
LINE
  5
EF
330
A
100
AcDbEntity
  8
PV
  6
Continuous
 62
     7
100
AcDbLine
 10
6.102999999999999
 20
82.34999999999999
 30
0.0
 11
6.543999999999999
 21
84.84999999999999
 31
0.0
  0
LINE
  5
F0
330
A
100
AcDbEntity
  8
PV
  6
Continuous
 62
     7
100
AcDbLine
 10
6.102999999999999
 20
82.34999999999999
 30
0.0
 11
7.475999999999999
 21
82.34999999999999
 31
0.0
  0
LINE
  5
F1
330
A
100
AcDbEntity
  8
PV
  6
Continuous
 62
     7
100
AcDbLine
 10
6.400999999999999
 20
82.59999999999999
 30
0.0
 11
7.519999999999999
 21
82.59999999999999
 31
0.0
  0
LINE
  5
F2
330
A
100
AcDbEntity
  8
PV
  6
Continuous
 62
     7
100
AcDbLine
 10
6.400999999999999
 20
82.59999999999999
 30
0.0
 11
6.797999999999999
 21
84.84999999999999
 31
0.0
  0
LINE
  5
F3
330
A
100
AcDbEntity
  8
PV
  6
Continuous
 62
     7
100
AcDbLine
 10
7.475999999999999
 20
82.34999999999999
 30
0.0
 11
7.519999999999999
 21
82.59999999999999
 31
0.0
  0
LINE
  5
F4
330
A
100
AcDbEntity
  8
PV
  6
Continuous
 62
     7
100
AcDbLine
 10
6.543999999999999
 20
84.84999999999999
 30
0.0
 11
6.797999999999999
 21
84.84999999999999
 31
0.0
  0
LINE
  5
F5
330
A
100
AcDbEntity
  8
PV
  6
Continuous
 62
     7
100
AcDbLine
 10
10.569
 20
82.34999999999999
 30
0.0
 11
11.00999999999999
 21
84.84999999999999
 31
0.0
  0
LINE
  5
F6
330
A
100
AcDbEntity
  8
PV
  6
Continuous
 62
     7
100
AcDbLine
 10
10.569
 20
82.34999999999999
 30
0.0
 11
11.743
 21
82.34999999999999
 31
0.0
  0
LINE
  5
F7
330
A
100
AcDbEntity
  8
PV
  6
Continuous
 62
     7
100
AcDbLine
 10
10.867
 20
82.59999999999999
 30
0.0
 11
11.787
 21
82.59999999999999
 31
0.0
  0
LINE
  5
F8
330
A
100
AcDbEntity
  8
PV
  6
Continuous
 62
     7
100
AcDbLine
 10
10.867
 20
82.59999999999999
 30
0.0
 11
11.02099999999999
 21
83.475
 31
0.0
  0
LINE
  5
F9
330
A
100
AcDbEntity
  8
PV
  6
Continuous
 62
     7
100
AcDbLine
 10
11.00999999999999
 20
84.84999999999999
 30
0.0
 11
12.184
 21
84.84999999999999
 31
0.0
  0
LINE
  5
FA
330
A
100
AcDbEntity
  8
PV
  6
Continuous
 62
     7
100
AcDbLine
 10
11.22
 20
84.59999999999999
 30
0.0
 11
12.139
 21
84.59999999999999
 31
0.0
  0
LINE
  5
FB
330
A
100
AcDbEntity
  8
PV
  6
Continuous
 62
     7
100
AcDbLine
 10
11.065
 20
83.725
 30
0.0
 11
11.98499999999999
 21
83.725
 31
0.0
  0
LINE
  5
FC
330
A
100
AcDbEntity
  8
PV
  6
Continuous
 62
     7
100
AcDbLine
 10
11.02099999999999
 20
83.475
 30
0.0
 11
11.94099999999999
 21
83.475
 31
0.0
  0
LINE
  5
FD
330
A
100
AcDbEntity
  8
PV
  6
Continuous
 62
     7
100
AcDbLine
 10
11.065
 20
83.725
 30
0.0
 11
11.22
 21
84.59999999999999
 31
0.0
  0
LINE
  5
FE
330
A
100
AcDbEntity
  8
PV
  6
Continuous
 62
     7
100
AcDbLine
 10
11.743
 20
82.34999999999999
 30
0.0
 11
11.787
 21
82.59999999999999
 31
0.0
  0
LINE
  5
FF
330
A
100
AcDbEntity
  8
PV
  6
Continuous
 62
     7
100
AcDbLine
 10
11.94099999999999
 20
83.475
 30
0.0
 11
11.98499999999999
 21
83.725
 31
0.0
  0
LINE
  5
100
330
A
100
AcDbEntity
  8
PV
  6
Continuous
 62
     7
100
AcDbLine
 10
12.139
 20
84.59999999999999
 30
0.0
 11
12.184
 21
84.84999999999999
 31
0.0
  0
LINE
  5
101
330
A
100
AcDbEntity
  8
PV
  6
Continuous
 62
     7
100
AcDbLine
 10
8.487999999999999
 20
84.84999999999999
 30
0.0
 11
8.865
 21
82.70799999999999
 31
0.0
  0
LINE
  5
102
330
A
100
AcDbEntity
  8
PV
  6
Continuous
 62
     7
100
AcDbLine
 10
8.865
 20
82.70799999999999
 30
0.0
 11
9.644999999999999
 21
84.84999999999999
 31
0.0
  0
LINE
  5
103
330
A
100
AcDbEntity
  8
PV
  6
Continuous
 62
     7
100
AcDbLine
 10
8.233999999999999
 20
84.84999999999999
 30
0.0
 11
8.675
 21
82.34999999999999
 31
0.0
  0
LINE
  5
104
330
A
100
AcDbEntity
  8
PV
  6
Continuous
 62
     7
100
AcDbLine
 10
9.000999999999999
 20
82.34999999999999
 30
0.0
 11
9.910999999999999
 21
84.84999999999999
 31
0.0
  0
LINE
  5
105
330
A
100
AcDbEntity
  8
PV
  6
Continuous
 62
     7
100
AcDbLine
 10
8.233999999999999
 20
84.84999999999999
 30
0.0
 11
8.487999999999999
 21
84.84999999999999
 31
0.0
  0
LINE
  5
106
330
A
100
AcDbEntity
  8
PV
  6
Continuous
 62
     7
100
AcDbLine
 10
8.675
 20
82.34999999999999
 30
0.0
 11
9.000999999999999
 21
82.34999999999999
 31
0.0
  0
LINE
  5
107
330
A
100
AcDbEntity
  8
PV
  6
Continuous
 62
     7
100
AcDbLine
 10
9.644999999999999
 20
84.84999999999999
 30
0.0
 11
9.910999999999999
 21
84.84999999999999
 31
0.0
  0
LINE
  5
108
330
A
100
AcDbEntity
  8
PV
  6
Continuous
 62
     7
100
AcDbLine
 10
-13.98
 20
82.34999999999999
 30
0.0
 11
-13.07
 21
84.84999999999999
 31
0.0
  0
LINE
  5
109
330
A
100
AcDbEntity
  8
PV
  6
Continuous
 62
     7
100
AcDbLine
 10
-13.07
 20
84.84999999999999
 30
0.0
 11
-12.777
 21
84.84999999999999
 31
0.0
  0
LINE
  5
10A
330
A
100
AcDbEntity
  8
PV
  6
Continuous
 62
     7
100
AcDbLine
 10
-12.777
 20
84.84999999999999
 30
0.0
 11
-12.107
 21
82.34999999999999
 31
0.0
  0
LINE
  5
10B
330
A
100
AcDbEntity
  8
PV
  6
Continuous
 62
     7
100
AcDbLine
 10
-13.522
 20
82.87799999999998
 30
0.0
 11
-12.507
 21
82.87799999999998
 31
0.0
  0
LINE
  5
10C
330
A
100
AcDbEntity
  8
PV
  6
Continuous
 62
     7
100
AcDbLine
 10
-13.98
 20
82.34999999999999
 30
0.0
 11
-13.714
 21
82.34999999999999
 31
0.0
  0
LINE
  5
10D
330
A
100
AcDbEntity
  8
PV
  6
Continuous
 62
     7
100
AcDbLine
 10
-12.366
 20
82.34999999999999
 30
0.0
 11
-12.107
 21
82.34999999999999
 31
0.0
  0
LINE
  5
10E
330
A
100
AcDbEntity
  8
PV
  6
Continuous
 62
     7
100
AcDbLine
 10
-13.714
 20
82.34999999999999
 30
0.0
 11
-13.522
 21
82.87799999999998
 31
0.0
  0
LINE
  5
10F
330
A
100
AcDbEntity
  8
PV
  6
Continuous
 62
     7
100
AcDbLine
 10
-12.938
 20
84.48299999999999
 30
0.0
 11
-12.574
 21
83.12799999999999
 31
0.0
  0
LINE
  5
110
330
A
100
AcDbEntity
  8
PV
  6
Continuous
 62
     7
100
AcDbLine
 10
-13.43099999999999
 20
83.12799999999999
 30
0.0
 11
-12.574
 21
83.12799999999999
 31
0.0
  0
LINE
  5
111
330
A
100
AcDbEntity
  8
PV
  6
Continuous
 62
     7
100
AcDbLine
 10
-13.43099999999999
 20
83.12799999999999
 30
0.0
 11
-12.938
 21
84.48299999999999
 31
0.0
  0
LINE
  5
112
330
A
100
AcDbEntity
  8
PV
  6
Continuous
 62
     7
100
AcDbLine
 10
-12.507
 20
82.87799999999998
 30
0.0
 11
-12.366
 21
82.34999999999999
 31
0.0
  0
LINE
  5
113
330
A
100
AcDbEntity
  8
PV
  6
Continuous
 62
     7
100
AcDbLine
 10
-5.197
 20
82.34999999999999
 30
0.0
 11
-4.756
 21
84.84999999999999
 31
0.0
  0
LINE
  5
114
330
A
100
AcDbEntity
  8
PV
  6
Continuous
 62
     7
100
AcDbLine
 10
-5.197
 20
82.34999999999999
 30
0.0
 11
-3.823999999999999
 21
82.34999999999999
 31
0.0
  0
LINE
  5
115
330
A
100
AcDbEntity
  8
PV
  6
Continuous
 62
     7
100
AcDbLine
 10
-4.899
 20
82.59999999999999
 30
0.0
 11
-3.779999999999999
 21
82.59999999999999
 31
0.0
  0
LINE
  5
116
330
A
100
AcDbEntity
  8
PV
  6
Continuous
 62
     7
100
AcDbLine
 10
-4.899
 20
82.59999999999999
 30
0.0
 11
-4.501999999999999
 21
84.84999999999999
 31
0.0
  0
LINE
  5
117
330
A
100
AcDbEntity
  8
PV
  6
Continuous
 62
     7
100
AcDbLine
 10
-3.823999999999999
 20
82.34999999999999
 30
0.0
 11
-3.779999999999999
 21
82.59999999999999
 31
0.0
  0
LINE
  5
118
330
A
100
AcDbEntity
  8
PV
  6
Continuous
 62
     7
100
AcDbLine
 10
-4.756
 20
84.84999999999999
 30
0.0
 11
-4.501999999999999
 21
84.84999999999999
 31
0.0
  0
LINE
  5
119
330
A
100
AcDbEntity
  8
PV
  6
Continuous
 62
     7
100
AcDbLine
 10
1.588
 20
84.84999999999999
 30
0.0
 11
1.965
 21
82.70799999999999
 31
0.0
  0
LINE
  5
11A
330
A
100
AcDbEntity
  8
PV
  6
Continuous
 62
     7
100
AcDbLine
 10
1.965
 20
82.70799999999999
 30
0.0
 11
2.745
 21
84.84999999999999
 31
0.0
  0
LINE
  5
11B
330
A
100
AcDbEntity
  8
PV
  6
Continuous
 62
     7
100
AcDbLine
 10
1.334
 20
84.84999999999999
 30
0.0
 11
1.774999999999999
 21
82.34999999999999
 31
0.0
  0
LINE
  5
11C
330
A
100
AcDbEntity
  8
PV
  6
Continuous
 62
     7
100
AcDbLine
 10
2.100999999999999
 20
82.34999999999999
 30
0.0
 11
3.011
 21
84.84999999999999
 31
0.0
  0
LINE
  5
11D
330
A
100
AcDbEntity
  8
PV
  6
Continuous
 62
     7
100
AcDbLine
 10
1.334
 20
84.84999999999999
 30
0.0
 11
1.588
 21
84.84999999999999
 31
0.0
  0
LINE
  5
11E
330
A
100
AcDbEntity
  8
PV
  6
Continuous
 62
     7
100
AcDbLine
 10
1.774999999999999
 20
82.34999999999999
 30
0.0
 11
2.100999999999999
 21
82.34999999999999
 31
0.0
  0
LINE
  5
11F
330
A
100
AcDbEntity
  8
PV
  6
Continuous
 62
     7
100
AcDbLine
 10
2.745
 20
84.84999999999999
 30
0.0
 11
3.011
 21
84.84999999999999
 31
0.0
  0
LINE
  5
120
330
A
100
AcDbEntity
  8
PV
  6
Continuous
 62
     7
100
AcDbLine
 10
-2.831
 20
82.34999999999999
 30
0.0
 11
-2.39
 21
84.84999999999999
 31
0.0
  0
LINE
  5
121
330
A
100
AcDbEntity
  8
PV
  6
Continuous
 62
     7
100
AcDbLine
 10
-2.831
 20
82.34999999999999
 30
0.0
 11
-1.656999999999999
 21
82.34999999999999
 31
0.0
  0
LINE
  5
122
330
A
100
AcDbEntity
  8
PV
  6
Continuous
 62
     7
100
AcDbLine
 10
-2.532999999999999
 20
82.59999999999999
 30
0.0
 11
-1.613
 21
82.59999999999999
 31
0.0
  0
LINE
  5
123
330
A
100
AcDbEntity
  8
PV
  6
Continuous
 62
     7
100
AcDbLine
 10
-2.532999999999999
 20
82.59999999999999
 30
0.0
 11
-2.379
 21
83.475
 31
0.0
  0
LINE
  5
124
330
A
100
AcDbEntity
  8
PV
  6
Continuous
 62
     7
100
AcDbLine
 10
-2.39
 20
84.84999999999999
 30
0.0
 11
-1.215999999999999
 21
84.84999999999999
 31
0.0
  0
LINE
  5
125
330
A
100
AcDbEntity
  8
PV
  6
Continuous
 62
     7
100
AcDbLine
 10
-2.18
 20
84.59999999999999
 30
0.0
 11
-1.260999999999999
 21
84.59999999999999
 31
0.0
  0
LINE
  5
126
330
A
100
AcDbEntity
  8
PV
  6
Continuous
 62
     7
100
AcDbLine
 10
-2.334999999999999
 20
83.725
 30
0.0
 11
-1.415
 21
83.725
 31
0.0
  0
LINE
  5
127
330
A
100
AcDbEntity
  8
PV
  6
Continuous
 62
     7
100
AcDbLine
 10
-2.379
 20
83.475
 30
0.0
 11
-1.459
 21
83.475
 31
0.0
  0
LINE
  5
128
330
A
100
AcDbEntity
  8
PV
  6
Continuous
 62
     7
100
AcDbLine
 10
-2.334999999999999
 20
83.725
 30
0.0
 11
-2.18
 21
84.59999999999999
 31
0.0
  0
LINE
  5
129
330
A
100
AcDbEntity
  8
PV
  6
Continuous
 62
     7
100
AcDbLine
 10
-1.656999999999999
 20
82.34999999999999
 30
0.0
 11
-1.613
 21
82.59999999999999
 31
0.0
  0
LINE
  5
12A
330
A
100
AcDbEntity
  8
PV
  6
Continuous
 62
     7
100
AcDbLine
 10
-1.459
 20
83.475
 30
0.0
 11
-1.415
 21
83.725
 31
0.0
  0
LINE
  5
12B
330
A
100
AcDbEntity
  8
PV
  6
Continuous
 62
     7
100
AcDbLine
 10
-1.260999999999999
 20
84.59999999999999
 30
0.0
 11
-1.215999999999999
 21
84.84999999999999
 31
0.0
  0
LINE
  5
12C
330
A
100
AcDbEntity
  8
PV
  6
Continuous
 62
     7
100
AcDbLine
 10
12.694
 20
82.83599999999999
 30
0.0
 11
12.923
 21
82.978
 31
0.0
  0
LINE
  5
12D
330
A
100
AcDbEntity
  8
PV
  6
Continuous
 62
     7
100
AcDbLine
 10
14.3
 20
84.36300000000001
 30
0.0
 11
14.07099999999999
 21
84.221
 31
0.0
  0
LINE
  5
12E
330
A
100
AcDbEntity
  8
PV
  6
Continuous
 62
     7
100
AcDbLine
 10
13.307
 20
83.55999999999999
 30
0.0
 11
13.637
 21
83.37799999999999
 31
0.0
  0
LINE
  5
12F
330
A
100
AcDbEntity
  8
PV
  6
Continuous
 62
     7
100
AcDbLine
 10
13.73299999999999
 20
83.61399999999999
 30
0.0
 11
13.398
 21
83.795
 31
0.0
  0
LINE
  5
130
330
A
100
AcDbEntity
  8
PV
  6
Continuous
 62
     7
100
AcDbLine
 10
-14.26099999999999
 20
87.21099999999999
 30
0.0
 11
14.514
 21
87.21099999999999
 31
0.0
  0
LINE
  5
131
330
A
100
AcDbEntity
  8
PV
  6
Continuous
 62
   254
100
AcDbLine
 10
-4.528
 20
88.961
 30
0.0
 11
-4.229
 21
88.961
 31
0.0
  0
LINE
  5
132
330
A
100
AcDbEntity
  8
PV
  6
Continuous
 62
   254
100
AcDbLine
 10
-7.587
 20
89.40899999999999
 30
0.0
 11
-6.916
 21
89.40899999999999
 31
0.0
  0
LINE
  5
133
330
A
100
AcDbEntity
  8
PV
  6
Continuous
 62
   254
100
AcDbLine
 10
-11.095
 20
89.707
 30
0.0
 11
-10.79599999999999
 21
89.707
 31
0.0
  0
LINE
  5
134
330
A
100
AcDbEntity
  8
PV
  6
Continuous
 62
   254
100
AcDbLine
 10
-11.095
 20
88.215
 30
0.0
 11
-10.79599999999999
 21
88.215
 31
0.0
  0
LINE
  5
135
330
A
100
AcDbEntity
  8
PV
  6
Continuous
 62
   254
100
AcDbLine
 10
-11.095
 20
89.707
 30
0.0
 11
-11.095
 21
88.215
 31
0.0
  0
LINE
  5
136
330
A
100
AcDbEntity
  8
PV
  6
Continuous
 62
   254
100
AcDbLine
 10
-10.79599999999999
 20
89.707
 30
0.0
 11
-10.79599999999999
 21
88.215
 31
0.0
  0
LINE
  5
137
330
A
100
AcDbEntity
  8
PV
  6
Continuous
 62
   254
100
AcDbLine
 10
-10.498
 20
89.707
 30
0.0
 11
-10.498
 21
89.26
 31
0.0
  0
LINE
  5
138
330
A
100
AcDbEntity
  8
PV
  6
Continuous
 62
   254
100
AcDbLine
 10
-10.199
 20
89.40899999999999
 30
0.0
 11
-10.199
 21
89.26
 31
0.0
  0
LINE
  5
139
330
A
100
AcDbEntity
  8
PV
  6
Continuous
 62
   254
100
AcDbLine
 10
0.174
 20
89.707
 30
0.0
 11
0.174
 21
89.40899999999999
 31
0.0
  0
LINE
  5
13A
330
A
100
AcDbEntity
  8
PV
  6
Continuous
 62
   254
100
AcDbLine
 10
-10.199
 20
88.81200000000001
 30
0.0
 11
-9.788
 21
88.81200000000001
 31
0.0
  0
LINE
  5
13B
330
A
100
AcDbEntity
  8
PV
  6
Continuous
 62
   254
100
AcDbLine
 10
-9.452999999999999
 20
89.40899999999999
 30
0.0
 11
-10.199
 21
89.40899999999999
 31
0.0
  0
LINE
  5
13C
330
A
100
AcDbEntity
  8
PV
  6
Continuous
 62
   254
100
AcDbLine
 10
-9.452999999999999
 20
89.10999999999999
 30
0.0
 11
-10.199
 21
89.10999999999999
 31
0.0
  0
LINE
  5
13D
330
A
100
AcDbEntity
  8
PV
  6
Continuous
 62
   254
100
AcDbLine
 10
-10.498
 20
88.215
 30
0.0
 11
-10.199
 21
88.215
 31
0.0
  0
LINE
  5
13E
330
A
100
AcDbEntity
  8
PV
  6
Continuous
 62
   254
100
AcDbLine
 10
-10.498
 20
89.707
 30
0.0
 11
-9.452999999999999
 21
89.707
 31
0.0
  0
LINE
  5
13F
330
A
100
AcDbEntity
  8
PV
  6
Continuous
 62
   254
100
AcDbLine
 10
-10.199
 20
88.81200000000001
 30
0.0
 11
-10.199
 21
88.215
 31
0.0
  0
LINE
  5
140
330
A
100
AcDbEntity
  8
PV
  6
Continuous
 62
   254
100
AcDbLine
 10
-9.369999999999999
 20
88.215
 30
0.0
 11
-9.005
 21
88.215
 31
0.0
  0
LINE
  5
141
330
A
100
AcDbEntity
  8
PV
  6
Continuous
 62
   254
100
AcDbLine
 10
-8.781
 20
89.707
 30
0.0
 11
-8.482999999999998
 21
89.707
 31
0.0
  0
LINE
  5
142
330
A
100
AcDbEntity
  8
PV
  6
Continuous
 62
   254
100
AcDbLine
 10
-8.781
 20
88.215
 30
0.0
 11
-8.482999999999998
 21
88.215
 31
0.0
  0
LINE
  5
143
330
A
100
AcDbEntity
  8
PV
  6
Continuous
 62
   254
100
AcDbLine
 10
-8.781
 20
89.707
 30
0.0
 11
-8.781
 21
88.215
 31
0.0
  0
LINE
  5
144
330
A
100
AcDbEntity
  8
PV
  6
Continuous
 62
   254
100
AcDbLine
 10
-8.482999999999998
 20
89.707
 30
0.0
 11
-8.482999999999998
 21
88.215
 31
0.0
  0
LINE
  5
145
330
A
100
AcDbEntity
  8
PV
  6
Continuous
 62
   254
100
AcDbLine
 10
-0.4980000000000001
 20
89.707
 30
0.0
 11
0.174
 21
89.707
 31
0.0
  0
LINE
  5
146
330
A
100
AcDbEntity
  8
PV
  6
Continuous
 62
   254
100
AcDbLine
 10
-0.4980000000000001
 20
88.215
 30
0.0
 11
0.174
 21
88.215
 31
0.0
  0
LINE
  5
147
330
A
100
AcDbEntity
  8
PV
  6
Continuous
 62
   254
100
AcDbLine
 10
-2.737
 20
89.707
 30
0.0
 11
-2.438
 21
89.707
 31
0.0
  0
LINE
  5
148
330
A
100
AcDbEntity
  8
PV
  6
Continuous
 62
   254
100
AcDbLine
 10
-2.737
 20
88.215
 30
0.0
 11
-2.438
 21
88.215
 31
0.0
  0
LINE
  5
149
330
A
100
AcDbEntity
  8
PV
  6
Continuous
 62
   254
100
AcDbLine
 10
-0.9200000000000001
 20
88.81200000000001
 30
0.0
 11
0.174
 21
88.81200000000001
 31
0.0
  0
LINE
  5
14A
330
A
100
AcDbEntity
  8
PV
  6
Continuous
 62
   254
100
AcDbLine
 10
-0.9200000000000001
 20
89.10999999999999
 30
0.0
 11
0.174
 21
89.10999999999999
 31
0.0
  0
LINE
  5
14B
330
A
100
AcDbEntity
  8
PV
  6
Continuous
 62
   254
100
AcDbLine
 10
-0.4980000000000001
 20
88.513
 30
0.0
 11
0.174
 21
88.513
 31
0.0
  0
LINE
  5
14C
330
A
100
AcDbEntity
  8
PV
  6
Continuous
 62
   254
100
AcDbLine
 10
-0.4980000000000001
 20
89.40899999999999
 30
0.0
 11
0.174
 21
89.40899999999999
 31
0.0
  0
LINE
  5
14D
330
A
100
AcDbEntity
  8
PV
  6
Continuous
 62
   254
100
AcDbLine
 10
0.174
 20
89.10999999999999
 30
0.0
 11
0.174
 21
88.81200000000001
 31
0.0
  0
LINE
  5
14E
330
A
100
AcDbEntity
  8
PV
  6
Continuous
 62
   254
100
AcDbLine
 10
0.174
 20
88.513
 30
0.0
 11
0.174
 21
88.215
 31
0.0
  0
LINE
  5
14F
330
A
100
AcDbEntity
  8
PV
  6
Continuous
 62
   254
100
AcDbLine
 10
-2.737
 20
89.707
 30
0.0
 11
-2.737
 21
88.215
 31
0.0
  0
LINE
  5
150
330
A
100
AcDbEntity
  8
PV
  6
Continuous
 62
   254
100
AcDbLine
 10
-2.438
 20
89.707
 30
0.0
 11
-2.438
 21
89.183
 31
0.0
  0
LINE
  5
151
330
A
100
AcDbEntity
  8
PV
  6
Continuous
 62
   254
100
AcDbLine
 10
-9.005
 20
88.215
 30
0.0
 11
-9.423999999999999
 21
88.81299999999999
 31
0.0
  0
LINE
  5
152
330
A
100
AcDbEntity
  8
PV
  6
Continuous
 62
   254
100
AcDbLine
 10
-9.369999999999999
 20
88.215
 30
0.0
 11
-9.788
 21
88.81200000000001
 31
0.0
  0
LINE
  5
153
330
A
100
AcDbEntity
  8
PV
  6
Continuous
 62
   254
100
AcDbLine
 10
-1.169999999999999
 20
88.215
 30
0.0
 11
-1.783
 21
89.27799999999999
 31
0.0
  0
LINE
  5
154
330
A
100
AcDbEntity
  8
PV
  6
Continuous
 62
   254
100
AcDbLine
 10
-1.169999999999999
 20
89.707
 30
0.0
 11
-1.783
 21
89.27799999999999
 31
0.0
  0
LINE
  5
155
330
A
100
AcDbEntity
  8
PV
  6
Continuous
 62
   254
100
AcDbLine
 10
-1.689999999999999
 20
89.707
 30
0.0
 11
-2.438
 21
89.183
 31
0.0
  0
LINE
  5
156
330
A
100
AcDbEntity
  8
PV
  6
Continuous
 62
   254
100
AcDbLine
 10
-1.514
 20
88.215
 30
0.0
 11
-2.028999999999999
 21
89.106
 31
0.0
  0
LINE
  5
157
330
A
100
AcDbEntity
  8
PV
  6
Continuous
 62
   254
100
AcDbLine
 10
-2.028999999999999
 20
89.106
 30
0.0
 11
-2.438
 21
88.81899999999999
 31
0.0
  0
LINE
  5
158
330
A
100
AcDbEntity
  8
PV
  6
Continuous
 62
   254
100
AcDbLine
 10
-2.438
 20
88.81899999999999
 30
0.0
 11
-2.438
 21
88.215
 31
0.0
  0
LINE
  5
159
330
A
100
AcDbEntity
  8
PV
  6
Continuous
 62
   254
100
AcDbLine
 10
-1.689999999999999
 20
89.707
 30
0.0
 11
-1.169999999999999
 21
89.707
 31
0.0
  0
LINE
  5
15A
330
A
100
AcDbEntity
  8
PV
  6
Continuous
 62
   254
100
AcDbLine
 10
-1.514
 20
88.215
 30
0.0
 11
-1.169999999999999
 21
88.215
 31
0.0
  0
LINE
  5
15B
330
A
100
AcDbEntity
  8
PV
  6
Continuous
 62
   254
100
AcDbLine
 10
4.875
 20
88.215
 30
0.0
 11
5.024
 21
88.215
 31
0.0
  0
LINE
  5
15C
330
A
100
AcDbEntity
  8
PV
  6
Continuous
 62
   254
100
AcDbLine
 10
4.875
 20
89.707
 30
0.0
 11
5.024
 21
89.707
 31
0.0
  0
LINE
  5
15D
330
A
100
AcDbEntity
  8
PV
  6
Continuous
 62
   254
100
AcDbLine
 10
4.053999999999999
 20
88.21700000000001
 30
0.0
 11
4.053999999999999
 21
88.513
 31
0.0
  0
LINE
  5
15E
330
A
100
AcDbEntity
  8
PV
  6
Continuous
 62
   254
100
AcDbLine
 10
4.875
 20
88.513
 30
0.0
 11
5.024
 21
88.513
 31
0.0
  0
LINE
  5
15F
330
A
100
AcDbEntity
  8
PV
  6
Continuous
 62
   254
100
AcDbLine
 10
4.875
 20
89.40899999999999
 30
0.0
 11
5.024
 21
89.40899999999999
 31
0.0
  0
LINE
  5
160
330
A
100
AcDbEntity
  8
PV
  6
Continuous
 62
   254
100
AcDbLine
 10
-6.019999999999999
 20
89.707
 30
0.0
 11
-5.722
 21
89.707
 31
0.0
  0
LINE
  5
161
330
A
100
AcDbEntity
  8
PV
  6
Continuous
 62
   254
100
AcDbLine
 10
-6.019999999999999
 20
88.215
 30
0.0
 11
-5.722
 21
88.215
 31
0.0
  0
LINE
  5
162
330
A
100
AcDbEntity
  8
PV
  6
Continuous
 62
   254
100
AcDbLine
 10
-6.019999999999999
 20
89.707
 30
0.0
 11
-6.019999999999999
 21
88.215
 31
0.0
  0
LINE
  5
163
330
A
100
AcDbEntity
  8
PV
  6
Continuous
 62
   254
100
AcDbLine
 10
-5.722
 20
89.707
 30
0.0
 11
-5.722
 21
89.183
 31
0.0
  0
LINE
  5
164
330
A
100
AcDbEntity
  8
PV
  6
Continuous
 62
   254
100
AcDbLine
 10
-4.453
 20
88.215
 30
0.0
 11
-5.067
 21
89.27799999999999
 31
0.0
  0
LINE
  5
165
330
A
100
AcDbEntity
  8
PV
  6
Continuous
 62
   254
100
AcDbLine
 10
-4.453
 20
89.707
 30
0.0
 11
-5.067
 21
89.27799999999999
 31
0.0
  0
LINE
  5
166
330
A
100
AcDbEntity
  8
PV
  6
Continuous
 62
   254
100
AcDbLine
 10
-4.974
 20
89.707
 30
0.0
 11
-5.722
 21
89.183
 31
0.0
  0
LINE
  5
167
330
A
100
AcDbEntity
  8
PV
  6
Continuous
 62
   254
100
AcDbLine
 10
-4.798
 20
88.215
 30
0.0
 11
-5.312
 21
89.106
 31
0.0
  0
LINE
  5
168
330
A
100
AcDbEntity
  8
PV
  6
Continuous
 62
   254
100
AcDbLine
 10
-5.312
 20
89.106
 30
0.0
 11
-5.722
 21
88.81899999999999
 31
0.0
  0
LINE
  5
169
330
A
100
AcDbEntity
  8
PV
  6
Continuous
 62
   254
100
AcDbLine
 10
-5.722
 20
88.81899999999999
 30
0.0
 11
-5.722
 21
88.215
 31
0.0
  0
LINE
  5
16A
330
A
100
AcDbEntity
  8
PV
  6
Continuous
 62
   254
100
AcDbLine
 10
-4.974
 20
89.707
 30
0.0
 11
-4.453
 21
89.707
 31
0.0
  0
LINE
  5
16B
330
A
100
AcDbEntity
  8
PV
  6
Continuous
 62
   254
100
AcDbLine
 10
-4.798
 20
88.215
 30
0.0
 11
-4.453
 21
88.215
 31
0.0
  0
LINE
  5
16C
330
A
100
AcDbEntity
  8
PV
  6
Continuous
 62
   254
100
AcDbLine
 10
-6.916
 20
89.707
 30
0.0
 11
-6.916
 21
89.40899999999999
 31
0.0
  0
LINE
  5
16D
330
A
100
AcDbEntity
  8
PV
  6
Continuous
 62
   254
100
AcDbLine
 10
-7.587
 20
89.707
 30
0.0
 11
-6.916
 21
89.707
 31
0.0
  0
LINE
  5
16E
330
A
100
AcDbEntity
  8
PV
  6
Continuous
 62
   254
100
AcDbLine
 10
-7.587
 20
88.215
 30
0.0
 11
-6.916
 21
88.215
 31
0.0
  0
LINE
  5
16F
330
A
100
AcDbEntity
  8
PV
  6
Continuous
 62
   254
100
AcDbLine
 10
-8.009999999999999
 20
88.81200000000001
 30
0.0
 11
-6.916
 21
88.81200000000001
 31
0.0
  0
LINE
  5
170
330
A
100
AcDbEntity
  8
PV
  6
Continuous
 62
   254
100
AcDbLine
 10
-8.009999999999999
 20
89.10999999999999
 30
0.0
 11
-6.916
 21
89.10999999999999
 31
0.0
  0
LINE
  5
171
330
A
100
AcDbEntity
  8
PV
  6
Continuous
 62
   254
100
AcDbLine
 10
-7.587
 20
88.513
 30
0.0
 11
-6.916
 21
88.513
 31
0.0
  0
LINE
  5
172
330
A
100
AcDbEntity
  8
PV
  6
Continuous
 62
   254
100
AcDbLine
 10
-6.916
 20
89.10999999999999
 30
0.0
 11
-6.916
 21
88.81200000000001
 31
0.0
  0
LINE
  5
173
330
A
100
AcDbEntity
  8
PV
  6
Continuous
 62
   254
100
AcDbLine
 10
-6.916
 20
88.513
 30
0.0
 11
-6.916
 21
88.215
 31
0.0
  0
LINE
  5
174
330
A
100
AcDbEntity
  8
PV
  6
Continuous
 62
   254
100
AcDbLine
 10
3.308
 20
88.215
 30
0.0
 11
4.053999999999999
 21
88.215
 31
0.0
  0
LINE
  5
175
330
A
100
AcDbEntity
  8
PV
  6
Continuous
 62
   254
100
AcDbLine
 10
3.308
 20
89.707
 30
0.0
 11
4.053999999999999
 21
89.707
 31
0.0
  0
LINE
  5
176
330
A
100
AcDbEntity
  8
PV
  6
Continuous
 62
   254
100
AcDbLine
 10
3.308
 20
88.513
 30
0.0
 11
4.053999999999999
 21
88.513
 31
0.0
  0
LINE
  5
177
330
A
100
AcDbEntity
  8
PV
  6
Continuous
 62
   254
100
AcDbLine
 10
3.308
 20
89.40899999999999
 30
0.0
 11
4.053999999999999
 21
89.40899999999999
 31
0.0
  0
LINE
  5
178
330
A
100
AcDbEntity
  8
PV
  6
Continuous
 62
   254
100
AcDbLine
 10
4.053999999999999
 20
89.40899999999999
 30
0.0
 11
4.053999999999999
 21
89.707
 31
0.0
  0
LINE
  5
179
330
A
100
AcDbEntity
  8
PV
  6
Continuous
 62
   254
100
AcDbLine
 10
7.337999999999999
 20
88.215
 30
0.0
 11
8.083999999999999
 21
88.215
 31
0.0
  0
LINE
  5
17A
330
A
100
AcDbEntity
  8
PV
  6
Continuous
 62
   254
100
AcDbLine
 10
0.399
 20
88.215
 30
0.0
 11
0.6959999999999999
 21
88.215
 31
0.0
  0
LINE
  5
17B
330
A
100
AcDbEntity
  8
PV
  6
Continuous
 62
   254
100
AcDbLine
 10
1.068999999999999
 20
89.707
 30
0.0
 11
1.219
 21
89.707
 31
0.0
  0
LINE
  5
17C
330
A
100
AcDbEntity
  8
PV
  6
Continuous
 62
   254
100
AcDbLine
 10
0.398
 20
89.036
 30
0.0
 11
0.398
 21
88.215
 31
0.0
  0
LINE
  5
17D
330
A
100
AcDbEntity
  8
PV
  6
Continuous
 62
   254
100
AcDbLine
 10
1.889999999999999
 20
89.036
 30
0.0
 11
1.889999999999999
 21
88.215
 31
0.0
  0
LINE
  5
17E
330
A
100
AcDbEntity
  8
PV
  6
Continuous
 62
   254
100
AcDbLine
 10
1.068999999999999
 20
89.40899999999999
 30
0.0
 11
1.219
 21
89.40899999999999
 31
0.0
  0
LINE
  5
17F
330
A
100
AcDbEntity
  8
PV
  6
Continuous
 62
   254
100
AcDbLine
 10
0.6959999999999999
 20
89.036
 30
0.0
 11
0.6959999999999999
 21
88.215
 31
0.0
  0
LINE
  5
180
330
A
100
AcDbEntity
  8
PV
  6
Continuous
 62
   254
100
AcDbLine
 10
1.591999999999999
 20
89.036
 30
0.0
 11
1.591999999999999
 21
88.215
 31
0.0
  0
LINE
  5
181
330
A
100
AcDbEntity
  8
PV
  6
Continuous
 62
   254
100
AcDbLine
 10
1.591999999999999
 20
88.215
 30
0.0
 11
1.889999999999999
 21
88.215
 31
0.0
  0
LINE
  5
182
330
A
100
AcDbEntity
  8
PV
  6
Continuous
 62
   254
100
AcDbLine
 10
-3.781
 20
88.215
 30
0.0
 11
-3.631999999999999
 21
88.215
 31
0.0
  0
LINE
  5
183
330
A
100
AcDbEntity
  8
PV
  6
Continuous
 62
   254
100
AcDbLine
 10
-3.781
 20
89.707
 30
0.0
 11
-3.631999999999999
 21
89.707
 31
0.0
  0
LINE
  5
184
330
A
100
AcDbEntity
  8
PV
  6
Continuous
 62
   254
100
AcDbLine
 10
-3.781
 20
88.513
 30
0.0
 11
-3.631999999999999
 21
88.513
 31
0.0
  0
LINE
  5
185
330
A
100
AcDbEntity
  8
PV
  6
Continuous
 62
   254
100
AcDbLine
 10
-3.781
 20
89.40899999999999
 30
0.0
 11
-3.631999999999999
 21
89.40899999999999
 31
0.0
  0
LINE
  5
186
330
A
100
AcDbEntity
  8
PV
  6
Continuous
 62
   254
100
AcDbLine
 10
6.297
 20
87.99100000000001
 30
0.0
 11
6.54
 21
88.281
 31
0.0
  0
LINE
  5
187
330
A
100
AcDbEntity
  8
PV
  6
Continuous
 62
   254
100
AcDbLine
 10
6.182
 20
88.08699999999999
 30
0.0
 11
6.309
 21
88.237
 31
0.0
  0
LINE
  5
188
330
A
100
AcDbEntity
  8
PV
  6
Continuous
 62
   254
100
AcDbLine
 10
6.182
 20
88.08699999999999
 30
0.0
 11
6.297
 21
87.99100000000001
 31
0.0
  0
LINE
  5
189
330
A
100
AcDbEntity
  8
PV
  6
Continuous
 62
   254
100
AcDbLine
 10
6.741
 20
89.707
 30
0.0
 11
6.741
 21
88.81200000000001
 31
0.0
  0
LINE
  5
18A
330
A
100
AcDbEntity
  8
PV
  6
Continuous
 62
   254
100
AcDbLine
 10
8.083999999999999
 20
88.513
 30
0.0
 11
8.083999999999999
 21
88.215
 31
0.0
  0
LINE
  5
18B
330
A
100
AcDbEntity
  8
PV
  6
Continuous
 62
   254
100
AcDbLine
 10
7.038999999999999
 20
89.707
 30
0.0
 11
7.038999999999999
 21
88.81200000000001
 31
0.0
  0
LINE
  5
18C
330
A
100
AcDbEntity
  8
PV
  6
Continuous
 62
   254
100
AcDbLine
 10
7.337999999999999
 20
88.513
 30
0.0
 11
8.083999999999999
 21
88.513
 31
0.0
  0
LINE
  5
18D
330
A
100
AcDbEntity
  8
PV
  6
Continuous
 62
   254
100
AcDbLine
 10
9.576999999999999
 20
88.215
 30
0.0
 11
10.398
 21
88.215
 31
0.0
  0
LINE
  5
18E
330
A
100
AcDbEntity
  8
PV
  6
Continuous
 62
   254
100
AcDbLine
 10
6.741
 20
89.707
 30
0.0
 11
7.038999999999999
 21
89.707
 31
0.0
  0
LINE
  5
18F
330
A
100
AcDbEntity
  8
PV
  6
Continuous
 62
   254
100
AcDbLine
 10
7.934999999999999
 20
89.707
 30
0.0
 11
9.426999999999999
 21
89.707
 31
0.0
  0
LINE
  5
190
330
A
100
AcDbEntity
  8
PV
  6
Continuous
 62
   254
100
AcDbLine
 10
7.934999999999999
 20
89.707
 30
0.0
 11
7.934999999999999
 21
89.40899999999999
 31
0.0
  0
LINE
  5
191
330
A
100
AcDbEntity
  8
PV
  6
Continuous
 62
   254
100
AcDbLine
 10
9.426999999999999
 20
89.707
 30
0.0
 11
9.426999999999999
 21
89.40899999999999
 31
0.0
  0
LINE
  5
192
330
A
100
AcDbEntity
  8
PV
  6
Continuous
 62
   254
100
AcDbLine
 10
7.934999999999999
 20
89.40899999999999
 30
0.0
 11
8.532
 21
89.40899999999999
 31
0.0
  0
LINE
  5
193
330
A
100
AcDbEntity
  8
PV
  6
Continuous
 62
   254
100
AcDbLine
 10
8.83
 20
89.40899999999999
 30
0.0
 11
8.83
 21
88.215
 31
0.0
  0
LINE
  5
194
330
A
100
AcDbEntity
  8
PV
  6
Continuous
 62
   254
100
AcDbLine
 10
8.532
 20
89.40899999999999
 30
0.0
 11
8.532
 21
88.215
 31
0.0
  0
LINE
  5
195
330
A
100
AcDbEntity
  8
PV
  6
Continuous
 62
   254
100
AcDbLine
 10
9.875
 20
89.40899999999999
 30
0.0
 11
10.398
 21
89.40899999999999
 31
0.0
  0
LINE
  5
196
330
A
100
AcDbEntity
  8
PV
  6
Continuous
 62
   254
100
AcDbLine
 10
9.576999999999999
 20
89.707
 30
0.0
 11
10.398
 21
89.707
 31
0.0
  0
LINE
  5
197
330
A
100
AcDbEntity
  8
PV
  6
Continuous
 62
   254
100
AcDbLine
 10
8.83
 20
89.40899999999999
 30
0.0
 11
9.426999999999999
 21
89.40899999999999
 31
0.0
  0
LINE
  5
198
330
A
100
AcDbEntity
  8
PV
  6
Continuous
 62
   254
100
AcDbLine
 10
8.532
 20
88.215
 30
0.0
 11
8.83
 21
88.215
 31
0.0
  0
LINE
  5
199
330
A
100
AcDbEntity
  8
PV
  6
Continuous
 62
   254
100
AcDbLine
 10
9.576999999999999
 20
89.707
 30
0.0
 11
9.576999999999999
 21
88.961
 31
0.0
  0
LINE
  5
19A
330
A
100
AcDbEntity
  8
PV
  6
Continuous
 62
   254
100
AcDbLine
 10
9.875
 20
88.513
 30
0.0
 11
10.398
 21
88.513
 31
0.0
  0
LINE
  5
19B
330
A
100
AcDbEntity
  8
PV
  6
Continuous
 62
   254
100
AcDbLine
 10
9.875
 20
89.40899999999999
 30
0.0
 11
9.875
 21
88.961
 31
0.0
  0
LINE
  5
19C
330
A
100
AcDbEntity
  8
PV
  6
Continuous
 62
   254
100
AcDbLine
 10
-10.498
 20
89.26
 30
0.0
 11
-10.498
 21
88.215
 31
0.0
  0
LINE
  5
19D
330
A
100
AcDbEntity
  8
PV
  6
Continuous
 62
   254
100
AcDbLine
 10
-10.199
 20
89.26
 30
0.0
 11
-10.199
 21
89.10999999999999
 31
0.0
  0
LINE
  5
19E
330
A
100
AcDbEntity
  8
PV
  6
Continuous
 62
   254
100
AcDbLine
 10
-10.498
 20
89.26
 30
0.0
 11
-10.199
 21
89.26
 31
0.0
  0
LINE
  5
19F
330
A
100
AcDbEntity
  8
PV
  6
Continuous
 62
   254
100
AcDbLine
 10
-9.304
 20
89.26
 30
0.0
 11
-9.005
 21
89.26
 31
0.0
  0
LINE
  5
1A0
330
A
100
AcDbEntity
  8
PV
  6
Continuous
 62
   254
100
AcDbLine
 10
-3.183999999999999
 20
88.961
 30
0.0
 11
-2.886
 21
88.961
 31
0.0
  0
LINE
  5
1A1
330
A
100
AcDbEntity
  8
PV
  6
Continuous
 62
   254
100
AcDbLine
 10
4.128999999999999
 20
88.961
 30
0.0
 11
4.426999999999999
 21
88.961
 31
0.0
  0
LINE
  5
1A2
330
A
100
AcDbEntity
  8
PV
  6
Continuous
 62
   254
100
AcDbLine
 10
5.472
 20
88.961
 30
0.0
 11
5.770999999999999
 21
88.961
 31
0.0
  0
LINE
  5
1A3
330
A
100
AcDbEntity
  8
PV
  6
Continuous
 62
   254
100
AcDbLine
 10
9.576999999999999
 20
88.961
 30
0.0
 11
9.875
 21
88.961
 31
0.0
  0
LINE
  5
1A4
330
A
100
AcDbEntity
  8
PV
  6
Continuous
 62
   254
100
AcDbLine
 10
10.845
 20
88.961
 30
0.0
 11
11.144
 21
88.961
 31
0.0
  0
LINE
  5
1A5
330
A
100
AcDbEntity
  8
PV
  6
Continuous
 62
   254
100
AcDbLine
 10
9.576999999999999
 20
88.961
 30
0.0
 11
9.576999999999999
 21
88.215
 31
0.0
  0
LINE
  5
1A6
330
A
100
AcDbEntity
  8
PV
  6
Continuous
 62
   254
100
AcDbLine
 10
9.875
 20
88.961
 30
0.0
 11
9.875
 21
88.513
 31
0.0
  0
LINE
  5
1A7
330
A
100
AcDbEntity
  8
PV
  6
Continuous
 62
     7
100
AcDbLine
 10
-4.187999999999999
 20
93.72100000000001
 30
0.0
 11
-4.187999999999999
 21
91.721
 31
0.0
  0
LINE
  5
1A8
330
A
100
AcDbEntity
  8
PV
  6
Continuous
 62
     7
100
AcDbLine
 10
-4.187999999999999
 20
91.721
 30
0.0
 11
-2.688
 21
91.721
 31
0.0
  0
LINE
  5
1A9
330
A
100
AcDbEntity
  8
PV
  6
Continuous
 62
     7
100
AcDbLine
 10
-2.688
 20
93.72100000000001
 30
0.0
 11
-2.688
 21
91.721
 31
0.0
  0
LINE
  5
1AA
330
A
100
AcDbEntity
  8
PV
  6
Continuous
 62
     7
100
AcDbLine
 10
-2.302999999999999
 20
91.721
 30
0.0
 11
-0.9529999999999999
 21
91.721
 31
0.0
  0
LINE
  5
1AB
330
A
100
AcDbEntity
  8
PV
  6
Continuous
 62
     7
100
AcDbLine
 10
-2.302999999999999
 20
94.471
 30
0.0
 11
-0.9529999999999999
 21
94.471
 31
0.0
  0
LINE
  5
1AC
330
A
100
AcDbEntity
  8
PV
  6
Continuous
 62
     7
100
AcDbLine
 10
-2.302999999999999
 20
94.471
 30
0.0
 11
-2.302999999999999
 21
91.721
 31
0.0
  0
LINE
  5
1AD
330
A
100
AcDbEntity
  8
PV
  6
Continuous
 62
     7
100
AcDbLine
 10
-0.9529999999999999
 20
94.471
 30
0.0
 11
-0.9529999999999999
 21
91.721
 31
0.0
  0
LINE
  5
1AE
330
A
100
AcDbEntity
  8
PV
  6
Continuous
 62
     7
100
AcDbLine
 10
0.443
 20
94.49200000000001
 30
0.0
 11
0.443
 21
93.846
 31
0.0
  0
LINE
  5
1AF
330
A
100
AcDbEntity
  8
PV
  6
Continuous
 62
     7
100
AcDbLine
 10
3.995
 20
93.795
 30
0.0
 11
3.995
 21
92.39600000000001
 31
0.0
  0
LINE
  5
1B0
330
A
100
AcDbEntity
  8
PV
  6
Continuous
 62
     7
100
AcDbLine
 10
-4.187999999999999
 20
93.72100000000001
 30
0.0
 11
-2.688
 21
93.72100000000001
 31
0.0
  0
LINE
  5
1B1
330
A
100
AcDbEntity
  8
PV
  6
Continuous
 62
     7
100
AcDbLine
 10
0.443
 20
92.346
 30
0.0
 11
0.443
 21
91.699
 31
0.0
  0
LINE
  5
1B2
330
A
100
AcDbEntity
  8
PV
  6
Continuous
 62
     7
100
AcDbLine
 10
0.443
 20
93.846
 30
0.0
 11
0.443
 21
92.346
 31
0.0
  0
LINE
  5
1B3
330
A
100
AcDbEntity
  8
PV
  6
Continuous
 62
     7
100
AcDbLine
 10
9.742
 20
69.633
 30
0.0
 11
11.77999999999999
 21
70.882
 31
0.0
  0
LINE
  5
1B4
330
A
100
AcDbEntity
  8
PV
  6
Continuous
 62
     7
100
AcDbLine
 10
10.42
 20
68.916
 30
0.0
 11
11.77999999999999
 21
70.882
 31
0.0
  0
LINE
  5
1B5
330
A
100
AcDbEntity
  8
PV
  6
Continuous
 62
     7
100
AcDbLine
 10
-10.14399999999999
 20
68.958
 30
0.0
 11
-11.469
 21
70.947
 31
0.0
  0
LINE
  5
1B6
330
A
100
AcDbEntity
  8
PV
  6
Continuous
 62
     7
100
AcDbLine
 10
-9.454
 20
69.663
 30
0.0
 11
-11.469
 21
70.947
 31
0.0
  0
ARC
  5
1B7
330
A
100
AcDbEntity
  8
PV
  6
Continuous
 62
     7
100
AcDbCircle
 10
13.372
 20
83.01399999999999
 30
0.0
 40
0.7
100
AcDbArc
 50
194.702455
 51
58.91297
  0
ARC
  5
1B8
330
A
100
AcDbEntity
  8
PV
  6
Continuous
 62
     7
100
AcDbCircle
 10
13.372
 20
83.01399999999999
 30
0.0
 40
0.45
100
AcDbArc
 50
184.58491
 51
53.886818
  0
ARC
  5
1B9
330
A
100
AcDbEntity
  8
PV
  6
Continuous
 62
     7
100
AcDbCircle
 10
13.623
 20
84.18499999999999
 30
0.0
 40
0.7
100
AcDbArc
 50
14.70246199999999
 51
243.207545
  0
ARC
  5
1BA
330
A
100
AcDbEntity
  8
PV
  6
Continuous
 62
     7
100
AcDbCircle
 10
13.623
 20
84.18499999999999
 30
0.0
 40
0.45
100
AcDbArc
 50
4.584908
 51
240.0678709999999
  0
ARC
  5
1BB
330
A
100
AcDbEntity
  8
PV
  6
Continuous
 62
   254
100
AcDbCircle
 10
5.024
 20
88.961
 30
0.0
 40
0.746
100
AcDbArc
 50
359.999996
 51
89.999975
  0
ARC
  5
1BC
330
A
100
AcDbEntity
  8
PV
  6
Continuous
 62
   254
100
AcDbCircle
 10
-9.452999999999999
 20
89.26
 30
0.0
 40
0.448
100
AcDbArc
 50
273.7218359999999
 51
359.999996
  0
ARC
  5
1BD
330
A
100
AcDbEntity
  8
PV
  6
Continuous
 62
   254
100
AcDbCircle
 10
-9.452999999999999
 20
89.26
 30
0.0
 40
0.149
100
AcDbArc
 50
270.0000109999999
 51
359.999996
  0
ARC
  5
1BE
330
A
100
AcDbEntity
  8
PV
  6
Continuous
 62
   254
100
AcDbCircle
 10
-0.4980000000000001
 20
88.961
 30
0.0
 40
0.746
100
AcDbArc
 50
89.999975
 51
270.000001
  0
ARC
  5
1BF
330
A
100
AcDbEntity
  8
PV
  6
Continuous
 62
   254
100
AcDbCircle
 10
-0.4980000000000001
 20
88.961
 30
0.0
 40
0.448
100
AcDbArc
 50
89.999975
 51
160.528775
  0
ARC
  5
1C0
330
A
100
AcDbEntity
  8
PV
  6
Continuous
 62
   254
100
AcDbCircle
 10
-0.4980000000000001
 20
88.961
 30
0.0
 40
0.448
100
AcDbArc
 50
199.471211
 51
270.0000109999999
  0
ARC
  5
1C1
330
A
100
AcDbEntity
  8
PV
  6
Continuous
 62
   254
100
AcDbCircle
 10
4.875
 20
88.961
 30
0.0
 40
0.746
100
AcDbArc
 50
89.999975
 51
179.99995
  0
ARC
  5
1C2
330
A
100
AcDbEntity
  8
PV
  6
Continuous
 62
   254
100
AcDbCircle
 10
5.024
 20
88.961
 30
0.0
 40
0.746
100
AcDbArc
 50
270.0000109999999
 51
359.999996
  0
ARC
  5
1C3
330
A
100
AcDbEntity
  8
PV
  6
Continuous
 62
   254
100
AcDbCircle
 10
4.875
 20
88.961
 30
0.0
 40
0.448
100
AcDbArc
 50
89.999975
 51
179.99995
  0
ARC
  5
1C4
330
A
100
AcDbEntity
  8
PV
  6
Continuous
 62
   254
100
AcDbCircle
 10
5.024
 20
88.961
 30
0.0
 40
0.448
100
AcDbArc
 50
270.0000109999999
 51
359.999996
  0
ARC
  5
1C5
330
A
100
AcDbEntity
  8
PV
  6
Continuous
 62
   254
100
AcDbCircle
 10
-7.587
 20
88.961
 30
0.0
 40
0.746
100
AcDbArc
 50
89.999975
 51
270.000001
  0
ARC
  5
1C6
330
A
100
AcDbEntity
  8
PV
  6
Continuous
 62
   254
100
AcDbCircle
 10
-7.587
 20
88.961
 30
0.0
 40
0.448
100
AcDbArc
 50
89.999975
 51
160.528775
  0
ARC
  5
1C7
330
A
100
AcDbEntity
  8
PV
  6
Continuous
 62
   254
100
AcDbCircle
 10
-7.587
 20
88.961
 30
0.0
 40
0.448
100
AcDbArc
 50
199.471211
 51
270.0000109999999
  0
ARC
  5
1C8
330
A
100
AcDbEntity
  8
PV
  6
Continuous
 62
   254
100
AcDbCircle
 10
1.068999999999999
 20
89.036
 30
0.0
 40
0.6720000000000001
100
AcDbArc
 50
89.999975
 51
179.99995
  0
ARC
  5
1C9
330
A
100
AcDbEntity
  8
PV
  6
Continuous
 62
   254
100
AcDbCircle
 10
1.219
 20
89.036
 30
0.0
 40
0.6720000000000001
100
AcDbArc
 50
359.999996
 51
89.999975
  0
ARC
  5
1CA
330
A
100
AcDbEntity
  8
PV
  6
Continuous
 62
   254
100
AcDbCircle
 10
1.068999999999999
 20
89.036
 30
0.0
 40
0.373
100
AcDbArc
 50
89.999975
 51
179.99995
  0
ARC
  5
1CB
330
A
100
AcDbEntity
  8
PV
  6
Continuous
 62
   254
100
AcDbCircle
 10
1.219
 20
89.036
 30
0.0
 40
0.373
100
AcDbArc
 50
359.999996
 51
89.999975
  0
ARC
  5
1CC
330
A
100
AcDbEntity
  8
PV
  6
Continuous
 62
   254
100
AcDbCircle
 10
-3.781
 20
88.961
 30
0.0
 40
0.746
100
AcDbArc
 50
89.999975
 51
179.99995
  0
ARC
  5
1CD
330
A
100
AcDbEntity
  8
PV
  6
Continuous
 62
   254
100
AcDbCircle
 10
-3.631999999999999
 20
88.961
 30
0.0
 40
0.746
100
AcDbArc
 50
270.0000109999999
 51
359.999996
  0
ARC
  5
1CE
330
A
100
AcDbEntity
  8
PV
  6
Continuous
 62
   254
100
AcDbCircle
 10
-3.781
 20
88.961
 30
0.0
 40
0.448
100
AcDbArc
 50
89.999975
 51
179.99995
  0
ARC
  5
1CF
330
A
100
AcDbEntity
  8
PV
  6
Continuous
 62
   254
100
AcDbCircle
 10
-3.631999999999999
 20
88.961
 30
0.0
 40
0.448
100
AcDbArc
 50
270.0000109999999
 51
359.999996
  0
ARC
  5
1D0
330
A
100
AcDbEntity
  8
PV
  6
Continuous
 62
   254
100
AcDbCircle
 10
6.397999999999999
 20
88.40100000000001
 30
0.0
 40
0.187
100
AcDbArc
 50
319.9999189999999
 51
241.536827
  0
CIRCLE
  5
1D1
330
A
100
AcDbEntity
  8
PV
  6
Continuous
 62
   254
100
AcDbCircle
 10
5.919999999999999
 20
88.40100000000001
 30
0.0
 40
0.187
  0
ARC
  5
1D2
330
A
100
AcDbEntity
  8
PV
  6
Continuous
 62
   254
100
AcDbCircle
 10
7.337999999999999
 20
88.81200000000001
 30
0.0
 40
0.597
100
AcDbArc
 50
179.999978
 51
270.000001
  0
ARC
  5
1D3
330
A
100
AcDbEntity
  8
PV
  6
Continuous
 62
   254
100
AcDbCircle
 10
7.337999999999999
 20
88.81200000000001
 30
0.0
 40
0.299
100
AcDbArc
 50
179.999978
 51
270.000001
  0
ARC
  5
1D4
330
A
100
AcDbEntity
  8
PV
  6
Continuous
 62
   254
100
AcDbCircle
 10
10.398
 20
88.961
 30
0.0
 40
0.746
100
AcDbArc
 50
270.0000109999999
 51
359.999996
  0
ARC
  5
1D5
330
A
100
AcDbEntity
  8
PV
  6
Continuous
 62
   254
100
AcDbCircle
 10
10.398
 20
88.961
 30
0.0
 40
0.448
100
AcDbArc
 50
270.0000109999999
 51
359.999996
  0
ARC
  5
1D6
330
A
100
AcDbEntity
  8
PV
  6
Continuous
 62
   254
100
AcDbCircle
 10
3.308
 20
88.961
 30
0.0
 40
0.746
100
AcDbArc
 50
89.999975
 51
270.000001
  0
ARC
  5
1D7
330
A
100
AcDbEntity
  8
PV
  6
Continuous
 62
   254
100
AcDbCircle
 10
3.308
 20
88.961
 30
0.0
 40
0.448
100
AcDbArc
 50
89.999975
 51
270.000001
  0
ARC
  5
1D8
330
A
100
AcDbEntity
  8
PV
  6
Continuous
 62
   254
100
AcDbCircle
 10
-9.452999999999999
 20
89.26
 30
0.0
 40
0.149
100
AcDbArc
 50
359.999996
 51
89.999975
  0
ARC
  5
1D9
330
A
100
AcDbEntity
  8
PV
  6
Continuous
 62
   254
100
AcDbCircle
 10
-9.452999999999999
 20
89.26
 30
0.0
 40
0.448
100
AcDbArc
 50
359.999996
 51
89.999975
  0
ARC
  5
1DA
330
A
100
AcDbEntity
  8
PV
  6
Continuous
 62
   254
100
AcDbCircle
 10
-3.631999999999999
 20
88.961
 30
0.0
 40
0.746
100
AcDbArc
 50
359.999996
 51
89.999975
  0
ARC
  5
1DB
330
A
100
AcDbEntity
  8
PV
  6
Continuous
 62
   254
100
AcDbCircle
 10
-3.631999999999999
 20
88.961
 30
0.0
 40
0.448
100
AcDbArc
 50
359.999996
 51
89.999975
  0
ARC
  5
1DC
330
A
100
AcDbEntity
  8
PV
  6
Continuous
 62
   254
100
AcDbCircle
 10
-3.781
 20
88.961
 30
0.0
 40
0.448
100
AcDbArc
 50
179.999978
 51
270.000001
  0
ARC
  5
1DD
330
A
100
AcDbEntity
  8
PV
  6
Continuous
 62
   254
100
AcDbCircle
 10
-3.781
 20
88.961
 30
0.0
 40
0.746
100
AcDbArc
 50
179.999978
 51
270.000001
  0
ARC
  5
1DE
330
A
100
AcDbEntity
  8
PV
  6
Continuous
 62
   254
100
AcDbCircle
 10
4.875
 20
88.961
 30
0.0
 40
0.746
100
AcDbArc
 50
179.999978
 51
270.000001
  0
ARC
  5
1DF
330
A
100
AcDbEntity
  8
PV
  6
Continuous
 62
   254
100
AcDbCircle
 10
4.875
 20
88.961
 30
0.0
 40
0.448
100
AcDbArc
 50
179.999978
 51
270.000001
  0
ARC
  5
1E0
330
A
100
AcDbEntity
  8
PV
  6
Continuous
 62
   254
100
AcDbCircle
 10
5.024
 20
88.961
 30
0.0
 40
0.448
100
AcDbArc
 50
359.999996
 51
89.999975
  0
ARC
  5
1E1
330
A
100
AcDbEntity
  8
PV
  6
Continuous
 62
   254
100
AcDbCircle
 10
10.398
 20
88.961
 30
0.0
 40
0.448
100
AcDbArc
 50
359.999996
 51
90.00003000000001
  0
ARC
  5
1E2
330
A
100
AcDbEntity
  8
PV
  6
Continuous
 62
   254
100
AcDbCircle
 10
10.398
 20
88.961
 30
0.0
 40
0.746
100
AcDbArc
 50
359.999996
 51
90.00003000000001
  0
ARC
  5
1E3
330
A
100
AcDbEntity
  8
PV
  6
Continuous
 62
     7
100
AcDbCircle
 10
-3.438
 20
93.72100000000001
 30
0.0
 40
0.75
100
AcDbArc
 50
0.0
 51
180.000005
  0
ARC
  5
1E4
330
A
100
AcDbEntity
  8
PV
  6
Continuous
 62
     7
100
AcDbCircle
 10
-3.438
 20
93.72100000000001
 30
0.0
 40
0.75
100
AcDbArc
 50
179.9999909999999
 51
0.00001
  0
ARC
  5
1E5
330
A
100
AcDbEntity
  8
PV
  6
Continuous
 62
     7
100
AcDbCircle
 10
0.443
 20
93.09600000000001
 30
0.0
 40
1.395999999999999
100
AcDbArc
 50
90.00000300000001
 51
270.000001
  0
ARC
  5
1E6
330
A
100
AcDbEntity
  8
PV
  6
Continuous
 62
     7
100
AcDbCircle
 10
0.443
 20
93.09600000000001
 30
0.0
 40
0.75
100
AcDbArc
 50
90.00000300000001
 51
270.000001
  0
ARC
  5
1E7
330
A
100
AcDbEntity
  8
PV
  6
Continuous
 62
     7
100
AcDbCircle
 10
0.443
 20
93.09600000000001
 30
0.0
 40
0.75
100
AcDbArc
 50
269.9999969999999
 51
90.00000300000001
  0
ARC
  5
1E8
330
A
100
AcDbEntity
  8
PV
  6
Continuous
 62
     7
100
AcDbCircle
 10
2.771999999999999
 20
93.09600000000001
 30
0.0
 40
1.375
100
AcDbArc
 50
30.587561
 51
329.4124279999999
  0
ARC
  5
1E9
330
A
100
AcDbEntity
  8
PV
  6
Continuous
 62
     7
100
AcDbCircle
 10
3.976999999999999
 20
93.09600000000001
 30
0.0
 40
0.7
100
AcDbArc
 50
91.745976
 51
268.254013
  0
ARC
  5
1EA
330
A
100
AcDbEntity
  8
PV
  6
Continuous
 62
     7
100
AcDbCircle
 10
4.012999999999999
 20
93.09600000000001
 30
0.0
 40
0.7
100
AcDbArc
 50
265.3970849999999
 51
94.602915
  0
CIRCLE
  5
1EB
330
A
100
AcDbEntity
  8
PV
  6
Continuous
 62
     7
100
AcDbCircle
 10
0.127
 20
80.211
 30
0.0
 40
16.0
  0
ARC
  5
1EC
330
A
100
AcDbEntity
  8
PV
  6
Continuous
 62
     7
100
AcDbCircle
 10
0.973
 20
82.895
 30
0.0
 40
17.25
100
AcDbArc
 50
223.8397689999999
 51
235.057317
  0
ARC
  5
1ED
330
A
100
AcDbEntity
  8
PV
  6
Continuous
 62
     7
100
AcDbCircle
 10
-0.4520000000000001
 20
83.045
 30
0.0
 40
17.25
100
AcDbArc
 50
302.66744
 51
315.160235
  0
LWPOLYLINE
  5
1EE
330
A
100
AcDbEntity
  8
PV
  6
Continuous
 62
     7
100
AcDbPolyline
 90
      137
 70
     0
 43
0.0
 10
-5.977999999999999
 20
84.07799999999999
 10
-5.985
 20
84.1
 10
-6.003999999999999
 20
84.14900000000001
 10
-6.024
 20
84.197
 10
-6.046
 20
84.245
 10
-6.07
 20
84.29
 10
-6.096
 20
84.335
 10
-6.123999999999999
 20
84.37799999999999
 10
-6.152999999999999
 20
84.42
 10
-6.184
 20
84.45999999999999
 10
-6.216
 20
84.49799999999999
 10
-6.251
 20
84.535
 10
-6.286
 20
84.56999999999998
 10
-6.322999999999999
 20
84.603
 10
-6.361
 20
84.63500000000001
 10
-6.400999999999999
 20
84.664
 10
-6.440999999999999
 20
84.691
 10
-6.482999999999999
 20
84.716
 10
-6.525999999999999
 20
84.73899999999998
 10
-6.568999999999999
 20
84.76
 10
-6.613999999999999
 20
84.77899999999999
 10
-6.658999999999999
 20
84.79499999999999
 10
-6.705
 20
84.809
 10
-6.752
 20
84.821
 10
-6.798999999999999
 20
84.831
 10
-6.846
 20
84.838
 10
-6.894
 20
84.84299999999999
 10
-6.942
 20
84.845
 10
-6.99
 20
84.845
 10
-7.037999999999999
 20
84.84299999999999
 10
-7.086
 20
84.838
 10
-7.133999999999999
 20
84.831
 10
-7.182
 20
84.822
 10
-7.23
 20
84.80999999999999
 10
-7.277
 20
84.79600000000001
 10
-7.322999999999999
 20
84.77999999999999
 10
-7.368999999999999
 20
84.761
 10
-7.415
 20
84.74
 10
-7.458999999999999
 20
84.71799999999999
 10
-7.502999999999999
 20
84.692
 10
-7.546
 20
84.66500000000001
 10
-7.587
 20
84.63600000000001
 10
-7.627999999999999
 20
84.60500000000001
 10
-7.667999999999999
 20
84.572
 10
-7.706
 20
84.53700000000001
 10
-7.742999999999999
 20
84.50000000000001
 10
-7.778999999999999
 20
84.46200000000001
 10
-7.812999999999999
 20
84.42200000000001
 10
-7.844999999999999
 20
84.38
 10
-7.876
 20
84.33699999999999
 10
-7.906
 20
84.29299999999999
 10
-7.932999999999999
 20
84.24700000000001
 10
-7.958999999999999
 20
84.19999999999999
 10
-7.983999999999999
 20
84.152
 10
-8.006
 20
84.10299999999999
 10
-8.025999999999999
 20
84.052
 10
-8.044999999999999
 20
84.001
 10
-8.060999999999999
 20
83.95000000000001
 10
-8.076
 20
83.89700000000001
 10
-8.087999999999999
 20
83.84399999999999
 10
-8.099
 20
83.79099999999999
 10
-8.107000000000001
 20
83.73700000000001
 10
-8.113999999999998
 20
83.68299999999999
 10
-8.118
 20
83.62799999999998
 10
-8.119999999999999
 20
83.574
 10
-8.119999999999999
 20
83.52
 10
-8.118
 20
83.465
 10
-8.113999999999998
 20
83.412
 10
-8.107999999999998
 20
83.35799999999998
 10
-8.099999999999999
 20
83.305
 10
-8.089
 20
83.252
 10
-8.076999999999999
 20
83.20100000000001
 10
-8.062000000000001
 20
83.14899999999999
 10
-8.045999999999999
 20
83.09899999999998
 10
-8.027999999999998
 20
83.04999999999999
 10
-8.006999999999999
 20
83.00200000000002
 10
-7.985
 20
82.955
 10
-7.961
 20
82.90899999999998
 10
-7.934999999999999
 20
82.86399999999998
 10
-7.907999999999999
 20
82.82099999999999
 10
-7.877999999999999
 20
82.779
 10
-7.847
 20
82.73899999999999
 10
-7.815
 20
82.70100000000001
 10
-7.781
 20
82.664
 10
-7.745
 20
82.629
 10
-7.707999999999999
 20
82.596
 10
-7.669999999999999
 20
82.565
 10
-7.631
 20
82.535
 10
-7.589999999999999
 20
82.50799999999999
 10
-7.547999999999999
 20
82.48299999999998
 10
-7.506
 20
82.46
 10
-7.462
 20
82.439
 10
-7.417999999999999
 20
82.42
 10
-7.372
 20
82.40399999999999
 10
-7.326
 20
82.39
 10
-7.28
 20
82.37799999999998
 10
-7.232999999999999
 20
82.369
 10
-7.184999999999999
 20
82.361
 10
-7.137
 20
82.35700000000001
 10
-7.088999999999999
 20
82.354
 10
-7.041
 20
82.354
 10
-6.992999999999999
 20
82.35600000000001
 10
-6.945
 20
82.361
 10
-6.897
 20
82.368
 10
-6.849
 20
82.37700000000002
 10
-6.802
 20
82.38899999999999
 10
-6.754999999999999
 20
82.40299999999999
 10
-6.707999999999999
 20
82.41899999999999
 10
-6.662
 20
82.43799999999998
 10
-6.617
 20
82.459
 10
-6.572
 20
82.48200000000002
 10
-6.527999999999999
 20
82.507
 10
-6.486
 20
82.53399999999999
 10
-6.443999999999999
 20
82.56299999999999
 10
-6.402999999999999
 20
82.59399999999999
 10
-6.363999999999999
 20
82.627
 10
-6.325
 20
82.66200000000001
 10
-6.287999999999999
 20
82.69899999999999
 10
-6.252999999999999
 20
82.73700000000001
 10
-6.218999999999999
 20
82.77700000000001
 10
-6.185999999999999
 20
82.819
 10
-6.155
 20
82.862
 10
-6.126
 20
82.90600000000001
 10
-6.097999999999999
 20
82.95200000000001
 10
-6.072
 20
82.99899999999999
 10
-6.047999999999999
 20
83.04700000000002
 10
-6.025
 20
83.09600000000001
 10
-6.004999999999999
 20
83.147
 10
-5.987
 20
83.19799999999998
 10
-5.969999999999999
 20
83.24899999999999
 10
-5.955
 20
83.30200000000001
 10
-5.942999999999999
 20
83.35500000000001
 10
-5.932
 20
83.40899999999999
 10
-5.923999999999999
 20
83.46200000000001
 10
-5.917999999999999
 20
83.51700000000001
 10
-5.912999999999999
 20
83.571
 10
-5.912
 20
83.59999999999999
  0
MTEXT
  5
1EF
330
A
100
AcDbEntity
  8
PV
  6
Continuous
 62
     7
100
AcDbMText
 10
0.233
 20
72.5
 30
0.0
 40
1.5
 41
0.0
 71
     2
 72
     1
  1
\W0.930;\A1;METAL BELLOWS
 73
     1
 44
1.0
  0
MTEXT
  5
1F0
330
A
100
AcDbEntity
  8
PV
  6
Continuous
 62
     7
100
AcDbMText
 10
0.275
 20
76.688
 30
0.0
 40
1.5
 41
0.0
 71
     2
 72
     1
  1
\W0.925;\A1;HIGH VACUUM VALVES
 73
     1
 44
1.0
  0
MTEXT
  5
1F1
330
A
100
AcDbEntity
  8
PV
  6
Continuous
 62
     7
100
AcDbMText
 10
2.979065999999999
 20
66.905611
 30
0.0
 40
1.5
 41
0.0
 71
     2
 72
     1
  1
\W1.048;\A1;O
 11
0.9781475551151174
 21
0.207911905436697
 31
0.0
 73
     1
 44
1.0
  0
MTEXT
  5
1F2
330
A
100
AcDbEntity
  8
PV
  6
Continuous
 62
     7
100
AcDbMText
 10
4.371720999999999
 20
67.26622900000001
 30
0.0
 40
1.5
 41
0.0
 71
     2
 72
     1
  1
\A1;P
 11
0.9563046942651347
 21
0.2923719065274008
 31
0.0
 73
     1
 44
1.0
  0
MTEXT
  5
1F3
330
A
100
AcDbEntity
  8
PV
  6
Continuous
 62
     7
100
AcDbMText
 10
5.729044999999999
 20
67.74638799999999
 30
0.0
 40
1.5
 41
0.0
 71
     2
 72
     1
  1
\W0.905;\A1;E
 11
0.9271837337569111
 21
0.3746068924307098
 31
0.0
 73
     1
 44
1.0
  0
MTEXT
  5
1F4
330
A
100
AcDbEntity
  8
PV
  6
Continuous
 62
     7
100
AcDbMText
 10
-7.770560999999999
 20
68.90203599999999
 30
0.0
 40
1.5
 41
0.0
 71
     2
 72
     1
  1
\A1;C
 11
0.8480481878999377
 21
-0.5299191174128671
 31
0.0
 73
     1
 44
1.0
  0
MTEXT
  5
1F5
330
A
100
AcDbEntity
  8
PV
  6
Continuous
 62
     7
100
AcDbMText
 10
-6.518507999999999
 20
68.19325500000001
 30
0.0
 40
1.5
 41
0.0
 71
     2
 72
     1
  1
\W0.810;\A1;L
 11
0.8910068244052929
 21
-0.4539899105301742
 31
0.0
 73
     1
 44
1.0
  0
MTEXT
  5
1F6
330
A
100
AcDbEntity
  8
PV
  6
Continuous
 62
     7
100
AcDbMText
 10
-5.208044999999999
 20
67.59638800000001
 30
0.0
 40
1.5
 41
0.0
 71
     2
 72
     1
  1
\W1.048;\A1;O
 11
0.9271837337569111
 21
-0.3746068924307098
 31
0.0
 73
     1
 44
1.0
  0
MTEXT
  5
1F7
330
A
100
AcDbEntity
  8
PV
  6
Continuous
 62
     7
100
AcDbMText
 10
-3.851720999999999
 20
67.116229
 30
0.0
 40
1.5
 41
0.0
 71
     2
 72
     1
  1
\W0.952;\A1;S
 11
0.9563046942651347
 21
-0.2923719065274008
 31
0.0
 73
     1
 44
1.0
  0
MTEXT
  5
1F8
330
A
100
AcDbEntity
  8
PV
  6
Continuous
 62
     7
100
AcDbMText
 10
-2.458066
 20
66.755611
 30
0.0
 40
1.5
 41
0.0
 71
     2
 72
     1
  1
\W0.905;\A1;E
 11
0.9781475551151174
 21
-0.207911905436697
 31
0.0
 73
     1
 44
1.0
  0
MTEXT
  5
1F9
330
A
100
AcDbEntity
  8
PV
  6
Continuous
 62
     7
100
AcDbMText
 10
7.038508
 20
68.343255
 30
0.0
 40
1.5
 41
0.0
 71
     2
 72
     1
  1
\W1.048;\A1;N
 11
0.8910068244052929
 21
0.4539899105301742
 31
0.0
 73
     1
 44
1.0
  0
SOLID
  5
1FA
330
A
100
AcDbEntity
  8
PV
  6
Continuous
 62
     7
100
AcDbTrace
 10
-11.095
 20
88.215
 30
0.0
 11
-10.79599999999999
 21
88.215
 31
0.0
 12
-11.095
 22
89.707
 32
0.0
 13
-10.79599999999999
 23
89.707
 33
0.0
  0
SOLID
  5
1FB
330
A
100
AcDbEntity
  8
PV
  6
Continuous
 62
     7
100
AcDbTrace
 10
-8.781
 20
88.215
 30
0.0
 11
-8.482999999999998
 21
88.215
 31
0.0
 12
-8.781
 22
89.707
 32
0.0
 13
-8.482999999999998
 23
89.707
 33
0.0
  0
SOLID
  5
1FC
330
A
100
AcDbEntity
  8
PV
  6
Continuous
 62
     7
100
AcDbTrace
 10
-2.302999999999999
 20
91.721
 30
0.0
 11
-0.9529999999999999
 21
91.721
 31
0.0
 12
-2.302999999999999
 22
94.471
 32
0.0
 13
-0.9529999999999999
 23
94.471
 33
0.0
  0
LINE
  5
1FD
330
A
100
AcDbEntity
  8
PV
  6
Continuous
 62
     7
100
AcDbLine
 10
-4.873
 20
60.211
 30
0.0
 11
-4.873
 21
59.301
 31
0.0
  0
LINE
  5
1FE
330
A
100
AcDbEntity
  8
PV
  6
Continuous
 62
     7
100
AcDbLine
 10
-4.373
 20
60.71100000000001
 30
0.0
 11
4.626999999999999
 21
60.71100000000001
 31
0.0
  0
LINE
  5
1FF
330
A
100
AcDbEntity
  8
PV
  6
Continuous
 62
     7
100
AcDbLine
 10
5.127
 20
60.211
 30
0.0
 11
5.127
 21
59.301
 31
0.0
  0
LINE
  5
200
330
A
100
AcDbEntity
  8
PV
  6
Continuous
 62
     7
100
AcDbLine
 10
5.127
 20
100.211
 30
0.0
 11
5.127
 21
101.122
 31
0.0
  0
LINE
  5
201
330
A
100
AcDbEntity
  8
PV
  6
Continuous
 62
     7
100
AcDbLine
 10
4.626999999999999
 20
99.71099999999999
 30
0.0
 11
-4.373
 21
99.71099999999999
 31
0.0
  0
LINE
  5
202
330
A
100
AcDbEntity
  8
PV
  6
Continuous
 62
     7
100
AcDbLine
 10
-4.873
 20
100.211
 30
0.0
 11
-4.873
 21
101.122
 31
0.0
  0
LINE
  5
203
330
A
100
AcDbEntity
  8
PV
  6
Continuous
 62
     7
100
AcDbLine
 10
-19.694
 20
74.541
 30
0.0
 11
-20.482
 21
74.08599999999999
 31
0.0
  0
LINE
  5
204
330
A
100
AcDbEntity
  8
PV
  6
Continuous
 62
     7
100
AcDbLine
 10
-14.694
 20
65.881
 30
0.0
 11
-15.482
 21
65.426
 31
0.0
  0
LINE
  5
205
330
A
100
AcDbEntity
  8
PV
  6
Continuous
 62
     7
100
AcDbLine
 10
-19.01099999999999
 20
74.358
 30
0.0
 11
-14.511
 21
66.56399999999999
 31
0.0
  0
LINE
  5
206
330
A
100
AcDbEntity
  8
PV
  6
Continuous
 62
     7
100
AcDbLine
 10
14.947
 20
65.881
 30
0.0
 11
15.73599999999999
 21
65.426
 31
0.0
  0
LINE
  5
207
330
A
100
AcDbEntity
  8
PV
  6
Continuous
 62
     7
100
AcDbLine
 10
14.764
 20
66.56399999999999
 30
0.0
 11
19.264
 21
74.358
 31
0.0
  0
LINE
  5
208
330
A
100
AcDbEntity
  8
PV
  6
Continuous
 62
     7
100
AcDbLine
 10
19.94699999999999
 20
74.541
 30
0.0
 11
20.736
 21
74.08599999999999
 31
0.0
  0
LINE
  5
209
330
A
100
AcDbEntity
  8
PV
  6
Continuous
 62
     7
100
AcDbLine
 10
19.94699999999999
 20
85.881
 30
0.0
 11
20.736
 21
86.33599999999999
 31
0.0
  0
LINE
  5
20A
330
A
100
AcDbEntity
  8
PV
  6
Continuous
 62
     7
100
AcDbLine
 10
19.264
 20
86.06399999999998
 30
0.0
 11
14.764
 21
93.85799999999999
 31
0.0
  0
LINE
  5
20B
330
A
100
AcDbEntity
  8
PV
  6
Continuous
 62
     7
100
AcDbLine
 10
14.947
 20
94.541
 30
0.0
 11
15.73599999999999
 21
94.99700000000002
 31
0.0
  0
LINE
  5
20C
330
A
100
AcDbEntity
  8
PV
  6
Continuous
 62
     7
100
AcDbLine
 10
-14.694
 20
94.541
 30
0.0
 11
-15.482
 21
94.99700000000002
 31
0.0
  0
LINE
  5
20D
330
A
100
AcDbEntity
  8
PV
  6
Continuous
 62
     7
100
AcDbLine
 10
-14.511
 20
93.85799999999999
 30
0.0
 11
-19.01099999999999
 21
86.06399999999998
 31
0.0
  0
LINE
  5
20E
330
A
100
AcDbEntity
  8
PV
  6
Continuous
 62
     7
100
AcDbLine
 10
-19.694
 20
85.881
 30
0.0
 11
-20.482
 21
86.33599999999999
 31
0.0
  0
ARC
  5
20F
330
A
100
AcDbEntity
  8
PV
  6
Continuous
 62
     7
100
AcDbCircle
 10
-14.944
 20
66.31399999999999
 30
0.0
 40
0.5
100
AcDbArc
 50
299.999998
 51
30.000001
  0
CIRCLE
  5
210
330
A
100
AcDbEntity
  8
PV
  6
Continuous
 62
     7
100
AcDbCircle
 10
0.127
 20
80.211
 30
0.0
 40
21.49999999999999
  0
ARC
  5
211
330
A
100
AcDbEntity
  8
PV
  6
Continuous
 62
     7
100
AcDbCircle
 10
0.127
 20
80.211
 30
0.0
 40
20.5
100
AcDbArc
 50
284.116981
 51
315.9221259999999
  0
ARC
  5
212
330
A
100
AcDbEntity
  8
PV
  6
Continuous
 62
     7
100
AcDbCircle
 10
-4.373
 20
60.211
 30
0.0
 40
0.5
100
AcDbArc
 50
90.00000300000001
 51
180.000005
  0
ARC
  5
213
330
A
100
AcDbEntity
  8
PV
  6
Continuous
 62
     7
100
AcDbCircle
 10
4.626999999999999
 20
60.211
 30
0.0
 40
0.5
100
AcDbArc
 50
0.0
 51
90.00000300000001
  0
ARC
  5
214
330
A
100
AcDbEntity
  8
PV
  6
Continuous
 62
     7
100
AcDbCircle
 10
4.626999999999999
 20
100.211
 30
0.0
 40
0.5
100
AcDbArc
 50
269.9999969999999
 51
0.0
  0
ARC
  5
215
330
A
100
AcDbEntity
  8
PV
  6
Continuous
 62
     7
100
AcDbCircle
 10
-4.373
 20
100.211
 30
0.0
 40
0.5
100
AcDbArc
 50
179.9999909999999
 51
270.000001
  0
ARC
  5
216
330
A
100
AcDbEntity
  8
PV
  6
Continuous
 62
     7
100
AcDbCircle
 10
0.127
 20
80.211
 30
0.0
 40
20.5
100
AcDbArc
 50
224.0778689999999
 51
255.8830209999999
  0
ARC
  5
217
330
A
100
AcDbEntity
  8
PV
  6
Continuous
 62
     7
100
AcDbCircle
 10
0.127
 20
80.211
 30
0.0
 40
20.5
100
AcDbArc
 50
104.116979
 51
135.8830209999999
  0
ARC
  5
218
330
A
100
AcDbEntity
  8
PV
  6
Continuous
 62
     7
100
AcDbCircle
 10
0.127
 20
80.211
 30
0.0
 40
20.5
100
AcDbArc
 50
44.11698100000001
 51
75.88301899999999
  0
CIRCLE
  5
219
330
A
100
AcDbEntity
  8
PV
  6
Continuous
 62
     7
100
AcDbCircle
 10
0.127
 20
80.211
 30
0.0
 40
18.5
  0
ARC
  5
21A
330
A
100
AcDbEntity
  8
PV
  6
Continuous
 62
     7
100
AcDbCircle
 10
-19.444
 20
74.108
 30
0.0
 40
0.5
100
AcDbArc
 50
30.000001
 51
120.0000029999999
  0
ARC
  5
21B
330
A
100
AcDbEntity
  8
PV
  6
Continuous
 62
     7
100
AcDbCircle
 10
15.197
 20
66.31399999999999
 30
0.0
 40
0.5
100
AcDbArc
 50
149.999997
 51
240.0000069999999
  0
ARC
  5
21C
330
A
100
AcDbEntity
  8
PV
  6
Continuous
 62
     7
100
AcDbCircle
 10
19.69699999999999
 20
74.108
 30
0.0
 40
0.5
100
AcDbArc
 50
60.000002
 51
149.999997
  0
ARC
  5
21D
330
A
100
AcDbEntity
  8
PV
  6
Continuous
 62
     7
100
AcDbCircle
 10
0.127
 20
80.211
 30
0.0
 40
20.5
100
AcDbArc
 50
344.116981
 51
15.883019
  0
ARC
  5
21E
330
A
100
AcDbEntity
  8
PV
  6
Continuous
 62
     7
100
AcDbCircle
 10
19.69699999999999
 20
86.31399999999999
 30
0.0
 40
0.5
100
AcDbArc
 50
210.0000029999999
 51
299.999998
  0
ARC
  5
21F
330
A
100
AcDbEntity
  8
PV
  6
Continuous
 62
     7
100
AcDbCircle
 10
15.197
 20
94.108
 30
0.0
 40
0.5
100
AcDbArc
 50
120.0000029999999
 51
209.999999
  0
ARC
  5
220
330
A
100
AcDbEntity
  8
PV
  6
Continuous
 62
     7
100
AcDbCircle
 10
-14.944
 20
94.108
 30
0.0
 40
0.5
100
AcDbArc
 50
329.9999989999999
 51
60.000002
  0
ARC
  5
221
330
A
100
AcDbEntity
  8
PV
  6
Continuous
 62
     7
100
AcDbCircle
 10
-19.444
 20
86.31399999999999
 30
0.0
 40
0.5
100
AcDbArc
 50
239.999997
 51
329.9999989999999
  0
ARC
  5
222
330
A
100
AcDbEntity
  8
PV
  6
Continuous
 62
     7
100
AcDbCircle
 10
0.127
 20
80.211
 30
0.0
 40
20.5
100
AcDbArc
 50
164.116974
 51
195.883023
  0
MTEXT
  5
223
330
A
100
AcDbEntity
  8
PV
  6
Continuous
 62
     7
100
AcDbMText
 10
40.99966699999999
 20
-66.295
 30
0.0
 40
4.0
 41
0.0
 71
     2
 72
     1
  1
\A1;93.5
 11
0.0
 21
1.0
 31
0.0
 73
     1
 44
1.0
  0
LINE
  5
224
330
A
100
AcDbEntity
  8
PV
  6
Continuous
 62
     7
100
AcDbLine
 10
26.16699999999999
 20
-19.795
 30
0.0
 11
48.21899999999999
 21
-19.795
 31
0.0
  0
LINE
  5
225
330
A
100
AcDbEntity
  8
PV
  6
Continuous
 62
     7
100
AcDbLine
 10
45.933
 20
-19.795
 30
0.0
 11
45.933
 21
-113.295
 31
0.0
  0
LINE
  5
226
330
A
100
AcDbEntity
  8
PV
  6
Continuous
 62
     7
100
AcDbLine
 10
45.933
 20
-113.295
 30
0.0
 11
45.933
 21
-110.525
 31
0.0
  0
LINE
  5
227
330
A
100
AcDbEntity
  8
PV
  6
Continuous
 62
     7
100
AcDbLine
 10
45.933
 20
-113.295
 30
0.0
 11
45.19
 21
-110.525
 31
0.0
  0
LINE
  5
228
330
A
100
AcDbEntity
  8
PV
  6
Continuous
 62
     7
100
AcDbLine
 10
46.67499999999999
 20
-110.525
 30
0.0
 11
45.933
 21
-113.295
 31
0.0
  0
LINE
  5
229
330
A
100
AcDbEntity
  8
PV
  6
Continuous
 62
     7
100
AcDbLine
 10
45.933
 20
-19.795
 30
0.0
 11
45.933
 21
-22.565
 31
0.0
  0
LINE
  5
22A
330
A
100
AcDbEntity
  8
PV
  6
Continuous
 62
     7
100
AcDbLine
 10
45.933
 20
-19.795
 30
0.0
 11
46.67499999999999
 21
-22.565
 31
0.0
  0
LINE
  5
22B
330
A
100
AcDbEntity
  8
PV
  6
Continuous
 62
     7
100
AcDbLine
 10
45.19
 20
-22.565
 30
0.0
 11
45.933
 21
-19.795
 31
0.0
  0
MTEXT
  5
22C
330
A
100
AcDbEntity
  8
PV
  6
Continuous
 62
     7
100
AcDbMText
 10
-60.281333
 20
-93.29500000000001
 30
0.0
 40
4.0
 41
0.0
 71
     2
 72
     1
  1
\A1;40
 11
0.0
 21
1.0
 31
0.0
 73
     1
 44
1.0
  0
LINE
  5
22D
330
A
100
AcDbEntity
  8
PV
  6
Continuous
 62
     7
100
AcDbLine
 10
-44.143559
 20
-73.295
 30
0.0
 11
-57.63399999999999
 21
-73.295
 31
0.0
  0
LINE
  5
22E
330
A
100
AcDbEntity
  8
PV
  6
Continuous
 62
     7
100
AcDbLine
 10
-17.187232
 20
-113.295
 30
0.0
 11
-57.63399999999999
 21
-113.295
 31
0.0
  0
LINE
  5
22F
330
A
100
AcDbEntity
  8
PV
  6
Continuous
 62
     7
100
AcDbLine
 10
-55.348
 20
-113.295
 30
0.0
 11
-55.348
 21
-73.295
 31
0.0
  0
LINE
  5
230
330
A
100
AcDbEntity
  8
PV
  6
Continuous
 62
     7
100
AcDbLine
 10
-55.348
 20
-73.295
 30
0.0
 11
-55.348
 21
-76.065
 31
0.0
  0
LINE
  5
231
330
A
100
AcDbEntity
  8
PV
  6
Continuous
 62
     7
100
AcDbLine
 10
-55.348
 20
-73.295
 30
0.0
 11
-54.606
 21
-76.065
 31
0.0
  0
LINE
  5
232
330
A
100
AcDbEntity
  8
PV
  6
Continuous
 62
     7
100
AcDbLine
 10
-56.09
 20
-76.065
 30
0.0
 11
-55.348
 21
-73.295
 31
0.0
  0
LINE
  5
233
330
A
100
AcDbEntity
  8
PV
  6
Continuous
 62
     7
100
AcDbLine
 10
-55.348
 20
-113.295
 30
0.0
 11
-55.348
 21
-110.525
 31
0.0
  0
LINE
  5
234
330
A
100
AcDbEntity
  8
PV
  6
Continuous
 62
     7
100
AcDbLine
 10
-55.348
 20
-113.295
 30
0.0
 11
-56.09
 21
-110.525
 31
0.0
  0
LINE
  5
235
330
A
100
AcDbEntity
  8
PV
  6
Continuous
 62
     7
100
AcDbLine
 10
-54.606
 20
-110.525
 30
0.0
 11
-55.348
 21
-113.295
 31
0.0
  0
MTEXT
  5
236
330
A
100
AcDbEntity
  8
PV
  6
Continuous
 62
     7
100
AcDbMText
 10
-50.96933400000001
 20
-67.04899999999999
 30
0.0
 40
4.0
 41
0.0
 71
     2
 72
     1
  1
\T1.028;\W0.996;\A1;\U+220530
 11
0.0
 21
1.0
 31
0.0
 73
     1
 44
1.0
  0
LINE
  5
237
330
A
100
AcDbEntity
  8
PV
  6
Continuous
 62
     7
100
AcDbLine
 10
-41.03209099999999
 20
-58.295
 30
0.0
 11
-48.322
 21
-58.295
 31
0.0
  0
LINE
  5
238
330
A
100
AcDbEntity
  8
PV
  6
Continuous
 62
     7
100
AcDbLine
 10
-41.03209099999999
 20
-88.29500000000001
 30
0.0
 11
-48.322
 21
-88.29500000000001
 31
0.0
  0
LINE
  5
239
330
A
100
AcDbEntity
  8
PV
  6
Continuous
 62
     7
100
AcDbLine
 10
-46.036
 20
-88.29500000000001
 30
0.0
 11
-46.036
 21
-58.295
 31
0.0
  0
LINE
  5
23A
330
A
100
AcDbEntity
  8
PV
  6
Continuous
 62
     7
100
AcDbLine
 10
-46.036
 20
-58.295
 30
0.0
 11
-46.036
 21
-61.065
 31
0.0
  0
LINE
  5
23B
330
A
100
AcDbEntity
  8
PV
  6
Continuous
 62
     7
100
AcDbLine
 10
-46.036
 20
-58.295
 30
0.0
 11
-45.29399999999999
 21
-61.065
 31
0.0
  0
LINE
  5
23C
330
A
100
AcDbEntity
  8
PV
  6
Continuous
 62
     7
100
AcDbLine
 10
-46.778
 20
-61.065
 30
0.0
 11
-46.036
 21
-58.295
 31
0.0
  0
LINE
  5
23D
330
A
100
AcDbEntity
  8
PV
  6
Continuous
 62
     7
100
AcDbLine
 10
-46.036
 20
-88.29500000000001
 30
0.0
 11
-46.036
 21
-85.525
 31
0.0
  0
LINE
  5
23E
330
A
100
AcDbEntity
  8
PV
  6
Continuous
 62
     7
100
AcDbLine
 10
-46.036
 20
-88.29500000000001
 30
0.0
 11
-46.778
 21
-85.525
 31
0.0
  0
LINE
  5
23F
330
A
100
AcDbEntity
  8
PV
  6
Continuous
 62
     7
100
AcDbLine
 10
-45.29399999999999
 20
-85.525
 30
0.0
 11
-46.036
 21
-88.29500000000001
 31
0.0
  0
MTEXT
  5
240
330
A
100
AcDbEntity
  8
PV
  6
Continuous
 62
     7
100
AcDbMText
 10
-19.873
 20
-127.568667
 30
0.0
 40
4.0
 41
0.0
 71
     2
 72
     1
  1
\A1;40
 73
     1
 44
1.0
  0
LINE
  5
241
330
A
100
AcDbEntity
  8
PV
  6
Continuous
 62
     7
100
AcDbLine
 10
-39.873
 20
-91.216486
 30
0.0
 11
-39.873
 21
-134.7879999999999
 31
0.0
  0
LINE
  5
242
330
A
100
AcDbEntity
  8
PV
  6
Continuous
 62
     7
100
AcDbLine
 10
0.127
 20
-118.835
 30
0.0
 11
0.127
 21
-134.7879999999999
 31
0.0
  0
LINE
  5
243
330
A
100
AcDbEntity
  8
PV
  6
Continuous
 62
     7
100
AcDbLine
 10
0.127
 20
-132.502
 30
0.0
 11
-39.873
 21
-132.502
 31
0.0
  0
LINE
  5
244
330
A
100
AcDbEntity
  8
PV
  6
Continuous
 62
     7
100
AcDbLine
 10
-39.873
 20
-132.502
 30
0.0
 11
-37.103
 21
-132.502
 31
0.0
  0
LINE
  5
245
330
A
100
AcDbEntity
  8
PV
  6
Continuous
 62
     7
100
AcDbLine
 10
-39.873
 20
-132.502
 30
0.0
 11
-37.103
 21
-131.7599999999999
 31
0.0
  0
LINE
  5
246
330
A
100
AcDbEntity
  8
PV
  6
Continuous
 62
     7
100
AcDbLine
 10
-37.103
 20
-133.244
 30
0.0
 11
-39.873
 21
-132.502
 31
0.0
  0
LINE
  5
247
330
A
100
AcDbEntity
  8
PV
  6
Continuous
 62
     7
100
AcDbLine
 10
0.127
 20
-132.502
 30
0.0
 11
-2.643
 21
-132.502
 31
0.0
  0
LINE
  5
248
330
A
100
AcDbEntity
  8
PV
  6
Continuous
 62
     7
100
AcDbLine
 10
0.127
 20
-132.502
 30
0.0
 11
-2.643
 21
-133.244
 31
0.0
  0
LINE
  5
249
330
A
100
AcDbEntity
  8
PV
  6
Continuous
 62
     7
100
AcDbLine
 10
-2.643
 20
-131.7599999999999
 30
0.0
 11
0.127
 21
-132.502
 31
0.0
  0
MTEXT
  5
24A
330
A
100
AcDbEntity
  8
PV
  6
Continuous
 62
     7
100
AcDbMText
 10
7.301
 20
-117.8516659999999
 30
0.0
 40
4.0
 41
0.0
 71
     2
 72
     1
  1
\T1.028;\W0.996;\A1;\U+220530
 73
     1
 44
1.0
  0
LINE
  5
24B
330
A
100
AcDbEntity
  8
PV
  6
Continuous
 62
     7
100
AcDbLine
 10
-14.873
 20
-115.799181
 30
0.0
 11
-14.873
 21
-125.0709999999999
 31
0.0
  0
LINE
  5
24C
330
A
100
AcDbEntity
  8
PV
  6
Continuous
 62
     7
100
AcDbLine
 10
15.127
 20
-115.799181
 30
0.0
 11
15.127
 21
-125.0709999999999
 31
0.0
  0
LINE
  5
24D
330
A
100
AcDbEntity
  8
PV
  6
Continuous
 62
     7
100
AcDbLine
 10
15.127
 20
-122.7849999999999
 30
0.0
 11
-14.873
 21
-122.7849999999999
 31
0.0
  0
LINE
  5
24E
330
A
100
AcDbEntity
  8
PV
  6
Continuous
 62
     7
100
AcDbLine
 10
-14.873
 20
-122.7849999999999
 30
0.0
 11
-12.103
 21
-122.7849999999999
 31
0.0
  0
LINE
  5
24F
330
A
100
AcDbEntity
  8
PV
  6
Continuous
 62
     7
100
AcDbLine
 10
-14.873
 20
-122.7849999999999
 30
0.0
 11
-12.103
 21
-122.0429999999999
 31
0.0
  0
LINE
  5
250
330
A
100
AcDbEntity
  8
PV
  6
Continuous
 62
     7
100
AcDbLine
 10
-12.103
 20
-123.527
 30
0.0
 11
-14.873
 21
-122.7849999999999
 31
0.0
  0
LINE
  5
251
330
A
100
AcDbEntity
  8
PV
  6
Continuous
 62
     7
100
AcDbLine
 10
15.127
 20
-122.7849999999999
 30
0.0
 11
12.357
 21
-122.7849999999999
 31
0.0
  0
LINE
  5
252
330
A
100
AcDbEntity
  8
PV
  6
Continuous
 62
     7
100
AcDbLine
 10
15.127
 20
-122.7849999999999
 30
0.0
 11
12.357
 21
-123.527
 31
0.0
  0
LINE
  5
253
330
A
100
AcDbEntity
  8
PV
  6
Continuous
 62
     7
100
AcDbLine
 10
12.357
 20
-122.0429999999999
 30
0.0
 11
15.127
 21
-122.7849999999999
 31
0.0
  0
MTEXT
  5
254
330
A
100
AcDbEntity
  8
PV
  6
Continuous
 62
     7
100
AcDbMText
 10
7.051
 20
-81.48966599999999
 30
0.0
 40
4.0
 41
0.0
 71
     2
 72
     1
  1
\T1.028;\W0.996;\A1;\U+220540
 73
     1
 44
1.0
  0
LINE
  5
255
330
A
100
AcDbEntity
  8
PV
  6
Continuous
 62
     7
100
AcDbLine
 10
20.127
 20
-86.42299999999998
 30
0.0
 11
-19.873
 21
-86.42299999999998
 31
0.0
  0
LINE
  5
256
330
A
100
AcDbEntity
  8
PV
  6
Continuous
 62
     7
100
AcDbLine
 10
-19.873
 20
-86.42299999999998
 30
0.0
 11
-17.10299999999999
 21
-86.42299999999998
 31
0.0
  0
LINE
  5
257
330
A
100
AcDbEntity
  8
PV
  6
Continuous
 62
     7
100
AcDbLine
 10
-19.873
 20
-86.42299999999998
 30
0.0
 11
-17.10299999999999
 21
-85.68000000000001
 31
0.0
  0
LINE
  5
258
330
A
100
AcDbEntity
  8
PV
  6
Continuous
 62
     7
100
AcDbLine
 10
-17.10299999999999
 20
-87.16500000000001
 30
0.0
 11
-19.873
 21
-86.42299999999998
 31
0.0
  0
LINE
  5
259
330
A
100
AcDbEntity
  8
PV
  6
Continuous
 62
     7
100
AcDbLine
 10
20.127
 20
-86.42299999999998
 30
0.0
 11
17.357
 21
-86.42299999999998
 31
0.0
  0
LINE
  5
25A
330
A
100
AcDbEntity
  8
PV
  6
Continuous
 62
     7
100
AcDbLine
 10
20.127
 20
-86.42299999999998
 30
0.0
 11
17.357
 21
-87.16500000000001
 31
0.0
  0
LINE
  5
25B
330
A
100
AcDbEntity
  8
PV
  6
Continuous
 62
     7
100
AcDbLine
 10
17.357
 20
-85.68000000000001
 30
0.0
 11
20.127
 21
-86.42299999999998
 31
0.0
  0
LINE
  5
25C
330
A
100
AcDbEntity
  8
PV
  6
Continuous
 62
     7
100
AcDbLine
 10
-18.51599999999999
 20
-3.423
 30
0.0
 11
-18.49599999999999
 21
-3.447999999999999
 31
0.0
  0
LINE
  5
25D
330
A
100
AcDbEntity
  8
PV
  6
Continuous
 62
     7
100
AcDbLine
 10
-18.53599999999999
 20
-3.398
 30
0.0
 11
-18.51599999999999
 21
-3.423
 31
0.0
  0
LINE
  5
25E
330
A
100
AcDbEntity
  8
PV
  6
Continuous
 62
     7
100
AcDbLine
 10
-18.55599999999999
 20
-3.373
 30
0.0
 11
-18.53599999999999
 21
-3.398
 31
0.0
  0
LINE
  5
25F
330
A
100
AcDbEntity
  8
PV
  6
Continuous
 62
     7
100
AcDbLine
 10
-18.57499999999999
 20
-3.346999999999999
 30
0.0
 11
-18.55599999999999
 21
-3.373
 31
0.0
  0
LINE
  5
260
330
A
100
AcDbEntity
  8
PV
  6
Continuous
 62
     7
100
AcDbLine
 10
-18.594
 20
-3.322
 30
0.0
 11
-18.57499999999999
 21
-3.346999999999999
 31
0.0
  0
LINE
  5
261
330
A
100
AcDbEntity
  8
PV
  6
Continuous
 62
     7
100
AcDbLine
 10
-18.61299999999999
 20
-3.294999999999999
 30
0.0
 11
-18.594
 21
-3.322
 31
0.0
  0
LINE
  5
262
330
A
100
AcDbEntity
  8
PV
  6
Continuous
 62
     7
100
AcDbLine
 10
-18.631
 20
-3.268999999999999
 30
0.0
 11
-18.61299999999999
 21
-3.294999999999999
 31
0.0
  0
LINE
  5
263
330
A
100
AcDbEntity
  8
PV
  6
Continuous
 62
     7
100
AcDbLine
 10
-18.649
 20
-3.243
 30
0.0
 11
-18.631
 21
-3.268999999999999
 31
0.0
  0
LINE
  5
264
330
A
100
AcDbEntity
  8
PV
  6
Continuous
 62
     7
100
AcDbLine
 10
-18.667
 20
-3.216
 30
0.0
 11
-18.649
 21
-3.243
 31
0.0
  0
LINE
  5
265
330
A
100
AcDbEntity
  8
PV
  6
Continuous
 62
     7
100
AcDbLine
 10
-18.684
 20
-3.188999999999999
 30
0.0
 11
-18.667
 21
-3.216
 31
0.0
  0
LINE
  5
266
330
A
100
AcDbEntity
  8
PV
  6
Continuous
 62
     7
100
AcDbLine
 10
-18.701
 20
-3.161999999999999
 30
0.0
 11
-18.684
 21
-3.188999999999999
 31
0.0
  0
LINE
  5
267
330
A
100
AcDbEntity
  8
PV
  6
Continuous
 62
     7
100
AcDbLine
 10
-18.718
 20
-3.133999999999999
 30
0.0
 11
-18.701
 21
-3.161999999999999
 31
0.0
  0
LINE
  5
268
330
A
100
AcDbEntity
  8
PV
  6
Continuous
 62
     7
100
AcDbLine
 10
-18.734
 20
-3.106999999999999
 30
0.0
 11
-18.718
 21
-3.133999999999999
 31
0.0
  0
LINE
  5
269
330
A
100
AcDbEntity
  8
PV
  6
Continuous
 62
     7
100
AcDbLine
 10
-18.75099999999999
 20
-3.078999999999999
 30
0.0
 11
-18.734
 21
-3.106999999999999
 31
0.0
  0
LINE
  5
26A
330
A
100
AcDbEntity
  8
PV
  6
Continuous
 62
     7
100
AcDbLine
 10
-18.76599999999999
 20
-3.051
 30
0.0
 11
-18.75099999999999
 21
-3.078999999999999
 31
0.0
  0
LINE
  5
26B
330
A
100
AcDbEntity
  8
PV
  6
Continuous
 62
     7
100
AcDbLine
 10
-18.782
 20
-3.023
 30
0.0
 11
-18.76599999999999
 21
-3.051
 31
0.0
  0
LINE
  5
26C
330
A
100
AcDbEntity
  8
PV
  6
Continuous
 62
     7
100
AcDbLine
 10
-18.79799999999999
 20
-2.995
 30
0.0
 11
-18.782
 21
-3.023
 31
0.0
  0
LINE
  5
26D
330
A
100
AcDbEntity
  8
PV
  6
Continuous
 62
     7
100
AcDbLine
 10
-18.81299999999999
 20
-2.967
 30
0.0
 11
-18.79799999999999
 21
-2.995
 31
0.0
  0
LINE
  5
26E
330
A
100
AcDbEntity
  8
PV
  6
Continuous
 62
     7
100
AcDbLine
 10
-18.82799999999999
 20
-2.938
 30
0.0
 11
-18.81299999999999
 21
-2.967
 31
0.0
  0
LINE
  5
26F
330
A
100
AcDbEntity
  8
PV
  6
Continuous
 62
     7
100
AcDbLine
 10
-18.84199999999999
 20
-2.91
 30
0.0
 11
-18.82799999999999
 21
-2.938
 31
0.0
  0
LINE
  5
270
330
A
100
AcDbEntity
  8
PV
  6
Continuous
 62
     7
100
AcDbLine
 10
-18.85699999999999
 20
-2.881
 30
0.0
 11
-18.84199999999999
 21
-2.91
 31
0.0
  0
LINE
  5
271
330
A
100
AcDbEntity
  8
PV
  6
Continuous
 62
     7
100
AcDbLine
 10
-18.871
 20
-2.851999999999999
 30
0.0
 11
-18.85699999999999
 21
-2.881
 31
0.0
  0
LINE
  5
272
330
A
100
AcDbEntity
  8
PV
  6
Continuous
 62
     7
100
AcDbLine
 10
-18.885
 20
-2.823
 30
0.0
 11
-18.871
 21
-2.851999999999999
 31
0.0
  0
LINE
  5
273
330
A
100
AcDbEntity
  8
PV
  6
Continuous
 62
     7
100
AcDbLine
 10
-18.899
 20
-2.793999999999999
 30
0.0
 11
-18.885
 21
-2.823
 31
0.0
  0
LINE
  5
274
330
A
100
AcDbEntity
  8
PV
  6
Continuous
 62
     7
100
AcDbLine
 10
-18.91199999999999
 20
-2.765
 30
0.0
 11
-18.899
 21
-2.793999999999999
 31
0.0
  0
LINE
  5
275
330
A
100
AcDbEntity
  8
PV
  6
Continuous
 62
     7
100
AcDbLine
 10
-18.92599999999999
 20
-2.736
 30
0.0
 11
-18.91199999999999
 21
-2.765
 31
0.0
  0
LINE
  5
276
330
A
100
AcDbEntity
  8
PV
  6
Continuous
 62
     7
100
AcDbLine
 10
-18.939
 20
-2.706999999999999
 30
0.0
 11
-18.92599999999999
 21
-2.736
 31
0.0
  0
LINE
  5
277
330
A
100
AcDbEntity
  8
PV
  6
Continuous
 62
     7
100
AcDbLine
 10
-18.952
 20
-2.677
 30
0.0
 11
-18.939
 21
-2.706999999999999
 31
0.0
  0
LINE
  5
278
330
A
100
AcDbEntity
  8
PV
  6
Continuous
 62
     7
100
AcDbLine
 10
-18.964
 20
-2.648
 30
0.0
 11
-18.952
 21
-2.677
 31
0.0
  0
LINE
  5
279
330
A
100
AcDbEntity
  8
PV
  6
Continuous
 62
     7
100
AcDbLine
 10
-18.977
 20
-2.618
 30
0.0
 11
-18.964
 21
-2.648
 31
0.0
  0
LINE
  5
27A
330
A
100
AcDbEntity
  8
PV
  6
Continuous
 62
     7
100
AcDbLine
 10
-18.989
 20
-2.588999999999999
 30
0.0
 11
-18.977
 21
-2.618
 31
0.0
  0
LINE
  5
27B
330
A
100
AcDbEntity
  8
PV
  6
Continuous
 62
     7
100
AcDbLine
 10
-19.00099999999999
 20
-2.559
 30
0.0
 11
-18.989
 21
-2.588999999999999
 31
0.0
  0
LINE
  5
27C
330
A
100
AcDbEntity
  8
PV
  6
Continuous
 62
     7
100
AcDbLine
 10
-19.01299999999999
 20
-2.528999999999999
 30
0.0
 11
-19.00099999999999
 21
-2.559
 31
0.0
  0
LINE
  5
27D
330
A
100
AcDbEntity
  8
PV
  6
Continuous
 62
     7
100
AcDbLine
 10
-19.02499999999999
 20
-2.499
 30
0.0
 11
-19.01299999999999
 21
-2.528999999999999
 31
0.0
  0
LINE
  5
27E
330
A
100
AcDbEntity
  8
PV
  6
Continuous
 62
     7
100
AcDbLine
 10
-19.03599999999999
 20
-2.47
 30
0.0
 11
-19.02499999999999
 21
-2.499
 31
0.0
  0
LINE
  5
27F
330
A
100
AcDbEntity
  8
PV
  6
Continuous
 62
     7
100
AcDbLine
 10
-19.04799999999999
 20
-2.439999999999999
 30
0.0
 11
-19.03599999999999
 21
-2.47
 31
0.0
  0
LINE
  5
280
330
A
100
AcDbEntity
  8
PV
  6
Continuous
 62
     7
100
AcDbLine
 10
-19.059
 20
-2.409
 30
0.0
 11
-19.04799999999999
 21
-2.439999999999999
 31
0.0
  0
LINE
  5
281
330
A
100
AcDbEntity
  8
PV
  6
Continuous
 62
     7
100
AcDbLine
 10
-19.07
 20
-2.379
 30
0.0
 11
-19.059
 21
-2.409
 31
0.0
  0
LINE
  5
282
330
A
100
AcDbEntity
  8
PV
  6
Continuous
 62
     7
100
AcDbLine
 10
-19.07999999999999
 20
-2.349
 30
0.0
 11
-19.07
 21
-2.379
 31
0.0
  0
LINE
  5
283
330
A
100
AcDbEntity
  8
PV
  6
Continuous
 62
     7
100
AcDbLine
 10
-19.09099999999999
 20
-2.318999999999999
 30
0.0
 11
-19.07999999999999
 21
-2.349
 31
0.0
  0
LINE
  5
284
330
A
100
AcDbEntity
  8
PV
  6
Continuous
 62
     7
100
AcDbLine
 10
-19.10099999999999
 20
-2.289
 30
0.0
 11
-19.09099999999999
 21
-2.318999999999999
 31
0.0
  0
LINE
  5
285
330
A
100
AcDbEntity
  8
PV
  6
Continuous
 62
     7
100
AcDbLine
 10
-19.112
 20
-2.258
 30
0.0
 11
-19.10099999999999
 21
-2.289
 31
0.0
  0
LINE
  5
286
330
A
100
AcDbEntity
  8
PV
  6
Continuous
 62
     7
100
AcDbLine
 10
-19.122
 20
-2.228
 30
0.0
 11
-19.112
 21
-2.258
 31
0.0
  0
LINE
  5
287
330
A
100
AcDbEntity
  8
PV
  6
Continuous
 62
     7
100
AcDbLine
 10
-19.132
 20
-2.197
 30
0.0
 11
-19.122
 21
-2.228
 31
0.0
  0
LINE
  5
288
330
A
100
AcDbEntity
  8
PV
  6
Continuous
 62
     7
100
AcDbLine
 10
-19.142
 20
-2.166999999999999
 30
0.0
 11
-19.132
 21
-2.197
 31
0.0
  0
LINE
  5
289
330
A
100
AcDbEntity
  8
PV
  6
Continuous
 62
     7
100
AcDbLine
 10
-19.15099999999999
 20
-2.136
 30
0.0
 11
-19.142
 21
-2.166999999999999
 31
0.0
  0
LINE
  5
28A
330
A
100
AcDbEntity
  8
PV
  6
Continuous
 62
     7
100
AcDbLine
 10
-19.16099999999999
 20
-2.104999999999999
 30
0.0
 11
-19.15099999999999
 21
-2.136
 31
0.0
  0
LINE
  5
28B
330
A
100
AcDbEntity
  8
PV
  6
Continuous
 62
     7
100
AcDbLine
 10
-19.17
 20
-2.075
 30
0.0
 11
-19.16099999999999
 21
-2.104999999999999
 31
0.0
  0
LINE
  5
28C
330
A
100
AcDbEntity
  8
PV
  6
Continuous
 62
     7
100
AcDbLine
 10
-19.179
 20
-2.044
 30
0.0
 11
-19.17
 21
-2.075
 31
0.0
  0
LINE
  5
28D
330
A
100
AcDbEntity
  8
PV
  6
Continuous
 62
     7
100
AcDbLine
 10
-19.188
 20
-2.012999999999999
 30
0.0
 11
-19.179
 21
-2.044
 31
0.0
  0
LINE
  5
28E
330
A
100
AcDbEntity
  8
PV
  6
Continuous
 62
     7
100
AcDbLine
 10
-19.19699999999999
 20
-1.982
 30
0.0
 11
-19.188
 21
-2.012999999999999
 31
0.0
  0
LINE
  5
28F
330
A
100
AcDbEntity
  8
PV
  6
Continuous
 62
     7
100
AcDbLine
 10
-19.20499999999999
 20
-1.950999999999999
 30
0.0
 11
-19.19699999999999
 21
-1.982
 31
0.0
  0
LINE
  5
290
330
A
100
AcDbEntity
  8
PV
  6
Continuous
 62
     7
100
AcDbLine
 10
-19.214
 20
-1.921
 30
0.0
 11
-19.20499999999999
 21
-1.950999999999999
 31
0.0
  0
LINE
  5
291
330
A
100
AcDbEntity
  8
PV
  6
Continuous
 62
     7
100
AcDbLine
 10
-19.222
 20
-1.889999999999999
 30
0.0
 11
-19.214
 21
-1.921
 31
0.0
  0
LINE
  5
292
330
A
100
AcDbEntity
  8
PV
  6
Continuous
 62
     7
100
AcDbLine
 10
-19.23
 20
-1.858999999999999
 30
0.0
 11
-19.222
 21
-1.889999999999999
 31
0.0
  0
LINE
  5
293
330
A
100
AcDbEntity
  8
PV
  6
Continuous
 62
     7
100
AcDbLine
 10
-19.23799999999999
 20
-1.828
 30
0.0
 11
-19.23
 21
-1.858999999999999
 31
0.0
  0
LINE
  5
294
330
A
100
AcDbEntity
  8
PV
  6
Continuous
 62
     7
100
AcDbLine
 10
-19.24599999999999
 20
-1.796
 30
0.0
 11
-19.23799999999999
 21
-1.828
 31
0.0
  0
LINE
  5
295
330
A
100
AcDbEntity
  8
PV
  6
Continuous
 62
     7
100
AcDbLine
 10
-19.254
 20
-1.764999999999999
 30
0.0
 11
-19.24599999999999
 21
-1.796
 31
0.0
  0
LINE
  5
296
330
A
100
AcDbEntity
  8
PV
  6
Continuous
 62
     7
100
AcDbLine
 10
-19.262
 20
-1.733999999999999
 30
0.0
 11
-19.254
 21
-1.764999999999999
 31
0.0
  0
LINE
  5
297
330
A
100
AcDbEntity
  8
PV
  6
Continuous
 62
     7
100
AcDbLine
 10
-19.269
 20
-1.703
 30
0.0
 11
-19.262
 21
-1.733999999999999
 31
0.0
  0
LINE
  5
298
330
A
100
AcDbEntity
  8
PV
  6
Continuous
 62
     7
100
AcDbLine
 10
-19.27599999999999
 20
-1.671999999999999
 30
0.0
 11
-19.269
 21
-1.703
 31
0.0
  0
LINE
  5
299
330
A
100
AcDbEntity
  8
PV
  6
Continuous
 62
     7
100
AcDbLine
 10
-19.283
 20
-1.639999999999999
 30
0.0
 11
-19.27599999999999
 21
-1.671999999999999
 31
0.0
  0
LINE
  5
29A
330
A
100
AcDbEntity
  8
PV
  6
Continuous
 62
     7
100
AcDbLine
 10
-19.29
 20
-1.608999999999999
 30
0.0
 11
-19.283
 21
-1.639999999999999
 31
0.0
  0
LINE
  5
29B
330
A
100
AcDbEntity
  8
PV
  6
Continuous
 62
     7
100
AcDbLine
 10
-19.297
 20
-1.578
 30
0.0
 11
-19.29
 21
-1.608999999999999
 31
0.0
  0
LINE
  5
29C
330
A
100
AcDbEntity
  8
PV
  6
Continuous
 62
     7
100
AcDbLine
 10
-19.304
 20
-1.546999999999999
 30
0.0
 11
-19.297
 21
-1.578
 31
0.0
  0
LINE
  5
29D
330
A
100
AcDbEntity
  8
PV
  6
Continuous
 62
     7
100
AcDbLine
 10
-19.31099999999999
 20
-1.514999999999999
 30
0.0
 11
-19.304
 21
-1.546999999999999
 31
0.0
  0
LINE
  5
29E
330
A
100
AcDbEntity
  8
PV
  6
Continuous
 62
     7
100
AcDbLine
 10
-19.317
 20
-1.483999999999999
 30
0.0
 11
-19.31099999999999
 21
-1.514999999999999
 31
0.0
  0
LINE
  5
29F
330
A
100
AcDbEntity
  8
PV
  6
Continuous
 62
     7
100
AcDbLine
 10
-19.324
 20
-1.451999999999999
 30
0.0
 11
-19.317
 21
-1.483999999999999
 31
0.0
  0
LINE
  5
2A0
330
A
100
AcDbEntity
  8
PV
  6
Continuous
 62
     7
100
AcDbLine
 10
-19.32999999999999
 20
-1.421
 30
0.0
 11
-19.324
 21
-1.451999999999999
 31
0.0
  0
LINE
  5
2A1
330
A
100
AcDbEntity
  8
PV
  6
Continuous
 62
     7
100
AcDbLine
 10
-19.336
 20
-1.389
 30
0.0
 11
-19.32999999999999
 21
-1.421
 31
0.0
  0
LINE
  5
2A2
330
A
100
AcDbEntity
  8
PV
  6
Continuous
 62
     7
100
AcDbLine
 10
-19.34199999999999
 20
-1.358
 30
0.0
 11
-19.336
 21
-1.389
 31
0.0
  0
LINE
  5
2A3
330
A
100
AcDbEntity
  8
PV
  6
Continuous
 62
     7
100
AcDbLine
 10
-19.348
 20
-1.325999999999999
 30
0.0
 11
-19.34199999999999
 21
-1.358
 31
0.0
  0
LINE
  5
2A4
330
A
100
AcDbEntity
  8
PV
  6
Continuous
 62
     7
100
AcDbLine
 10
-19.35299999999999
 20
-1.294999999999999
 30
0.0
 11
-19.348
 21
-1.325999999999999
 31
0.0
  0
LINE
  5
2A5
330
A
100
AcDbEntity
  8
PV
  6
Continuous
 62
     7
100
AcDbLine
 10
-19.359
 20
-1.262999999999999
 30
0.0
 11
-19.35299999999999
 21
-1.294999999999999
 31
0.0
  0
LINE
  5
2A6
330
A
100
AcDbEntity
  8
PV
  6
Continuous
 62
     7
100
AcDbLine
 10
-19.364
 20
-1.231999999999999
 30
0.0
 11
-19.359
 21
-1.262999999999999
 31
0.0
  0
LINE
  5
2A7
330
A
100
AcDbEntity
  8
PV
  6
Continuous
 62
     7
100
AcDbLine
 10
-19.37
 20
-1.199999999999999
 30
0.0
 11
-19.364
 21
-1.231999999999999
 31
0.0
  0
LINE
  5
2A8
330
A
100
AcDbEntity
  8
PV
  6
Continuous
 62
     7
100
AcDbLine
 10
-19.375
 20
-1.167999999999999
 30
0.0
 11
-19.37
 21
-1.199999999999999
 31
0.0
  0
LINE
  5
2A9
330
A
100
AcDbEntity
  8
PV
  6
Continuous
 62
     7
100
AcDbLine
 10
-19.37999999999999
 20
-1.137
 30
0.0
 11
-19.375
 21
-1.167999999999999
 31
0.0
  0
LINE
  5
2AA
330
A
100
AcDbEntity
  8
PV
  6
Continuous
 62
     7
100
AcDbLine
 10
-19.385
 20
-1.104999999999999
 30
0.0
 11
-19.37999999999999
 21
-1.137
 31
0.0
  0
LINE
  5
2AB
330
A
100
AcDbEntity
  8
PV
  6
Continuous
 62
     7
100
AcDbLine
 10
-19.389
 20
-1.072999999999999
 30
0.0
 11
-19.385
 21
-1.104999999999999
 31
0.0
  0
LINE
  5
2AC
330
A
100
AcDbEntity
  8
PV
  6
Continuous
 62
     7
100
AcDbLine
 10
-19.394
 20
-1.042
 30
0.0
 11
-19.389
 21
-1.072999999999999
 31
0.0
  0
LINE
  5
2AD
330
A
100
AcDbEntity
  8
PV
  6
Continuous
 62
     7
100
AcDbLine
 10
-19.399
 20
-1.01
 30
0.0
 11
-19.394
 21
-1.042
 31
0.0
  0
LINE
  5
2AE
330
A
100
AcDbEntity
  8
PV
  6
Continuous
 62
     7
100
AcDbLine
 10
-19.40299999999999
 20
-0.9779999999999999
 30
0.0
 11
-19.399
 21
-1.01
 31
0.0
  0
LINE
  5
2AF
330
A
100
AcDbEntity
  8
PV
  6
Continuous
 62
     7
100
AcDbLine
 10
-19.407
 20
-0.9459999999999999
 30
0.0
 11
-19.40299999999999
 21
-0.9779999999999999
 31
0.0
  0
LINE
  5
2B0
330
A
100
AcDbEntity
  8
PV
  6
Continuous
 62
     7
100
AcDbLine
 10
-19.41099999999999
 20
-0.914
 30
0.0
 11
-19.407
 21
-0.9459999999999999
 31
0.0
  0
LINE
  5
2B1
330
A
100
AcDbEntity
  8
PV
  6
Continuous
 62
     7
100
AcDbLine
 10
-19.41499999999999
 20
-0.883
 30
0.0
 11
-19.41099999999999
 21
-0.914
 31
0.0
  0
LINE
  5
2B2
330
A
100
AcDbEntity
  8
PV
  6
Continuous
 62
     7
100
AcDbLine
 10
-19.419
 20
-0.8509999999999999
 30
0.0
 11
-19.41499999999999
 21
-0.883
 31
0.0
  0
LINE
  5
2B3
330
A
100
AcDbEntity
  8
PV
  6
Continuous
 62
     7
100
AcDbLine
 10
-19.42299999999999
 20
-0.8190000000000001
 30
0.0
 11
-19.419
 21
-0.8509999999999999
 31
0.0
  0
LINE
  5
2B4
330
A
100
AcDbEntity
  8
PV
  6
Continuous
 62
     7
100
AcDbLine
 10
-19.427
 20
-0.787
 30
0.0
 11
-19.42299999999999
 21
-0.8190000000000001
 31
0.0
  0
LINE
  5
2B5
330
A
100
AcDbEntity
  8
PV
  6
Continuous
 62
     7
100
AcDbLine
 10
-19.42999999999999
 20
-0.755
 30
0.0
 11
-19.427
 21
-0.787
 31
0.0
  0
LINE
  5
2B6
330
A
100
AcDbEntity
  8
PV
  6
Continuous
 62
     7
100
AcDbLine
 10
-19.434
 20
-0.723
 30
0.0
 11
-19.42999999999999
 21
-0.755
 31
0.0
  0
LINE
  5
2B7
330
A
100
AcDbEntity
  8
PV
  6
Continuous
 62
     7
100
AcDbLine
 10
-19.437
 20
-0.691
 30
0.0
 11
-19.434
 21
-0.723
 31
0.0
  0
LINE
  5
2B8
330
A
100
AcDbEntity
  8
PV
  6
Continuous
 62
     7
100
AcDbLine
 10
-19.44
 20
-0.6600000000000001
 30
0.0
 11
-19.437
 21
-0.691
 31
0.0
  0
LINE
  5
2B9
330
A
100
AcDbEntity
  8
PV
  6
Continuous
 62
     7
100
AcDbLine
 10
-19.44299999999999
 20
-0.6280000000000001
 30
0.0
 11
-19.44
 21
-0.6600000000000001
 31
0.0
  0
LINE
  5
2BA
330
A
100
AcDbEntity
  8
PV
  6
Continuous
 62
     7
100
AcDbLine
 10
-19.44599999999999
 20
-0.596
 30
0.0
 11
-19.44299999999999
 21
-0.6280000000000001
 31
0.0
  0
LINE
  5
2BB
330
A
100
AcDbEntity
  8
PV
  6
Continuous
 62
     7
100
AcDbLine
 10
-19.449
 20
-0.564
 30
0.0
 11
-19.44599999999999
 21
-0.596
 31
0.0
  0
LINE
  5
2BC
330
A
100
AcDbEntity
  8
PV
  6
Continuous
 62
     7
100
AcDbLine
 10
-19.452
 20
-0.5320000000000001
 30
0.0
 11
-19.449
 21
-0.564
 31
0.0
  0
LINE
  5
2BD
330
A
100
AcDbEntity
  8
PV
  6
Continuous
 62
     7
100
AcDbLine
 10
-19.454
 20
-0.5
 30
0.0
 11
-19.452
 21
-0.5320000000000001
 31
0.0
  0
LINE
  5
2BE
330
A
100
AcDbEntity
  8
PV
  6
Continuous
 62
     7
100
AcDbLine
 10
-19.457
 20
-0.468
 30
0.0
 11
-19.454
 21
-0.5
 31
0.0
  0
LINE
  5
2BF
330
A
100
AcDbEntity
  8
PV
  6
Continuous
 62
     7
100
AcDbLine
 10
-19.45899999999999
 20
-0.4360000000000001
 30
0.0
 11
-19.457
 21
-0.468
 31
0.0
  0
LINE
  5
2C0
330
A
100
AcDbEntity
  8
PV
  6
Continuous
 62
     7
100
AcDbLine
 10
-19.462
 20
-0.404
 30
0.0
 11
-19.45899999999999
 21
-0.4360000000000001
 31
0.0
  0
LINE
  5
2C1
330
A
100
AcDbEntity
  8
PV
  6
Continuous
 62
     7
100
AcDbLine
 10
-19.464
 20
-0.3720000000000001
 30
0.0
 11
-19.462
 21
-0.404
 31
0.0
  0
LINE
  5
2C2
330
A
100
AcDbEntity
  8
PV
  6
Continuous
 62
     7
100
AcDbLine
 10
-19.46599999999999
 20
-0.34
 30
0.0
 11
-19.464
 21
-0.3720000000000001
 31
0.0
  0
LINE
  5
2C3
330
A
100
AcDbEntity
  8
PV
  6
Continuous
 62
     7
100
AcDbLine
 10
-19.46799999999999
 20
-0.308
 30
0.0
 11
-19.46599999999999
 21
-0.34
 31
0.0
  0
LINE
  5
2C4
330
A
100
AcDbEntity
  8
PV
  6
Continuous
 62
     7
100
AcDbLine
 10
-19.469
 20
-0.276
 30
0.0
 11
-19.46799999999999
 21
-0.308
 31
0.0
  0
LINE
  5
2C5
330
A
100
AcDbEntity
  8
PV
  6
Continuous
 62
     7
100
AcDbLine
 10
-19.471
 20
-0.244
 30
0.0
 11
-19.469
 21
-0.276
 31
0.0
  0
LINE
  5
2C6
330
A
100
AcDbEntity
  8
PV
  6
Continuous
 62
     7
100
AcDbLine
 10
-19.473
 20
-0.212
 30
0.0
 11
-19.471
 21
-0.244
 31
0.0
  0
LINE
  5
2C7
330
A
100
AcDbEntity
  8
PV
  6
Continuous
 62
     7
100
AcDbLine
 10
-19.474
 20
-0.18
 30
0.0
 11
-19.473
 21
-0.212
 31
0.0
  0
LINE
  5
2C8
330
A
100
AcDbEntity
  8
PV
  6
Continuous
 62
     7
100
AcDbLine
 10
-19.475
 20
-0.148
 30
0.0
 11
-19.474
 21
-0.18
 31
0.0
  0
LINE
  5
2C9
330
A
100
AcDbEntity
  8
PV
  6
Continuous
 62
     7
100
AcDbLine
 10
-19.47599999999999
 20
-0.116
 30
0.0
 11
-19.475
 21
-0.148
 31
0.0
  0
LINE
  5
2CA
330
A
100
AcDbEntity
  8
PV
  6
Continuous
 62
     7
100
AcDbLine
 10
-19.47799999999999
 20
-0.084
 30
0.0
 11
-19.47599999999999
 21
-0.116
 31
0.0
  0
LINE
  5
2CB
330
A
100
AcDbEntity
  8
PV
  6
Continuous
 62
     7
100
AcDbLine
 10
-19.47899999999999
 20
-0.052
 30
0.0
 11
-19.47799999999999
 21
-0.084
 31
0.0
  0
LINE
  5
2CC
330
A
100
AcDbEntity
  8
PV
  6
Continuous
 62
     7
100
AcDbLine
 10
-19.47899999999999
 20
-0.02
 30
0.0
 11
-19.47899999999999
 21
-0.052
 31
0.0
  0
LINE
  5
2CD
330
A
100
AcDbEntity
  8
PV
  6
Continuous
 62
     7
100
AcDbLine
 10
-19.48
 20
0.012
 30
0.0
 11
-19.47899999999999
 21
-0.02
 31
0.0
  0
LINE
  5
2CE
330
A
100
AcDbEntity
  8
PV
  6
Continuous
 62
     7
100
AcDbLine
 10
-19.48099999999999
 20
0.044
 30
0.0
 11
-19.48
 21
0.012
 31
0.0
  0
LINE
  5
2CF
330
A
100
AcDbEntity
  8
PV
  6
Continuous
 62
     7
100
AcDbLine
 10
-19.48099999999999
 20
0.077
 30
0.0
 11
-19.48099999999999
 21
0.044
 31
0.0
  0
LINE
  5
2D0
330
A
100
AcDbEntity
  8
PV
  6
Continuous
 62
     7
100
AcDbLine
 10
-19.48199999999999
 20
0.109
 30
0.0
 11
-19.48099999999999
 21
0.077
 31
0.0
  0
LINE
  5
2D1
330
A
100
AcDbEntity
  8
PV
  6
Continuous
 62
     7
100
AcDbLine
 10
-19.48199999999999
 20
0.141
 30
0.0
 11
-19.48199999999999
 21
0.109
 31
0.0
  0
LINE
  5
2D2
330
A
100
AcDbEntity
  8
PV
  6
Continuous
 62
     7
100
AcDbLine
 10
-19.48199999999999
 20
0.173
 30
0.0
 11
-19.48199999999999
 21
0.141
 31
0.0
  0
LINE
  5
2D3
330
A
100
AcDbEntity
  8
PV
  6
Continuous
 62
     7
100
AcDbLine
 10
-19.48199999999999
 20
0.205
 30
0.0
 11
-19.48199999999999
 21
0.173
 31
0.0
  0
LINE
  5
2D4
330
A
100
AcDbEntity
  8
PV
  6
Continuous
 62
     7
100
AcDbLine
 10
19.736
 20
0.173
 30
0.0
 11
19.736
 21
0.205
 31
0.0
  0
LINE
  5
2D5
330
A
100
AcDbEntity
  8
PV
  6
Continuous
 62
     7
100
AcDbLine
 10
19.736
 20
0.141
 30
0.0
 11
19.736
 21
0.173
 31
0.0
  0
LINE
  5
2D6
330
A
100
AcDbEntity
  8
PV
  6
Continuous
 62
     7
100
AcDbLine
 10
19.73499999999999
 20
0.109
 30
0.0
 11
19.736
 21
0.141
 31
0.0
  0
LINE
  5
2D7
330
A
100
AcDbEntity
  8
PV
  6
Continuous
 62
     7
100
AcDbLine
 10
19.73499999999999
 20
0.077
 30
0.0
 11
19.73499999999999
 21
0.109
 31
0.0
  0
LINE
  5
2D8
330
A
100
AcDbEntity
  8
PV
  6
Continuous
 62
     7
100
AcDbLine
 10
19.734
 20
0.044
 30
0.0
 11
19.73499999999999
 21
0.077
 31
0.0
  0
LINE
  5
2D9
330
A
100
AcDbEntity
  8
PV
  6
Continuous
 62
     7
100
AcDbLine
 10
19.734
 20
0.012
 30
0.0
 11
19.734
 21
0.044
 31
0.0
  0
LINE
  5
2DA
330
A
100
AcDbEntity
  8
PV
  6
Continuous
 62
     7
100
AcDbLine
 10
19.733
 20
-0.02
 30
0.0
 11
19.734
 21
0.012
 31
0.0
  0
LINE
  5
2DB
330
A
100
AcDbEntity
  8
PV
  6
Continuous
 62
     7
100
AcDbLine
 10
19.732
 20
-0.052
 30
0.0
 11
19.733
 21
-0.02
 31
0.0
  0
LINE
  5
2DC
330
A
100
AcDbEntity
  8
PV
  6
Continuous
 62
     7
100
AcDbLine
 10
19.73099999999999
 20
-0.084
 30
0.0
 11
19.732
 21
-0.052
 31
0.0
  0
LINE
  5
2DD
330
A
100
AcDbEntity
  8
PV
  6
Continuous
 62
     7
100
AcDbLine
 10
19.73
 20
-0.116
 30
0.0
 11
19.73099999999999
 21
-0.084
 31
0.0
  0
LINE
  5
2DE
330
A
100
AcDbEntity
  8
PV
  6
Continuous
 62
     7
100
AcDbLine
 10
19.729
 20
-0.148
 30
0.0
 11
19.73
 21
-0.116
 31
0.0
  0
LINE
  5
2DF
330
A
100
AcDbEntity
  8
PV
  6
Continuous
 62
     7
100
AcDbLine
 10
19.72799999999999
 20
-0.18
 30
0.0
 11
19.729
 21
-0.148
 31
0.0
  0
LINE
  5
2E0
330
A
100
AcDbEntity
  8
PV
  6
Continuous
 62
     7
100
AcDbLine
 10
19.72599999999999
 20
-0.212
 30
0.0
 11
19.72799999999999
 21
-0.18
 31
0.0
  0
LINE
  5
2E1
330
A
100
AcDbEntity
  8
PV
  6
Continuous
 62
     7
100
AcDbLine
 10
19.725
 20
-0.244
 30
0.0
 11
19.72599999999999
 21
-0.212
 31
0.0
  0
LINE
  5
2E2
330
A
100
AcDbEntity
  8
PV
  6
Continuous
 62
     7
100
AcDbLine
 10
19.72299999999999
 20
-0.276
 30
0.0
 11
19.725
 21
-0.244
 31
0.0
  0
LINE
  5
2E3
330
A
100
AcDbEntity
  8
PV
  6
Continuous
 62
     7
100
AcDbLine
 10
19.721
 20
-0.308
 30
0.0
 11
19.72299999999999
 21
-0.276
 31
0.0
  0
LINE
  5
2E4
330
A
100
AcDbEntity
  8
PV
  6
Continuous
 62
     7
100
AcDbLine
 10
19.719
 20
-0.34
 30
0.0
 11
19.721
 21
-0.308
 31
0.0
  0
LINE
  5
2E5
330
A
100
AcDbEntity
  8
PV
  6
Continuous
 62
     7
100
AcDbLine
 10
19.717
 20
-0.3720000000000001
 30
0.0
 11
19.719
 21
-0.34
 31
0.0
  0
LINE
  5
2E6
330
A
100
AcDbEntity
  8
PV
  6
Continuous
 62
     7
100
AcDbLine
 10
19.71499999999999
 20
-0.404
 30
0.0
 11
19.717
 21
-0.3720000000000001
 31
0.0
  0
LINE
  5
2E7
330
A
100
AcDbEntity
  8
PV
  6
Continuous
 62
     7
100
AcDbLine
 10
19.713
 20
-0.4360000000000001
 30
0.0
 11
19.71499999999999
 21
-0.404
 31
0.0
  0
LINE
  5
2E8
330
A
100
AcDbEntity
  8
PV
  6
Continuous
 62
     7
100
AcDbLine
 10
19.71099999999999
 20
-0.468
 30
0.0
 11
19.713
 21
-0.4360000000000001
 31
0.0
  0
LINE
  5
2E9
330
A
100
AcDbEntity
  8
PV
  6
Continuous
 62
     7
100
AcDbLine
 10
19.70799999999999
 20
-0.5
 30
0.0
 11
19.71099999999999
 21
-0.468
 31
0.0
  0
LINE
  5
2EA
330
A
100
AcDbEntity
  8
PV
  6
Continuous
 62
     7
100
AcDbLine
 10
19.706
 20
-0.5320000000000001
 30
0.0
 11
19.70799999999999
 21
-0.5
 31
0.0
  0
LINE
  5
2EB
330
A
100
AcDbEntity
  8
PV
  6
Continuous
 62
     7
100
AcDbLine
 10
19.70299999999999
 20
-0.564
 30
0.0
 11
19.706
 21
-0.5320000000000001
 31
0.0
  0
LINE
  5
2EC
330
A
100
AcDbEntity
  8
PV
  6
Continuous
 62
     7
100
AcDbLine
 10
19.69999999999999
 20
-0.596
 30
0.0
 11
19.70299999999999
 21
-0.564
 31
0.0
  0
LINE
  5
2ED
330
A
100
AcDbEntity
  8
PV
  6
Continuous
 62
     7
100
AcDbLine
 10
19.69699999999999
 20
-0.6280000000000001
 30
0.0
 11
19.69999999999999
 21
-0.596
 31
0.0
  0
LINE
  5
2EE
330
A
100
AcDbEntity
  8
PV
  6
Continuous
 62
     7
100
AcDbLine
 10
19.694
 20
-0.6600000000000001
 30
0.0
 11
19.69699999999999
 21
-0.6280000000000001
 31
0.0
  0
LINE
  5
2EF
330
A
100
AcDbEntity
  8
PV
  6
Continuous
 62
     7
100
AcDbLine
 10
19.691
 20
-0.691
 30
0.0
 11
19.694
 21
-0.6600000000000001
 31
0.0
  0
LINE
  5
2F0
330
A
100
AcDbEntity
  8
PV
  6
Continuous
 62
     7
100
AcDbLine
 10
19.687
 20
-0.723
 30
0.0
 11
19.691
 21
-0.691
 31
0.0
  0
LINE
  5
2F1
330
A
100
AcDbEntity
  8
PV
  6
Continuous
 62
     7
100
AcDbLine
 10
19.684
 20
-0.755
 30
0.0
 11
19.687
 21
-0.723
 31
0.0
  0
LINE
  5
2F2
330
A
100
AcDbEntity
  8
PV
  6
Continuous
 62
     7
100
AcDbLine
 10
19.68099999999999
 20
-0.787
 30
0.0
 11
19.684
 21
-0.755
 31
0.0
  0
LINE
  5
2F3
330
A
100
AcDbEntity
  8
PV
  6
Continuous
 62
     7
100
AcDbLine
 10
19.67699999999999
 20
-0.8190000000000001
 30
0.0
 11
19.68099999999999
 21
-0.787
 31
0.0
  0
LINE
  5
2F4
330
A
100
AcDbEntity
  8
PV
  6
Continuous
 62
     7
100
AcDbLine
 10
19.67299999999999
 20
-0.8509999999999999
 30
0.0
 11
19.67699999999999
 21
-0.8190000000000001
 31
0.0
  0
LINE
  5
2F5
330
A
100
AcDbEntity
  8
PV
  6
Continuous
 62
     7
100
AcDbLine
 10
19.669
 20
-0.883
 30
0.0
 11
19.67299999999999
 21
-0.8509999999999999
 31
0.0
  0
LINE
  5
2F6
330
A
100
AcDbEntity
  8
PV
  6
Continuous
 62
     7
100
AcDbLine
 10
19.66499999999999
 20
-0.914
 30
0.0
 11
19.669
 21
-0.883
 31
0.0
  0
LINE
  5
2F7
330
A
100
AcDbEntity
  8
PV
  6
Continuous
 62
     7
100
AcDbLine
 10
19.66099999999999
 20
-0.9459999999999999
 30
0.0
 11
19.66499999999999
 21
-0.914
 31
0.0
  0
LINE
  5
2F8
330
A
100
AcDbEntity
  8
PV
  6
Continuous
 62
     7
100
AcDbLine
 10
19.657
 20
-0.9779999999999999
 30
0.0
 11
19.66099999999999
 21
-0.9459999999999999
 31
0.0
  0
LINE
  5
2F9
330
A
100
AcDbEntity
  8
PV
  6
Continuous
 62
     7
100
AcDbLine
 10
19.652
 20
-1.01
 30
0.0
 11
19.657
 21
-0.9779999999999999
 31
0.0
  0
LINE
  5
2FA
330
A
100
AcDbEntity
  8
PV
  6
Continuous
 62
     7
100
AcDbLine
 10
19.648
 20
-1.042
 30
0.0
 11
19.652
 21
-1.01
 31
0.0
  0
LINE
  5
2FB
330
A
100
AcDbEntity
  8
PV
  6
Continuous
 62
     7
100
AcDbLine
 10
19.643
 20
-1.072999999999999
 30
0.0
 11
19.648
 21
-1.042
 31
0.0
  0
LINE
  5
2FC
330
A
100
AcDbEntity
  8
PV
  6
Continuous
 62
     7
100
AcDbLine
 10
19.63799999999999
 20
-1.104999999999999
 30
0.0
 11
19.643
 21
-1.072999999999999
 31
0.0
  0
LINE
  5
2FD
330
A
100
AcDbEntity
  8
PV
  6
Continuous
 62
     7
100
AcDbLine
 10
19.633
 20
-1.137
 30
0.0
 11
19.63799999999999
 21
-1.104999999999999
 31
0.0
  0
LINE
  5
2FE
330
A
100
AcDbEntity
  8
PV
  6
Continuous
 62
     7
100
AcDbLine
 10
19.628
 20
-1.167999999999999
 30
0.0
 11
19.633
 21
-1.137
 31
0.0
  0
LINE
  5
2FF
330
A
100
AcDbEntity
  8
PV
  6
Continuous
 62
     7
100
AcDbLine
 10
19.623
 20
-1.199999999999999
 30
0.0
 11
19.628
 21
-1.167999999999999
 31
0.0
  0
LINE
  5
300
330
A
100
AcDbEntity
  8
PV
  6
Continuous
 62
     7
100
AcDbLine
 10
19.618
 20
-1.231999999999999
 30
0.0
 11
19.623
 21
-1.199999999999999
 31
0.0
  0
LINE
  5
301
330
A
100
AcDbEntity
  8
PV
  6
Continuous
 62
     7
100
AcDbLine
 10
19.61299999999999
 20
-1.262999999999999
 30
0.0
 11
19.618
 21
-1.231999999999999
 31
0.0
  0
LINE
  5
302
330
A
100
AcDbEntity
  8
PV
  6
Continuous
 62
     7
100
AcDbLine
 10
19.607
 20
-1.294999999999999
 30
0.0
 11
19.61299999999999
 21
-1.262999999999999
 31
0.0
  0
LINE
  5
303
330
A
100
AcDbEntity
  8
PV
  6
Continuous
 62
     7
100
AcDbLine
 10
19.60099999999999
 20
-1.325999999999999
 30
0.0
 11
19.607
 21
-1.294999999999999
 31
0.0
  0
LINE
  5
304
330
A
100
AcDbEntity
  8
PV
  6
Continuous
 62
     7
100
AcDbLine
 10
19.595
 20
-1.358
 30
0.0
 11
19.60099999999999
 21
-1.325999999999999
 31
0.0
  0
LINE
  5
305
330
A
100
AcDbEntity
  8
PV
  6
Continuous
 62
     7
100
AcDbLine
 10
19.58999999999999
 20
-1.389
 30
0.0
 11
19.595
 21
-1.358
 31
0.0
  0
LINE
  5
306
330
A
100
AcDbEntity
  8
PV
  6
Continuous
 62
     7
100
AcDbLine
 10
19.58299999999999
 20
-1.421
 30
0.0
 11
19.58999999999999
 21
-1.389
 31
0.0
  0
LINE
  5
307
330
A
100
AcDbEntity
  8
PV
  6
Continuous
 62
     7
100
AcDbLine
 10
19.577
 20
-1.451999999999999
 30
0.0
 11
19.58299999999999
 21
-1.421
 31
0.0
  0
LINE
  5
308
330
A
100
AcDbEntity
  8
PV
  6
Continuous
 62
     7
100
AcDbLine
 10
19.57099999999999
 20
-1.483999999999999
 30
0.0
 11
19.577
 21
-1.451999999999999
 31
0.0
  0
LINE
  5
309
330
A
100
AcDbEntity
  8
PV
  6
Continuous
 62
     7
100
AcDbLine
 10
19.564
 20
-1.514999999999999
 30
0.0
 11
19.57099999999999
 21
-1.483999999999999
 31
0.0
  0
LINE
  5
30A
330
A
100
AcDbEntity
  8
PV
  6
Continuous
 62
     7
100
AcDbLine
 10
19.55799999999999
 20
-1.546999999999999
 30
0.0
 11
19.564
 21
-1.514999999999999
 31
0.0
  0
LINE
  5
30B
330
A
100
AcDbEntity
  8
PV
  6
Continuous
 62
     7
100
AcDbLine
 10
19.55099999999999
 20
-1.578
 30
0.0
 11
19.55799999999999
 21
-1.546999999999999
 31
0.0
  0
LINE
  5
30C
330
A
100
AcDbEntity
  8
PV
  6
Continuous
 62
     7
100
AcDbLine
 10
19.544
 20
-1.608999999999999
 30
0.0
 11
19.55099999999999
 21
-1.578
 31
0.0
  0
LINE
  5
30D
330
A
100
AcDbEntity
  8
PV
  6
Continuous
 62
     7
100
AcDbLine
 10
19.53699999999999
 20
-1.639999999999999
 30
0.0
 11
19.544
 21
-1.608999999999999
 31
0.0
  0
LINE
  5
30E
330
A
100
AcDbEntity
  8
PV
  6
Continuous
 62
     7
100
AcDbLine
 10
19.53
 20
-1.671999999999999
 30
0.0
 11
19.53699999999999
 21
-1.639999999999999
 31
0.0
  0
LINE
  5
30F
330
A
100
AcDbEntity
  8
PV
  6
Continuous
 62
     7
100
AcDbLine
 10
19.523
 20
-1.703
 30
0.0
 11
19.53
 21
-1.671999999999999
 31
0.0
  0
LINE
  5
310
330
A
100
AcDbEntity
  8
PV
  6
Continuous
 62
     7
100
AcDbLine
 10
19.515
 20
-1.733999999999999
 30
0.0
 11
19.523
 21
-1.703
 31
0.0
  0
LINE
  5
311
330
A
100
AcDbEntity
  8
PV
  6
Continuous
 62
     7
100
AcDbLine
 10
19.508
 20
-1.764999999999999
 30
0.0
 11
19.515
 21
-1.733999999999999
 31
0.0
  0
LINE
  5
312
330
A
100
AcDbEntity
  8
PV
  6
Continuous
 62
     7
100
AcDbLine
 10
19.5
 20
-1.796
 30
0.0
 11
19.508
 21
-1.764999999999999
 31
0.0
  0
LINE
  5
313
330
A
100
AcDbEntity
  8
PV
  6
Continuous
 62
     7
100
AcDbLine
 10
19.492
 20
-1.828
 30
0.0
 11
19.5
 21
-1.796
 31
0.0
  0
LINE
  5
314
330
A
100
AcDbEntity
  8
PV
  6
Continuous
 62
     7
100
AcDbLine
 10
19.484
 20
-1.858999999999999
 30
0.0
 11
19.492
 21
-1.828
 31
0.0
  0
LINE
  5
315
330
A
100
AcDbEntity
  8
PV
  6
Continuous
 62
     7
100
AcDbLine
 10
19.47599999999999
 20
-1.889999999999999
 30
0.0
 11
19.484
 21
-1.858999999999999
 31
0.0
  0
LINE
  5
316
330
A
100
AcDbEntity
  8
PV
  6
Continuous
 62
     7
100
AcDbLine
 10
19.46799999999999
 20
-1.921
 30
0.0
 11
19.47599999999999
 21
-1.889999999999999
 31
0.0
  0
LINE
  5
317
330
A
100
AcDbEntity
  8
PV
  6
Continuous
 62
     7
100
AcDbLine
 10
19.45899999999999
 20
-1.950999999999999
 30
0.0
 11
19.46799999999999
 21
-1.921
 31
0.0
  0
LINE
  5
318
330
A
100
AcDbEntity
  8
PV
  6
Continuous
 62
     7
100
AcDbLine
 10
19.45
 20
-1.982
 30
0.0
 11
19.45899999999999
 21
-1.950999999999999
 31
0.0
  0
LINE
  5
319
330
A
100
AcDbEntity
  8
PV
  6
Continuous
 62
     7
100
AcDbLine
 10
19.442
 20
-2.012999999999999
 30
0.0
 11
19.45
 21
-1.982
 31
0.0
  0
LINE
  5
31A
330
A
100
AcDbEntity
  8
PV
  6
Continuous
 62
     7
100
AcDbLine
 10
19.43299999999999
 20
-2.044
 30
0.0
 11
19.442
 21
-2.012999999999999
 31
0.0
  0
LINE
  5
31B
330
A
100
AcDbEntity
  8
PV
  6
Continuous
 62
     7
100
AcDbLine
 10
19.424
 20
-2.075
 30
0.0
 11
19.43299999999999
 21
-2.044
 31
0.0
  0
LINE
  5
31C
330
A
100
AcDbEntity
  8
PV
  6
Continuous
 62
     7
100
AcDbLine
 10
19.414
 20
-2.104999999999999
 30
0.0
 11
19.424
 21
-2.075
 31
0.0
  0
LINE
  5
31D
330
A
100
AcDbEntity
  8
PV
  6
Continuous
 62
     7
100
AcDbLine
 10
19.405
 20
-2.136
 30
0.0
 11
19.414
 21
-2.104999999999999
 31
0.0
  0
LINE
  5
31E
330
A
100
AcDbEntity
  8
PV
  6
Continuous
 62
     7
100
AcDbLine
 10
19.39499999999999
 20
-2.166999999999999
 30
0.0
 11
19.405
 21
-2.136
 31
0.0
  0
LINE
  5
31F
330
A
100
AcDbEntity
  8
PV
  6
Continuous
 62
     7
100
AcDbLine
 10
19.385
 20
-2.197
 30
0.0
 11
19.39499999999999
 21
-2.166999999999999
 31
0.0
  0
LINE
  5
320
330
A
100
AcDbEntity
  8
PV
  6
Continuous
 62
     7
100
AcDbLine
 10
19.37599999999999
 20
-2.228
 30
0.0
 11
19.385
 21
-2.197
 31
0.0
  0
LINE
  5
321
330
A
100
AcDbEntity
  8
PV
  6
Continuous
 62
     7
100
AcDbLine
 10
19.36499999999999
 20
-2.258
 30
0.0
 11
19.37599999999999
 21
-2.228
 31
0.0
  0
LINE
  5
322
330
A
100
AcDbEntity
  8
PV
  6
Continuous
 62
     7
100
AcDbLine
 10
19.355
 20
-2.289
 30
0.0
 11
19.36499999999999
 21
-2.258
 31
0.0
  0
LINE
  5
323
330
A
100
AcDbEntity
  8
PV
  6
Continuous
 62
     7
100
AcDbLine
 10
19.34499999999999
 20
-2.318999999999999
 30
0.0
 11
19.355
 21
-2.289
 31
0.0
  0
LINE
  5
324
330
A
100
AcDbEntity
  8
PV
  6
Continuous
 62
     7
100
AcDbLine
 10
19.33399999999999
 20
-2.349
 30
0.0
 11
19.34499999999999
 21
-2.318999999999999
 31
0.0
  0
LINE
  5
325
330
A
100
AcDbEntity
  8
PV
  6
Continuous
 62
     7
100
AcDbLine
 10
19.323
 20
-2.379
 30
0.0
 11
19.33399999999999
 21
-2.349
 31
0.0
  0
LINE
  5
326
330
A
100
AcDbEntity
  8
PV
  6
Continuous
 62
     7
100
AcDbLine
 10
19.312
 20
-2.409
 30
0.0
 11
19.323
 21
-2.379
 31
0.0
  0
LINE
  5
327
330
A
100
AcDbEntity
  8
PV
  6
Continuous
 62
     7
100
AcDbLine
 10
19.30099999999999
 20
-2.439999999999999
 30
0.0
 11
19.312
 21
-2.409
 31
0.0
  0
LINE
  5
328
330
A
100
AcDbEntity
  8
PV
  6
Continuous
 62
     7
100
AcDbLine
 10
19.29
 20
-2.47
 30
0.0
 11
19.30099999999999
 21
-2.439999999999999
 31
0.0
  0
LINE
  5
329
330
A
100
AcDbEntity
  8
PV
  6
Continuous
 62
     7
100
AcDbLine
 10
19.279
 20
-2.499
 30
0.0
 11
19.29
 21
-2.47
 31
0.0
  0
LINE
  5
32A
330
A
100
AcDbEntity
  8
PV
  6
Continuous
 62
     7
100
AcDbLine
 10
19.267
 20
-2.528999999999999
 30
0.0
 11
19.279
 21
-2.499
 31
0.0
  0
LINE
  5
32B
330
A
100
AcDbEntity
  8
PV
  6
Continuous
 62
     7
100
AcDbLine
 10
19.25499999999999
 20
-2.559
 30
0.0
 11
19.267
 21
-2.528999999999999
 31
0.0
  0
LINE
  5
32C
330
A
100
AcDbEntity
  8
PV
  6
Continuous
 62
     7
100
AcDbLine
 10
19.24299999999999
 20
-2.588999999999999
 30
0.0
 11
19.25499999999999
 21
-2.559
 31
0.0
  0
LINE
  5
32D
330
A
100
AcDbEntity
  8
PV
  6
Continuous
 62
     7
100
AcDbLine
 10
19.23099999999999
 20
-2.618
 30
0.0
 11
19.24299999999999
 21
-2.588999999999999
 31
0.0
  0
LINE
  5
32E
330
A
100
AcDbEntity
  8
PV
  6
Continuous
 62
     7
100
AcDbLine
 10
19.218
 20
-2.648
 30
0.0
 11
19.23099999999999
 21
-2.618
 31
0.0
  0
LINE
  5
32F
330
A
100
AcDbEntity
  8
PV
  6
Continuous
 62
     7
100
AcDbLine
 10
19.20499999999999
 20
-2.677
 30
0.0
 11
19.218
 21
-2.648
 31
0.0
  0
LINE
  5
330
330
A
100
AcDbEntity
  8
PV
  6
Continuous
 62
     7
100
AcDbLine
 10
19.192
 20
-2.706999999999999
 30
0.0
 11
19.20499999999999
 21
-2.677
 31
0.0
  0
LINE
  5
331
330
A
100
AcDbEntity
  8
PV
  6
Continuous
 62
     7
100
AcDbLine
 10
19.179
 20
-2.736
 30
0.0
 11
19.192
 21
-2.706999999999999
 31
0.0
  0
LINE
  5
332
330
A
100
AcDbEntity
  8
PV
  6
Continuous
 62
     7
100
AcDbLine
 10
19.166
 20
-2.765
 30
0.0
 11
19.179
 21
-2.736
 31
0.0
  0
LINE
  5
333
330
A
100
AcDbEntity
  8
PV
  6
Continuous
 62
     7
100
AcDbLine
 10
19.152
 20
-2.793999999999999
 30
0.0
 11
19.166
 21
-2.765
 31
0.0
  0
LINE
  5
334
330
A
100
AcDbEntity
  8
PV
  6
Continuous
 62
     7
100
AcDbLine
 10
19.13899999999999
 20
-2.823
 30
0.0
 11
19.152
 21
-2.793999999999999
 31
0.0
  0
LINE
  5
335
330
A
100
AcDbEntity
  8
PV
  6
Continuous
 62
     7
100
AcDbLine
 10
19.125
 20
-2.851999999999999
 30
0.0
 11
19.13899999999999
 21
-2.823
 31
0.0
  0
LINE
  5
336
330
A
100
AcDbEntity
  8
PV
  6
Continuous
 62
     7
100
AcDbLine
 10
19.111
 20
-2.881
 30
0.0
 11
19.125
 21
-2.851999999999999
 31
0.0
  0
LINE
  5
337
330
A
100
AcDbEntity
  8
PV
  6
Continuous
 62
     7
100
AcDbLine
 10
19.096
 20
-2.91
 30
0.0
 11
19.111
 21
-2.881
 31
0.0
  0
LINE
  5
338
330
A
100
AcDbEntity
  8
PV
  6
Continuous
 62
     7
100
AcDbLine
 10
19.081
 20
-2.938
 30
0.0
 11
19.096
 21
-2.91
 31
0.0
  0
LINE
  5
339
330
A
100
AcDbEntity
  8
PV
  6
Continuous
 62
     7
100
AcDbLine
 10
19.066
 20
-2.967
 30
0.0
 11
19.081
 21
-2.938
 31
0.0
  0
LINE
  5
33A
330
A
100
AcDbEntity
  8
PV
  6
Continuous
 62
     7
100
AcDbLine
 10
19.051
 20
-2.995
 30
0.0
 11
19.066
 21
-2.967
 31
0.0
  0
LINE
  5
33B
330
A
100
AcDbEntity
  8
PV
  6
Continuous
 62
     7
100
AcDbLine
 10
19.03599999999999
 20
-3.023
 30
0.0
 11
19.051
 21
-2.995
 31
0.0
  0
LINE
  5
33C
330
A
100
AcDbEntity
  8
PV
  6
Continuous
 62
     7
100
AcDbLine
 10
19.02
 20
-3.051
 30
0.0
 11
19.03599999999999
 21
-3.023
 31
0.0
  0
LINE
  5
33D
330
A
100
AcDbEntity
  8
PV
  6
Continuous
 62
     7
100
AcDbLine
 10
19.004
 20
-3.078999999999999
 30
0.0
 11
19.02
 21
-3.051
 31
0.0
  0
LINE
  5
33E
330
A
100
AcDbEntity
  8
PV
  6
Continuous
 62
     7
100
AcDbLine
 10
18.98799999999999
 20
-3.106999999999999
 30
0.0
 11
19.004
 21
-3.078999999999999
 31
0.0
  0
LINE
  5
33F
330
A
100
AcDbEntity
  8
PV
  6
Continuous
 62
     7
100
AcDbLine
 10
18.972
 20
-3.133999999999999
 30
0.0
 11
18.98799999999999
 21
-3.106999999999999
 31
0.0
  0
LINE
  5
340
330
A
100
AcDbEntity
  8
PV
  6
Continuous
 62
     7
100
AcDbLine
 10
18.955
 20
-3.161999999999999
 30
0.0
 11
18.972
 21
-3.133999999999999
 31
0.0
  0
LINE
  5
341
330
A
100
AcDbEntity
  8
PV
  6
Continuous
 62
     7
100
AcDbLine
 10
18.93799999999999
 20
-3.188999999999999
 30
0.0
 11
18.955
 21
-3.161999999999999
 31
0.0
  0
LINE
  5
342
330
A
100
AcDbEntity
  8
PV
  6
Continuous
 62
     7
100
AcDbLine
 10
18.92
 20
-3.216
 30
0.0
 11
18.93799999999999
 21
-3.188999999999999
 31
0.0
  0
LINE
  5
343
330
A
100
AcDbEntity
  8
PV
  6
Continuous
 62
     7
100
AcDbLine
 10
18.90299999999999
 20
-3.243
 30
0.0
 11
18.92
 21
-3.216
 31
0.0
  0
LINE
  5
344
330
A
100
AcDbEntity
  8
PV
  6
Continuous
 62
     7
100
AcDbLine
 10
18.885
 20
-3.268999999999999
 30
0.0
 11
18.90299999999999
 21
-3.243
 31
0.0
  0
LINE
  5
345
330
A
100
AcDbEntity
  8
PV
  6
Continuous
 62
     7
100
AcDbLine
 10
18.86599999999999
 20
-3.294999999999999
 30
0.0
 11
18.885
 21
-3.268999999999999
 31
0.0
  0
LINE
  5
346
330
A
100
AcDbEntity
  8
PV
  6
Continuous
 62
     7
100
AcDbLine
 10
18.848
 20
-3.322
 30
0.0
 11
18.86599999999999
 21
-3.294999999999999
 31
0.0
  0
LINE
  5
347
330
A
100
AcDbEntity
  8
PV
  6
Continuous
 62
     7
100
AcDbLine
 10
18.829
 20
-3.346999999999999
 30
0.0
 11
18.848
 21
-3.322
 31
0.0
  0
LINE
  5
348
330
A
100
AcDbEntity
  8
PV
  6
Continuous
 62
     7
100
AcDbLine
 10
18.809
 20
-3.373
 30
0.0
 11
18.829
 21
-3.346999999999999
 31
0.0
  0
LINE
  5
349
330
A
100
AcDbEntity
  8
PV
  6
Continuous
 62
     7
100
AcDbLine
 10
18.78999999999999
 20
-3.398
 30
0.0
 11
18.809
 21
-3.373
 31
0.0
  0
LINE
  5
34A
330
A
100
AcDbEntity
  8
PV
  6
Continuous
 62
     7
100
AcDbLine
 10
18.76999999999999
 20
-3.423
 30
0.0
 11
18.78999999999999
 21
-3.398
 31
0.0
  0
LINE
  5
34B
330
A
100
AcDbEntity
  8
PV
  6
Continuous
 62
     7
100
AcDbLine
 10
18.749
 20
-3.447999999999999
 30
0.0
 11
18.76999999999999
 21
-3.423
 31
0.0
  0
MTEXT
  5
34C
330
A
100
AcDbEntity
  8
PV
  6
Continuous
 62
     7
100
AcDbMText
 10
49.293667
 20
-50.795
 30
0.0
 40
4.0
 41
0.0
 71
     2
 72
     1
  1
\A1;124.5～130.5
 11
0.0
 21
1.0
 31
0.0
 73
     1
 44
1.0
  0
LINE
  5
34D
330
A
100
AcDbEntity
  8
PV
  6
Continuous
 62
     7
100
AcDbLine
 10
17.667
 20
-113.295
 30
0.0
 11
56.513
 21
-113.295
 31
0.0
  0
LINE
  5
34E
330
A
100
AcDbEntity
  8
PV
  6
Continuous
 62
     7
100
AcDbLine
 10
19.667
 20
11.205
 30
0.0
 11
56.513
 21
11.205
 31
0.0
  0
LINE
  5
34F
330
A
100
AcDbEntity
  8
PV
  6
Continuous
 62
     7
100
AcDbLine
 10
54.22699999999999
 20
11.205
 30
0.0
 11
54.22699999999999
 21
-113.295
 31
0.0
  0
LINE
  5
350
330
A
100
AcDbEntity
  8
PV
  6
Continuous
 62
     7
100
AcDbLine
 10
54.22699999999999
 20
-113.295
 30
0.0
 11
54.22699999999999
 21
-110.525
 31
0.0
  0
LINE
  5
351
330
A
100
AcDbEntity
  8
PV
  6
Continuous
 62
     7
100
AcDbLine
 10
54.22699999999999
 20
-113.295
 30
0.0
 11
53.485
 21
-110.525
 31
0.0
  0
LINE
  5
352
330
A
100
AcDbEntity
  8
PV
  6
Continuous
 62
     7
100
AcDbLine
 10
54.969
 20
-110.525
 30
0.0
 11
54.22699999999999
 21
-113.295
 31
0.0
  0
LINE
  5
353
330
A
100
AcDbEntity
  8
PV
  6
Continuous
 62
     7
100
AcDbLine
 10
54.22699999999999
 20
11.205
 30
0.0
 11
54.22699999999999
 21
8.435
 31
0.0
  0
LINE
  5
354
330
A
100
AcDbEntity
  8
PV
  6
Continuous
 62
     7
100
AcDbLine
 10
54.22699999999999
 20
11.205
 30
0.0
 11
54.969
 21
8.435
 31
0.0
  0
LINE
  5
355
330
A
100
AcDbEntity
  8
PV
  6
Continuous
 62
     7
100
AcDbLine
 10
53.485
 20
8.435
 30
0.0
 11
54.22699999999999
 21
11.205
 31
0.0
  0
MTEXT
  5
356
330
A
100
AcDbEntity
  8
PV
  6
Continuous
 62
     7
100
AcDbMText
 10
40.99966699999999
 20
-4.294999999999999
 30
0.0
 40
4.0
 41
0.0
 71
     2
 72
     1
  1
\W0.990;\A1;31～37
 11
0.0
 21
1.0
 31
0.0
 73
     1
 44
1.0
  0
LINE
  5
357
330
A
100
AcDbEntity
  8
PV
  6
Continuous
 62
     7
100
AcDbLine
 10
45.933
 20
11.205
 30
0.0
 11
45.933
 21
-19.795
 31
0.0
  0
LINE
  5
358
330
A
100
AcDbEntity
  8
PV
  6
Continuous
 62
     7
100
AcDbLine
 10
45.933
 20
-19.795
 30
0.0
 11
45.933
 21
-17.02499999999999
 31
0.0
  0
LINE
  5
359
330
A
100
AcDbEntity
  8
PV
  6
Continuous
 62
     7
100
AcDbLine
 10
45.933
 20
-19.795
 30
0.0
 11
45.19
 21
-17.02499999999999
 31
0.0
  0
LINE
  5
35A
330
A
100
AcDbEntity
  8
PV
  6
Continuous
 62
     7
100
AcDbLine
 10
46.67499999999999
 20
-17.02499999999999
 30
0.0
 11
45.933
 21
-19.795
 31
0.0
  0
LINE
  5
35B
330
A
100
AcDbEntity
  8
PV
  6
Continuous
 62
     7
100
AcDbLine
 10
45.933
 20
11.205
 30
0.0
 11
45.933
 21
8.435
 31
0.0
  0
LINE
  5
35C
330
A
100
AcDbEntity
  8
PV
  6
Continuous
 62
     7
100
AcDbLine
 10
45.933
 20
11.205
 30
0.0
 11
46.67499999999999
 21
8.435
 31
0.0
  0
LINE
  5
35D
330
A
100
AcDbEntity
  8
PV
  6
Continuous
 62
     7
100
AcDbLine
 10
45.19
 20
8.435
 30
0.0
 11
45.933
 21
11.205
 31
0.0
  0
MTEXT
  5
35E
330
A
100
AcDbEntity
  8
PV
  6
Continuous
 62
     7
100
AcDbMText
 10
26.282667
 20
0.705
 30
0.0
 40
4.0
 41
0.0
 71
     2
 72
     1
  1
\A1;21
 11
0.0
 21
1.0
 31
0.0
 73
     1
 44
1.0
  0
LINE
  5
35F
330
A
100
AcDbEntity
  8
PV
  6
Continuous
 62
     7
100
AcDbLine
 10
24.167
 20
-9.794999999999999
 30
0.0
 11
33.50199999999999
 21
-9.794999999999999
 31
0.0
  0
LINE
  5
360
330
A
100
AcDbEntity
  8
PV
  6
Continuous
 62
     7
100
AcDbLine
 10
31.21599999999999
 20
11.205
 30
0.0
 11
31.21599999999999
 21
-9.794999999999999
 31
0.0
  0
LINE
  5
361
330
A
100
AcDbEntity
  8
PV
  6
Continuous
 62
     7
100
AcDbLine
 10
31.21599999999999
 20
-9.794999999999999
 30
0.0
 11
31.21599999999999
 21
-7.025
 31
0.0
  0
LINE
  5
362
330
A
100
AcDbEntity
  8
PV
  6
Continuous
 62
     7
100
AcDbLine
 10
31.21599999999999
 20
-9.794999999999999
 30
0.0
 11
30.474
 21
-7.025
 31
0.0
  0
LINE
  5
363
330
A
100
AcDbEntity
  8
PV
  6
Continuous
 62
     7
100
AcDbLine
 10
31.958
 20
-7.025
 30
0.0
 11
31.21599999999999
 21
-9.794999999999999
 31
0.0
  0
LINE
  5
364
330
A
100
AcDbEntity
  8
PV
  6
Continuous
 62
     7
100
AcDbLine
 10
31.21599999999999
 20
11.205
 30
0.0
 11
31.21599999999999
 21
8.435
 31
0.0
  0
LINE
  5
365
330
A
100
AcDbEntity
  8
PV
  6
Continuous
 62
     7
100
AcDbLine
 10
31.21599999999999
 20
11.205
 30
0.0
 11
31.958
 21
8.435
 31
0.0
  0
LINE
  5
366
330
A
100
AcDbEntity
  8
PV
  6
Continuous
 62
     7
100
AcDbLine
 10
30.474
 20
8.435
 30
0.0
 11
31.21599999999999
 21
11.205
 31
0.0
  0
MTEXT
  5
367
330
A
100
AcDbEntity
  8
PV
  6
Continuous
 62
     7
100
AcDbMText
 10
0.585
 20
34.494333
 30
0.0
 40
4.0
 41
0.0
 71
     2
 72
     1
  1
\T0.851;\W1.141;\A1;\U+220543
 73
     1
 44
1.0
  0
LINE
  5
368
330
A
100
AcDbEntity
  8
PV
  6
Continuous
 62
     7
100
AcDbLine
 10
21.627
 20
-7.254999999999999
 30
0.0
 11
21.627
 21
31.84699999999999
 31
0.0
  0
LINE
  5
369
330
A
100
AcDbEntity
  8
PV
  6
Continuous
 62
     7
100
AcDbLine
 10
-21.373
 20
-7.254999999999999
 30
0.0
 11
-21.373
 21
31.84699999999999
 31
0.0
  0
LINE
  5
36A
330
A
100
AcDbEntity
  8
PV
  6
Continuous
 62
     7
100
AcDbLine
 10
-21.373
 20
29.561
 30
0.0
 11
21.627
 21
29.561
 31
0.0
  0
LINE
  5
36B
330
A
100
AcDbEntity
  8
PV
  6
Continuous
 62
     7
100
AcDbLine
 10
21.627
 20
29.561
 30
0.0
 11
18.85699999999999
 21
29.561
 31
0.0
  0
LINE
  5
36C
330
A
100
AcDbEntity
  8
PV
  6
Continuous
 62
     7
100
AcDbLine
 10
21.627
 20
29.561
 30
0.0
 11
18.85699999999999
 21
28.819
 31
0.0
  0
LINE
  5
36D
330
A
100
AcDbEntity
  8
PV
  6
Continuous
 62
     7
100
AcDbLine
 10
18.85699999999999
 20
30.303
 30
0.0
 11
21.627
 21
29.561
 31
0.0
  0
LINE
  5
36E
330
A
100
AcDbEntity
  8
PV
  6
Continuous
 62
     7
100
AcDbLine
 10
-21.373
 20
29.561
 30
0.0
 11
-18.60299999999999
 21
29.561
 31
0.0
  0
LINE
  5
36F
330
A
100
AcDbEntity
  8
PV
  6
Continuous
 62
     7
100
AcDbLine
 10
-21.373
 20
29.561
 30
0.0
 11
-18.60299999999999
 21
30.303
 31
0.0
  0
LINE
  5
370
330
A
100
AcDbEntity
  8
PV
  6
Continuous
 62
     7
100
AcDbLine
 10
-18.60299999999999
 20
28.819
 30
0.0
 11
-21.373
 21
29.561
 31
0.0
  0
MTEXT
  5
371
330
A
100
AcDbEntity
  8
PV
  6
Continuous
 62
     7
100
AcDbMText
 10
33.59366599999999
 20
-0.75
 30
0.0
 40
4.0
 41
0.0
 71
     2
 72
     1
  1
\A1;7～13
 11
0.0
 21
1.0
 31
0.0
 73
     1
 44
1.0
  0
LINE
  5
372
330
A
100
AcDbEntity
  8
PV
  6
Continuous
 62
     7
100
AcDbLine
 10
38.527
 20
-9.073999999999999
 30
0.0
 11
38.527
 21
7.034811
 31
0.0
  0
LINE
  5
373
330
A
100
AcDbEntity
  8
PV
  6
Continuous
 62
     7
100
AcDbLine
 10
31.21599999999999
 20
-13.295
 30
0.0
 11
38.527
 21
-9.073999999999999
 31
0.0
  0
LINE
  5
374
330
A
100
AcDbEntity
  8
PV
  6
Continuous
 62
     7
100
AcDbLine
 10
18.167
 20
-16.795
 30
0.0
 11
33.50199999999999
 21
-16.795
 31
0.0
  0
LINE
  5
375
330
A
100
AcDbEntity
  8
PV
  6
Continuous
 62
     7
100
AcDbLine
 10
31.21599999999999
 20
-9.794999999999999
 30
0.0
 11
31.21599999999999
 21
-16.795
 31
0.0
  0
LINE
  5
376
330
A
100
AcDbEntity
  8
PV
  6
Continuous
 62
     7
100
AcDbLine
 10
31.21599999999999
 20
-16.795
 30
0.0
 11
31.21599999999999
 21
-14.025
 31
0.0
  0
LINE
  5
377
330
A
100
AcDbEntity
  8
PV
  6
Continuous
 62
     7
100
AcDbLine
 10
31.21599999999999
 20
-16.795
 30
0.0
 11
30.474
 21
-14.025
 31
0.0
  0
LINE
  5
378
330
A
100
AcDbEntity
  8
PV
  6
Continuous
 62
     7
100
AcDbLine
 10
31.958
 20
-14.025
 30
0.0
 11
31.21599999999999
 21
-16.795
 31
0.0
  0
LINE
  5
379
330
A
100
AcDbEntity
  8
PV
  6
Continuous
 62
     7
100
AcDbLine
 10
31.21599999999999
 20
-9.794999999999999
 30
0.0
 11
31.21599999999999
 21
-12.56499999999999
 31
0.0
  0
LINE
  5
37A
330
A
100
AcDbEntity
  8
PV
  6
Continuous
 62
     7
100
AcDbLine
 10
31.21599999999999
 20
-9.794999999999999
 30
0.0
 11
31.958
 21
-12.56499999999999
 31
0.0
  0
LINE
  5
37B
330
A
100
AcDbEntity
  8
PV
  6
Continuous
 62
     7
100
AcDbLine
 10
30.474
 20
-12.56499999999999
 30
0.0
 11
31.21599999999999
 21
-9.794999999999999
 31
0.0
  0
LINE
  5
37C
330
A
100
AcDbEntity
  8
PV
  6
Continuous
 62
     7
100
AcDbLine
 10
31.21599999999999
 20
-13.295
 30
0.0
 11
33.615
 21
-11.91
 31
0.0
  0
LINE
  5
37D
330
A
100
AcDbEntity
  8
PV
  6
Continuous
 62
     7
100
AcDbLine
 10
31.21599999999999
 20
-13.295
 30
0.0
 11
33.244
 21
-11.267
 31
0.0
  0
LINE
  5
37E
330
A
100
AcDbEntity
  8
PV
  6
Continuous
 62
     7
100
AcDbLine
 10
33.986
 20
-12.553
 30
0.0
 11
31.21599999999999
 21
-13.295
 31
0.0
  0
MTEXT
  5
37F
330
A
100
AcDbEntity
  8
PV
  6
Continuous
 62
     7
100
AcDbMText
 10
29.44066599999999
 20
80.211
 30
0.0
 40
4.0
 41
0.0
 71
     2
 72
     1
  1
\T0.797;\W1.216;\A1;□47
 11
0.0
 21
1.0
 31
0.0
 73
     1
 44
1.0
  0
LINE
  5
380
330
A
100
AcDbEntity
  8
PV
  6
Continuous
 62
     7
100
AcDbLine
 10
22.16699999999999
 20
56.711
 30
0.0
 11
36.65999999999999
 21
56.711
 31
0.0
  0
LINE
  5
381
330
A
100
AcDbEntity
  8
PV
  6
Continuous
 62
     7
100
AcDbLine
 10
22.16699999999999
 20
103.7109999999999
 30
0.0
 11
36.65999999999999
 21
103.7109999999999
 31
0.0
  0
LINE
  5
382
330
A
100
AcDbEntity
  8
PV
  6
Continuous
 62
     7
100
AcDbLine
 10
34.374
 20
103.7109999999999
 30
0.0
 11
34.374
 21
56.711
 31
0.0
  0
LINE
  5
383
330
A
100
AcDbEntity
  8
PV
  6
Continuous
 62
     7
100
AcDbLine
 10
34.374
 20
56.711
 30
0.0
 11
34.374
 21
59.481
 31
0.0
  0
LINE
  5
384
330
A
100
AcDbEntity
  8
PV
  6
Continuous
 62
     7
100
AcDbLine
 10
34.374
 20
56.711
 30
0.0
 11
33.63199999999999
 21
59.481
 31
0.0
  0
LINE
  5
385
330
A
100
AcDbEntity
  8
PV
  6
Continuous
 62
     7
100
AcDbLine
 10
35.116
 20
59.481
 30
0.0
 11
34.374
 21
56.711
 31
0.0
  0
LINE
  5
386
330
A
100
AcDbEntity
  8
PV
  6
Continuous
 62
     7
100
AcDbLine
 10
34.374
 20
103.7109999999999
 30
0.0
 11
34.374
 21
100.941
 31
0.0
  0
LINE
  5
387
330
A
100
AcDbEntity
  8
PV
  6
Continuous
 62
     7
100
AcDbLine
 10
34.374
 20
103.7109999999999
 30
0.0
 11
35.116
 21
100.941
 31
0.0
  0
LINE
  5
388
330
A
100
AcDbEntity
  8
PV
  6
Continuous
 62
     7
100
AcDbLine
 10
33.63199999999999
 20
100.941
 30
0.0
 11
34.374
 21
103.7109999999999
 31
0.0
  0
MTEXT
  5
389
330
A
100
AcDbEntity
  8
PV
  6
Continuous
 62
     7
100
AcDbMText
 10
-8.122999999999999
 20
120.742333
 30
0.0
 40
4.0
 41
0.0
 71
     2
 72
     1
  1
\A1;63.5
 73
     1
 44
1.0
  0
LINE
  5
38A
330
A
100
AcDbEntity
  8
PV
  6
Continuous
 62
     7
100
AcDbLine
 10
23.62699999999999
 20
102.251
 30
0.0
 11
23.62699999999999
 21
118.0949999999999
 31
0.0
  0
LINE
  5
38B
330
A
100
AcDbEntity
  8
PV
  6
Continuous
 62
     7
100
AcDbLine
 10
-39.873
 20
97.75100000000001
 30
0.0
 11
-39.873
 21
118.0949999999999
 31
0.0
  0
LINE
  5
38C
330
A
100
AcDbEntity
  8
PV
  6
Continuous
 62
     7
100
AcDbLine
 10
-39.873
 20
115.809
 30
0.0
 11
23.62699999999999
 21
115.809
 31
0.0
  0
LINE
  5
38D
330
A
100
AcDbEntity
  8
PV
  6
Continuous
 62
     7
100
AcDbLine
 10
23.62699999999999
 20
115.809
 30
0.0
 11
20.857
 21
115.809
 31
0.0
  0
LINE
  5
38E
330
A
100
AcDbEntity
  8
PV
  6
Continuous
 62
     7
100
AcDbLine
 10
23.62699999999999
 20
115.809
 30
0.0
 11
20.857
 21
115.067
 31
0.0
  0
LINE
  5
38F
330
A
100
AcDbEntity
  8
PV
  6
Continuous
 62
     7
100
AcDbLine
 10
20.857
 20
116.551
 30
0.0
 11
23.62699999999999
 21
115.809
 31
0.0
  0
LINE
  5
390
330
A
100
AcDbEntity
  8
PV
  6
Continuous
 62
     7
100
AcDbLine
 10
-39.873
 20
115.809
 30
0.0
 11
-37.103
 21
115.809
 31
0.0
  0
LINE
  5
391
330
A
100
AcDbEntity
  8
PV
  6
Continuous
 62
     7
100
AcDbLine
 10
-39.873
 20
115.809
 30
0.0
 11
-37.103
 21
116.551
 31
0.0
  0
LINE
  5
392
330
A
100
AcDbEntity
  8
PV
  6
Continuous
 62
     7
100
AcDbLine
 10
-37.103
 20
115.067
 30
0.0
 11
-39.873
 21
115.809
 31
0.0
  0
ENDSEC
  0
SECTION
  2
OBJECTS
  0
DICTIONARY
  5
19
330
0
100
AcDbDictionary
281
     1
  3
ACAD_GROUP
350
1A
  3
ACAD_LAYOUT
350
1E
  3
ACAD_MLINESTYLE
350
1B
  3
ACAD_PLOTSETTINGS
350
22
  3
ACAD_PLOTSTYLENAME
350
1F
  0
DICTIONARY
  5
1A
102
{ACAD_REACTORS
330
19
102
}
330
19
100
AcDbDictionary
281
     1
  0
DICTIONARY
  5
1E
102
{ACAD_REACTORS
330
19
102
}
330
19
100
AcDbDictionary
281
     1
  3
Layout1
350
21
  3
Model
350
20
  0
DICTIONARY
  5
1B
102
{ACAD_REACTORS
330
19
102
}
330
19
100
AcDbDictionary
281
     1
  3
Standard
350
1C
  0
DICTIONARY
  5
22
102
{ACAD_REACTORS
330
19
102
}
330
19
100
AcDbDictionary
281
     1
  0
ACDBDICTIONARYWDFLT
  5
1F
102
{ACAD_REACTORS
330
19
102
}
330
19
100
AcDbDictionary
281
     1
  3
Normal
350
1D
100
AcDbDictionaryWithDefault
340
1D
  0
LAYOUT
  5
21
102
{ACAD_REACTORS
330
1E
102
}
330
1E
100
AcDbPlotSettings
  1

  2

  4

  6

 40
0.0
 41
0.0
 42
0.0
 43
0.0
 44
0.0
 45
0.0
 46
0.0
 47
0.0
 48
0.0
 49
0.0
140
0.0
141
0.0
142
1.0
143
1.0
 70
     0
 72
     0
 73
     0
 74
     0
  7

 75
     0
147
1.0
148
0.0
149
0.0
100
AcDbLayout
  1
Layout1
 70
     0
 71
     1
 10
0.0
 20
0.0
 11
12.0
 21
9.0
 12
0.0
 22
0.0
 32
0.0
 14
1.000000000000000E+20
 24
1.000000000000000E+20
 34
1.000000000000000E+20
 15
-1.000000000000000E+20
 25
-1.000000000000000E+20
 35
-1.000000000000000E+20
146
0.0
 13
0.0
 23
0.0
 33
0.0
 16
1.0
 26
0.0
 36
0.0
 17
0.0
 27
1.0
 37
0.0
 76
     0
330
B
  0
LAYOUT
  5
20
102
{ACAD_REACTORS
330
1E
102
}
330
1E
100
AcDbPlotSettings
  1

  2
Adobe PDF
  4
A4
  6

 40
3.174999952316284
 41
3.174999952316284
 42
3.175003051757812
 43
3.17498779296875
 44
209.9098358154297
 45
297.0318298339843
 46
34.93999999999999
 47
0.0
 48
0.0
 49
0.0
140
0.0
141
0.0
142
1.0
143
0.8836591379575061
 70
 11284
 72
     1
 73
     0
 74
     2
  7

 75
     0
147
1.131658076112249
148
61.614666
149
134.7879999999999
100
AcDbLayout
  1
Model
 70
     0
 71
     0
 10
0.0
 20
0.0
 11
0.0
 21
0.0
 12
0.0
 22
0.0
 32
0.0
 14
0.0
 24
0.0
 34
0.0
 15
0.0
 25
0.0
 35
0.0
146
0.0
 13
0.0
 23
0.0
 33
0.0
 16
0.0
 26
0.0
 36
0.0
 17
0.0
 27
0.0
 37
0.0
 76
     0
330
A
  0
MLINESTYLE
  5
1C
102
{ACAD_REACTORS
330
1B
102
}
330
1B
100
AcDbMlineStyle
  2
STANDARD
 70
     0
  3

 62
     0
 51
90.0
 52
90.0
 71
     2
 49
0.5
 62
   256
  6
BYLAYER
 49
-0.5
 62
   256
  6
BYLAYER
  0
ACDBPLACEHOLDER
  5
1D
102
{ACAD_REACTORS
330
1F
102
}
330
1F
  0
ENDSEC
  0
EOF
