  0
SECTION
  2
HEADER
  9
$ACADVER
  1
AC1015
  9
$ACADMAINTVER
 70
    10
  9
$DWGCODEPAGE
  3
ANSI_932
  9
$INSBASE
 10
0.0
 20
0.0
 30
0.0
  9
$EXTMIN
 10
-186.4536206666115
 20
-121.1018111003741
 30
-0.0015258207003583
  9
$EXTMAX
 10
23.27802638651985
 20
133.5594899112816
 30
0.0000000349246037
  9
$LIMMIN
 10
-187.7836659999999
 20
-121.0939999999999
  9
$LIMMAX
 10
23.271585
 20
134.8796659999999
  9
$ORTHOMODE
 70
     0
  9
$REGENMODE
 70
     1
  9
$FILLMODE
 70
     1
  9
$QTEXTMODE
 70
     0
  9
$MIRRTEXT
 70
     1
  9
$LTSCALE
 40
0.1
  9
$ATTMODE
 70
     1
  9
$TEXTSIZE
 40
3.2
  9
$TRACEWID
 40
0.05
  9
$TEXTSTYLE
  7
MX_NOTE_STANDARD
  9
$CLAYER
  8
0
  9
$CELTYPE
  6
CONTINUOUS
  9
$CECOLOR
 62
   256
  9
$CELTSCALE
 40
1.0
  9
$DISPSILH
 70
     0
  9
$DIMSCALE
 40
1.0
  9
$DIMASZ
 40
2.5
  9
$DIMEXO
 40
2.54
  9
$DIMDLI
 40
3.75
  9
$DIMRND
 40
0.0
  9
$DIMDLE
 40
0.0
  9
$DIMEXE
 40
2.286
  9
$DIMTP
 40
0.0
  9
$DIMTM
 40
0.0
  9
$DIMTXT
 40
3.2
  9
$DIMCEN
 40
2.5
  9
$DIMTSZ
 40
0.0
  9
$DIMTOL
 70
     0
  9
$DIMLIM
 70
     0
  9
$DIMTIH
 70
     0
  9
$DIMTOH
 70
     0
  9
$DIMSE1
 70
     0
  9
$DIMSE2
 70
     0
  9
$DIMTAD
 70
     1
  9
$DIMZIN
 70
     8
  9
$DIMBLK
  1

  9
$DIMASO
 70
     1
  9
$DIMSHO
 70
     1
  9
$DIMPOST
  1

  9
$DIMAPOST
  1

  9
$DIMALT
 70
     0
  9
$DIMALTD
 70
     4
  9
$DIMALTF
 40
0.03937
  9
$DIMLFAC
 40
1.0
  9
$DIMTOFL
 70
     1
  9
$DIMTVP
 40
0.0
  9
$DIMTIX
 70
     0
  9
$DIMSOXD
 70
     0
  9
$DIMSAH
 70
     1
  9
$DIMBLK1
  1
OPEN30
  9
$DIMBLK2
  1
OPEN30
  9
$DIMSTYLE
  2
MXDIMSTYLE
  9
$DIMCLRD
 70
     0
  9
$DIMCLRE
 70
     0
  9
$DIMCLRT
 70
     0
  9
$DIMTFAC
 40
1.0
  9
$DIMGAP
 40
1.0
  9
$DIMJUST
 70
     0
  9
$DIMSD1
 70
     0
  9
$DIMSD2
 70
     0
  9
$DIMTOLJ
 70
     0
  9
$DIMTZIN
 70
     0
  9
$DIMALTZ
 70
     0
  9
$DIMALTTZ
 70
     0
  9
$DIMUPT
 70
     1
  9
$DIMDEC
 70
     2
  9
$DIMTDEC
 70
     2
  9
$DIMALTU
 70
     2
  9
$DIMALTTD
 70
     4
  9
$DIMTXSTY
  7
MX_NOTE_STANDARD
  9
$DIMAUNIT
 70
     0
  9
$DIMADEC
 70
     0
  9
$DIMALTRND
 40
0.0
  9
$DIMAZIN
 70
     0
  9
$DIMDSEP
 70
    46
  9
$DIMATFIT
 70
     3
  9
$DIMFRAC
 70
     0
  9
$DIMLDRBLK
  1
OPEN30
  9
$DIMLUNIT
 70
     2
  9
$DIMLWD
 70
    -2
  9
$DIMLWE
 70
    -2
  9
$DIMTMOVE
 70
     0
  9
$LUNITS
 70
     2
  9
$LUPREC
 70
     4
  9
$SKETCHINC
 40
0.1
  9
$FILLETRAD
 40
0.0
  9
$AUNITS
 70
     0
  9
$AUPREC
 70
     0
  9
$MENU
  1
acad
  9
$ELEVATION
 40
0.0
  9
$PELEVATION
 40
0.0
  9
$THICKNESS
 40
0.0
  9
$LIMCHECK
 70
     0
  9
$CHAMFERA
 40
0.0
  9
$CHAMFERB
 40
0.0
  9
$CHAMFERC
 40
0.0
  9
$CHAMFERD
 40
0.0
  9
$SKPOLY
 70
     0
  9
$TDCREATE
 40
2455288.588111863
  9
$TDUCREATE
 40
2455288.213111863
  9
$TDUPDATE
 40
2455288.591062257
  9
$TDUUPDATE
 40
2455288.216062256
  9
$TDINDWG
 40
0.0029523727
  9
$TDUSRTIMER
 40
0.0029521991
  9
$USRTIMER
 70
     1
  9
$ANGBASE
 50
0.0
  9
$ANGDIR
 70
     0
  9
$PDMODE
 70
     0
  9
$PDSIZE
 40
0.0
  9
$PLINEWID
 40
0.0
  9
$SPLFRAME
 70
     0
  9
$SPLINETYPE
 70
     6
  9
$SPLINESEGS
 70
     8
  9
$HANDSEED
  5
2BD
  9
$SURFTAB1
 70
     6
  9
$SURFTAB2
 70
     6
  9
$SURFTYPE
 70
     6
  9
$SURFU
 70
     6
  9
$SURFV
 70
     6
  9
$UCSBASE
  2

  9
$UCSNAME
  2

  9
$UCSORG
 10
0.0
 20
0.0
 30
0.0
  9
$UCSXDIR
 10
1.0
 20
0.0
 30
0.0
  9
$UCSYDIR
 10
0.0
 20
1.0
 30
0.0
  9
$UCSORTHOREF
  2

  9
$UCSORTHOVIEW
 70
     0
  9
$UCSORGTOP
 10
0.0
 20
0.0
 30
0.0
  9
$UCSORGBOTTOM
 10
0.0
 20
0.0
 30
0.0
  9
$UCSORGLEFT
 10
0.0
 20
0.0
 30
0.0
  9
$UCSORGRIGHT
 10
0.0
 20
0.0
 30
0.0
  9
$UCSORGFRONT
 10
0.0
 20
0.0
 30
0.0
  9
$UCSORGBACK
 10
0.0
 20
0.0
 30
0.0
  9
$PUCSBASE
  2

  9
$PUCSNAME
  2

  9
$PUCSORG
 10
0.0
 20
0.0
 30
0.0
  9
$PUCSXDIR
 10
1.0
 20
0.0
 30
0.0
  9
$PUCSYDIR
 10
0.0
 20
1.0
 30
0.0
  9
$PUCSORTHOREF
  2

  9
$PUCSORTHOVIEW
 70
     0
  9
$PUCSORGTOP
 10
0.0
 20
0.0
 30
0.0
  9
$PUCSORGBOTTOM
 10
0.0
 20
0.0
 30
0.0
  9
$PUCSORGLEFT
 10
0.0
 20
0.0
 30
0.0
  9
$PUCSORGRIGHT
 10
0.0
 20
0.0
 30
0.0
  9
$PUCSORGFRONT
 10
0.0
 20
0.0
 30
0.0
  9
$PUCSORGBACK
 10
0.0
 20
0.0
 30
0.0
  9
$USERI1
 70
     0
  9
$USERI2
 70
     0
  9
$USERI3
 70
     0
  9
$USERI4
 70
     0
  9
$USERI5
 70
     0
  9
$USERR1
 40
0.0
  9
$USERR2
 40
0.0
  9
$USERR3
 40
0.0
  9
$USERR4
 40
0.0
  9
$USERR5
 40
0.0
  9
$WORLDVIEW
 70
     1
  9
$SHADEDGE
 70
     3
  9
$SHADEDIF
 70
    70
  9
$TILEMODE
 70
     1
  9
$MAXACTVP
 70
    16
  9
$PINSBASE
 10
0.0
 20
0.0
 30
0.0
  9
$PLIMCHECK
 70
     0
  9
$PEXTMIN
 10
1.000000000000000E+20
 20
1.000000000000000E+20
 30
1.000000000000000E+20
  9
$PEXTMAX
 10
-1.000000000000000E+20
 20
-1.000000000000000E+20
 30
-1.000000000000000E+20
  9
$PLIMMIN
 10
0.0
 20
0.0
  9
$PLIMMAX
 10
12.0
 20
9.0
  9
$UNITMODE
 70
     0
  9
$VISRETAIN
 70
     0
  9
$PLINEGEN
 70
     1
  9
$PSLTSCALE
 70
     0
  9
$TREEDEPTH
 70
  3020
  9
$CMLSTYLE
  2
Standard
  9
$CMLJUST
 70
     0
  9
$CMLSCALE
 40
1.0
  9
$PROXYGRAPHICS
 70
     0
  9
$MEASUREMENT
 70
     1
  9
$CELWEIGHT
370
     0
  9
$ENDCAPS
280
     0
  9
$JOINSTYLE
280
     0
  9
$LWDISPLAY
290
     0
  9
$INSUNITS
 70
     0
  9
$HYPERLINKBASE
  1

  9
$STYLESHEET
  1

  9
$XEDIT
290
     1
  9
$CEPSNTYPE
380
     0
  9
$PSTYLEMODE
290
     1
  9
$FINGERPRINTGUID
  2

  9
$VERSIONGUID
  2
{310CD14C-9C92-48E6-ABAB-1B93ABBA855B}
  9
$EXTNAMES
290
     1
  9
$PSVPSCALE
 40
0.0
  9
$OLESTARTUP
290
     0
  0
ENDSEC
  0
SECTION
  2
CLASSES
  0
CLASS
  1
LWPOLYLINE
  2
AcDbPolyline
  3
AutoCAD 2000
 90
    32768
280
     0
281
     1
  0
CLASS
  1
IMAGE
  2
AcDbRasterImage
  3
ISM
 90
    32895
280
     0
281
     1
  0
CLASS
  1
OLE2FRAME
  2
AcDbOle2Frame
  3
AutoCAD 2000
 90
    32768
280
     0
281
     1
  0
CLASS
  1
HATCH
  2
AcDbHatch
  3
AutoCAD 2000
 90
    32768
280
     0
281
     1
  0
CLASS
  1
DICTIONARYVAR
  2
AcDbDictionaryVar
  3
AutoCAD 2000
 90
    32768
280
     0
281
     0
  0
CLASS
  1
RASTERVARIABLES
  2
AcDbRasterVariables
  3
ISM
 90
    32768
280
     0
281
     0
  0
CLASS
  1
IMAGEDEF
  2
AcDbRasterImageDef
  3
ISM
 90
    32768
280
     0
281
     0
  0
CLASS
  1
IMAGEDEF_REACTOR
  2
AcDbRasterImageDefReactor
  3
ISM
 90
    32769
280
     0
281
     0
  0
CLASS
  1
IDBUFFER
  2
AcDbIdBuffer
  3
AutoCAD 2000
 90
    32768
280
     0
281
     0
  0
CLASS
  1
SPATIAL_FILTER
  2
AcDbSpatialFilter
  3
AutoCAD 2000
 90
    32768
280
     0
281
     0
  0
CLASS
  1
XRECORD
  2
AcDbXrecord
  3
AutoCAD 2000
 90
    32768
280
     0
281
     0
  0
CLASS
  1
SORTENTSTABLE
  2
AcDbSortentsTable
  3
AutoCAD 2000
 90
    32768
280
     0
281
     0
  0
CLASS
  1
LAYER_INDEX
  2
AcDbLayerIndex
  3
AutoCAD 2000
 90
    32768
280
     0
281
     0
  0
CLASS
  1
SPATIAL_INDEX
  2
AcDbSpatialIndex
  3
AutoCAD 2000
 90
    32768
280
     0
281
     0
  0
CLASS
  1
OBJECT_PTR
  2
CAseDLPNTableRecord
  3
"ASE-LPNTableRecord"
 90
    32769
280
     0
281
     0
  0
CLASS
  1
LAYOUT
  2
AcDbLayout
  3
AutoCAD 2000
 90
        0
280
     0
281
     0
  0
CLASS
  1
PLOTSETTINGS
  2
AcDbPlotSettings
  3
AutoCAD 2000
 90
    32768
280
     0
281
     0
  0
CLASS
  1
ACDBDICTIONARYWDFLT
  2
AcDbDictionaryWithDefault
  3
AutoCAD 2000
 90
        0
280
     0
281
     0
  0
CLASS
  1
ACDBPLACEHOLDER
  2
AcDbPlaceHolder
  3
AutoCAD 2000
 90
        0
280
     0
281
     0
  0
ENDSEC
  0
SECTION
  2
TABLES
  0
TABLE
  2
VPORT
  5
7
330
0
100
AcDbSymbolTable
 70
     2
  0
VPORT
  5
2BC
330
7
100
AcDbSymbolTableRecord
100
AcDbViewportTableRecord
  2
*Active
 70
     0
 10
0.0
 20
0.0
 11
1.0
 21
1.0
 12
-82.25604100000003
 22
29.01924794078843
 13
0.0
 23
0.0
 14
1.0
 24
1.0
 15
0.0
 25
0.0
 16
0.0
 26
0.0
 36
1.0
 17
0.0
 27
0.0
 37
0.0
 40
302.8602012876047
 41
1.14516129032258
 42
50.0
 43
0.0
 44
0.0
 50
0.0
 51
0.0
 71
     0
 72
   100
 73
     1
 74
     1
 75
     0
 76
     0
 77
     0
 78
     0
281
     0
 65
     0
110
0.0
120
0.0
130
0.0
111
1.0
121
0.0
131
0.0
112
0.0
122
1.0
132
0.0
 79
     0
146
0.0
  0
ENDTAB
  0
TABLE
  2
LTYPE
  5
4
330
0
100
AcDbSymbolTable
 70
     2
  0
LTYPE
  5
11
330
4
100
AcDbSymbolTableRecord
100
AcDbLinetypeTableRecord
  2
BYBLOCK
 70
     0
  3

 72
    65
 73
     0
 40
0.0
  0
LTYPE
  5
12
330
4
100
AcDbSymbolTableRecord
100
AcDbLinetypeTableRecord
  2
BYLAYER
 70
     0
  3

 72
    65
 73
     0
 40
0.0
  0
LTYPE
  5
13
330
4
100
AcDbSymbolTableRecord
100
AcDbLinetypeTableRecord
  2
CONTINUOUS
 70
     0
  3
Solid line
 72
    65
 73
     0
 40
0.0
  0
LTYPE
  5
227
330
4
100
AcDbSymbolTableRecord
100
AcDbLinetypeTableRecord
  2
CENTER
 70
     0
  3
Center ____ _ ____ _ ____ _ ____ _ ____ _ ____
 72
    65
 73
     4
 40
50.8
 49
31.75
 74
     0
 49
-6.349999999999999
 74
     0
 49
6.349999999999999
 74
     0
 49
-6.349999999999999
 74
     0
  0
ENDTAB
  0
TABLE
  2
LAYER
  5
2
330
0
100
AcDbSymbolTable
 70
     5
  0
LAYER
  5
14
330
2
100
AcDbSymbolTableRecord
100
AcDbLayerTableRecord
  2
0
 70
     0
 62
     7
  6
CONTINUOUS
370
    -3
390
1D
  0
LAYER
  5
23
330
2
100
AcDbSymbolTableRecord
100
AcDbLayerTableRecord
  2
AV
 70
     0
 62
     7
  6
CONTINUOUS
370
    -3
390
1D
  0
LAYER
  5
24
330
2
100
AcDbSymbolTableRecord
100
AcDbLayerTableRecord
  2
DEFPOINTS
 70
     0
 62
     7
  6
CONTINUOUS
290
     0
370
    -3
390
1D
  0
LAYER
  5
25
330
2
100
AcDbSymbolTableRecord
100
AcDbLayerTableRecord
  2
PV
 70
     0
 62
     7
  6
CONTINUOUS
370
    -3
390
1D
  0
LAYER
  5
26
330
2
100
AcDbSymbolTableRecord
100
AcDbLayerTableRecord
  2
WV
 70
     0
 62
     7
  6
CONTINUOUS
370
    -3
390
1D
  0
ENDTAB
  0
TABLE
  2
STYLE
  5
3
330
0
100
AcDbSymbolTable
 70
     2
  0
STYLE
  5
17
330
3
100
AcDbSymbolTableRecord
100
AcDbTextStyleTableRecord
  2
MX_NOTE_STANDARD
 70
     0
 40
0.0
 41
1.0
 50
0.0
 71
     0
 42
3.2
  3
txt.shx
  4
extfont.shx
  0
STYLE
  5
2B8
330
3
100
AcDbSymbolTableRecord
100
AcDbTextStyleTableRecord
  2
Standard
 70
     0
 40
0.0
 41
1.0
 50
0.0
 71
     0
 42
0.2
  3

  4

  0
ENDTAB
  0
TABLE
  2
VIEW
  5
5
330
0
100
AcDbSymbolTable
 70
     0
  0
ENDTAB
  0
TABLE
  2
UCS
  5
6
330
0
100
AcDbSymbolTable
 70
     0
  0
ENDTAB
  0
TABLE
  2
APPID
  5
8
330
0
100
AcDbSymbolTable
 70
     1
  0
APPID
  5
16
330
8
100
AcDbSymbolTableRecord
100
AcDbRegAppTableRecord
  2
ACAD
 70
     0
  0
ENDTAB
  0
TABLE
  2
DIMSTYLE
  5
9
330
0
100
AcDbSymbolTable
 70
     1
100
AcDbDimStyleTable
 71
     0
  0
DIMSTYLE
105
18
330
9
100
AcDbSymbolTableRecord
100
AcDbDimStyleTableRecord
  2
MXDIMSTYLE
 70
     0
 41
2.5
 42
2.54
 43
3.75
 44
2.286
 73
     0
 74
     0
 77
     1
 78
     8
140
3.2
141
2.5
143
0.03937
147
1.0
171
     4
172
     1
173
     1
271
     2
272
     2
274
     4
283
     0
288
     1
340
17
341
27
343
27
344
27
  0
ENDTAB
  0
TABLE
  2
BLOCK_RECORD
  5
1
330
0
100
AcDbSymbolTable
 70
     1
  0
BLOCK_RECORD
  5
A
330
1
100
AcDbSymbolTableRecord
100
AcDbBlockTableRecord
  2
*MODEL_SPACE
340
20
  0
BLOCK_RECORD
  5
B
330
1
100
AcDbSymbolTableRecord
100
AcDbBlockTableRecord
  2
*PAPER_SPACE
340
21
  0
BLOCK_RECORD
  5
27
330
1
100
AcDbSymbolTableRecord
100
AcDbBlockTableRecord
  2
_OPEN30
340
0
  0
ENDTAB
  0
ENDSEC
  0
SECTION
  2
BLOCKS
  0
BLOCK
  5
D
330
A
100
AcDbEntity
  8
0
100
AcDbBlockBegin
  2
*MODEL_SPACE
 70
     0
 10
0.0
 20
0.0
 30
0.0
  3
*MODEL_SPACE
  1

  0
ENDBLK
  5
E
330
A
100
AcDbEntity
  8
0
100
AcDbBlockEnd
  0
BLOCK
  5
F
330
B
100
AcDbEntity
 67
     1
  8
0
100
AcDbBlockBegin
  2
*PAPER_SPACE
 70
     0
 10
0.0
 20
0.0
 30
0.0
  3
*PAPER_SPACE
  1

  0
ENDBLK
  5
10
330
B
100
AcDbEntity
 67
     1
  8
0
100
AcDbBlockEnd
  0
BLOCK
  5
28
330
27
100
AcDbEntity
  8
0
  6
ByBlock
 62
     0
370
    -2
100
AcDbBlockBegin
  2
_OPEN30
 70
     2
 10
0.0
 20
0.0
 30
0.0
  3
_OPEN30
  1

  0
LINE
  5
29
330
27
100
AcDbEntity
  8
0
  6
ByBlock
 62
     0
370
    -2
100
AcDbLine
 10
-1.0
 20
0.267949
 30
0.0
 11
0.0
 21
0.0
 31
0.0
  0
LINE
  5
2A
330
27
100
AcDbEntity
  8
0
  6
ByBlock
 62
     0
370
    -2
100
AcDbLine
 10
0.0
 20
0.0
 30
0.0
 11
-1.0
 21
-0.267949
 31
0.0
  0
LINE
  5
2B
330
27
100
AcDbEntity
  8
0
  6
ByBlock
 62
     0
370
    -2
100
AcDbLine
 10
0.0
 20
0.0
 30
0.0
 11
-1.0
 21
0.0
 31
0.0
  0
ENDBLK
  5
2C
330
27
100
AcDbEntity
  8
0
  6
ByBlock
 62
     0
370
    -2
100
AcDbBlockEnd
  0
ENDSEC
  0
SECTION
  2
ENTITIES
  0
LEADER
  5
2D
330
A
100
AcDbEntity
  8
0
  6
Continuous
 62
     7
100
AcDbLeader
  3
MXDIMSTYLE
 74
     0
 76
     2
 10
-24.873
 20
-3.458
 30
0.0
 10
-3.665519999999999
 20
58.109638
 30
0.0
1001
ACAD
1000
DSTYLE
1002
{
1070
    41
1040
2.77
1002
}
  0
MTEXT
  5
2E
330
A
100
AcDbEntity
  8
0
  6
Continuous
 62
     7
100
AcDbMText
 10
-0.728415
 20
62.109638
 30
0.0
 40
4.0
 41
0.0
 71
     4
 72
     1
  1
\W1.023;\A1;Rc　1/8
 73
     1
 44
0.9
  0
LEADER
  5
2F
330
A
100
AcDbEntity
  8
0
  6
Continuous
 62
     7
100
AcDbLeader
  3
MXDIMSTYLE
 74
     0
 76
     3
 10
-24.873
 20
19.042
 30
0.0
 10
-3.665519999999999
 20
58.109638
 30
0.0
 10
23.271585
 20
58.109638
 30
0.0
1001
ACAD
1000
DSTYLE
1002
{
1070
    41
1040
2.77
1002
}
  0
LINE
  5
30
330
A
100
AcDbEntity
  8
PV
  6
Continuous
 62
     7
100
AcDbLine
 10
-157.1029999999999
 20
127.371
 30
0.0
 11
-159.8729999999999
 21
128.113
 31
0.0
  0
LINE
  5
31
330
A
100
AcDbEntity
  8
PV
  6
Continuous
 62
     7
100
AcDbLine
 10
-159.8729999999999
 20
128.113
 30
0.0
 11
-157.1029999999999
 21
128.8549999999999
 31
0.0
  0
LINE
  5
32
330
A
100
AcDbEntity
  8
PV
  6
Continuous
 62
     7
100
AcDbLine
 10
-159.8729999999999
 20
128.113
 30
0.0
 11
-157.1029999999999
 21
128.113
 31
0.0
  0
LINE
  5
33
330
A
100
AcDbEntity
  8
PV
  6
Continuous
 62
     7
100
AcDbLine
 10
-96.143
 20
128.8549999999999
 30
0.0
 11
-93.37299999999999
 21
128.113
 31
0.0
  0
LINE
  5
34
330
A
100
AcDbEntity
  8
PV
  6
Continuous
 62
     7
100
AcDbLine
 10
-93.37299999999999
 20
128.113
 30
0.0
 11
-96.143
 21
127.371
 31
0.0
  0
LINE
  5
35
330
A
100
AcDbEntity
  8
PV
  6
Continuous
 62
     7
100
AcDbLine
 10
-93.37299999999999
 20
128.113
 30
0.0
 11
-96.143
 21
128.113
 31
0.0
  0
LINE
  5
36
330
A
100
AcDbEntity
  8
PV
  6
Continuous
 62
     7
100
AcDbLine
 10
-159.8729999999999
 20
128.113
 30
0.0
 11
-93.37299999999999
 21
128.113
 31
0.0
  0
LINE
  5
37
330
A
100
AcDbEntity
  8
PV
  6
Continuous
 62
     7
100
AcDbLine
 10
-159.8729999999999
 20
111.621
 30
0.0
 11
-159.8729999999999
 21
130.3989999999999
 31
0.0
  0
LINE
  5
38
330
A
100
AcDbEntity
  8
PV
  6
Continuous
 62
     7
100
AcDbLine
 10
-93.37299999999999
 20
107.121
 30
0.0
 11
-93.37299999999999
 21
130.3989999999999
 31
0.0
  0
MTEXT
  5
39
330
A
100
AcDbEntity
  8
PV
  6
Continuous
 62
     7
100
AcDbMText
 10
-126.844
 20
133.546333
 30
0.0
 40
4.0
 41
0.0
 71
     2
 72
     1
  1
\A1;66.5
 73
     1
 44
1.0
  0
POINT
  5
3A
330
A
100
AcDbEntity
  8
PV
  6
Continuous
 62
     7
100
AcDbPoint
 10
-159.8729999999999
 20
109.081
 30
0.0
  0
POINT
  5
3B
330
A
100
AcDbEntity
  8
PV
  6
Continuous
 62
     7
100
AcDbPoint
 10
-93.37299999999999
 20
104.581
 30
0.0
  0
POINT
  5
3C
330
A
100
AcDbEntity
  8
PV
  6
Continuous
 62
     7
100
AcDbPoint
 10
-93.37299999999999
 20
128.113
 30
0.0
  0
LINE
  5
3D
330
A
100
AcDbEntity
  8
PV
  6
Continuous
 62
     7
100
AcDbLine
 10
-82.64299999999998
 20
-15.72799999999999
 30
0.0
 11
-81.90100000000001
 21
-12.958
 31
0.0
  0
LINE
  5
3E
330
A
100
AcDbEntity
  8
PV
  6
Continuous
 62
     7
100
AcDbLine
 10
-81.90100000000001
 20
-12.958
 30
0.0
 11
-81.15899999999999
 21
-15.72799999999999
 31
0.0
  0
LINE
  5
3F
330
A
100
AcDbEntity
  8
PV
  6
Continuous
 62
     7
100
AcDbLine
 10
-81.90100000000001
 20
-12.958
 30
0.0
 11
-81.90100000000001
 21
-15.72799999999999
 31
0.0
  0
LINE
  5
40
330
A
100
AcDbEntity
  8
PV
  6
Continuous
 62
     7
100
AcDbLine
 10
-81.15899999999999
 20
-93.68799999999998
 30
0.0
 11
-81.90100000000001
 21
-96.45800000000001
 31
0.0
  0
LINE
  5
41
330
A
100
AcDbEntity
  8
PV
  6
Continuous
 62
     7
100
AcDbLine
 10
-81.90100000000001
 20
-96.45800000000001
 30
0.0
 11
-82.64299999999998
 21
-93.68799999999998
 31
0.0
  0
LINE
  5
42
330
A
100
AcDbEntity
  8
PV
  6
Continuous
 62
     7
100
AcDbLine
 10
-81.90100000000001
 20
-96.45800000000001
 30
0.0
 11
-81.90100000000001
 21
-93.68799999999998
 31
0.0
  0
LINE
  5
43
330
A
100
AcDbEntity
  8
PV
  6
Continuous
 62
     7
100
AcDbLine
 10
-81.90100000000001
 20
-12.958
 30
0.0
 11
-81.90100000000001
 21
-96.45800000000001
 31
0.0
  0
MTEXT
  5
44
330
A
100
AcDbEntity
  8
PV
  6
Continuous
 62
     7
100
AcDbMText
 10
-87.33433299999999
 20
-54.708
 30
0.0
 40
4.0
 41
0.0
 71
     2
 72
     1
  1
\A1;83.5
 11
0.0
 21
1.0
 31
0.0
 73
     1
 44
1.0
  0
POINT
  5
45
330
A
100
AcDbEntity
  8
PV
  6
Continuous
 62
     7
100
AcDbPoint
 10
-93.37299999999999
 20
-12.958
 30
0.0
  0
POINT
  5
46
330
A
100
AcDbEntity
  8
PV
  6
Continuous
 62
     7
100
AcDbPoint
 10
-104.8729999999999
 20
-96.45800000000001
 30
0.0
  0
POINT
  5
47
330
A
100
AcDbEntity
  8
PV
  6
Continuous
 62
     7
100
AcDbPoint
 10
-81.90100000000001
 20
-96.45800000000001
 30
0.0
  0
LINE
  5
48
330
A
100
AcDbEntity
  8
PV
  6
Continuous
 62
     7
100
AcDbLine
 10
-82.64299999999998
 20
33.27199999999999
 30
0.0
 11
-81.90100000000001
 21
36.042
 31
0.0
  0
LINE
  5
49
330
A
100
AcDbEntity
  8
PV
  6
Continuous
 62
     7
100
AcDbLine
 10
-81.90100000000001
 20
36.042
 30
0.0
 11
-81.15899999999999
 21
33.27199999999999
 31
0.0
  0
LINE
  5
4A
330
A
100
AcDbEntity
  8
PV
  6
Continuous
 62
     7
100
AcDbLine
 10
-81.90100000000001
 20
36.042
 30
0.0
 11
-81.90100000000001
 21
33.27199999999999
 31
0.0
  0
LINE
  5
4B
330
A
100
AcDbEntity
  8
PV
  6
Continuous
 62
     7
100
AcDbLine
 10
-81.15899999999999
 20
-10.18799999999999
 30
0.0
 11
-81.90100000000001
 21
-12.958
 31
0.0
  0
LINE
  5
4C
330
A
100
AcDbEntity
  8
PV
  6
Continuous
 62
     7
100
AcDbLine
 10
-81.90100000000001
 20
-12.958
 30
0.0
 11
-82.64299999999998
 21
-10.18799999999999
 31
0.0
  0
LINE
  5
4D
330
A
100
AcDbEntity
  8
PV
  6
Continuous
 62
     7
100
AcDbLine
 10
-81.90100000000001
 20
-12.958
 30
0.0
 11
-81.90100000000001
 21
-10.18799999999999
 31
0.0
  0
LINE
  5
4E
330
A
100
AcDbEntity
  8
PV
  6
Continuous
 62
     7
100
AcDbLine
 10
-81.90100000000001
 20
36.042
 30
0.0
 11
-81.90100000000001
 21
-12.958
 31
0.0
  0
LINE
  5
4F
330
A
100
AcDbEntity
  8
PV
  6
Continuous
 62
     7
100
AcDbLine
 10
-90.83299999999999
 20
-12.958
 30
0.0
 11
-79.615
 21
-12.958
 31
0.0
  0
MTEXT
  5
50
330
A
100
AcDbEntity
  8
PV
  6
Continuous
 62
     7
100
AcDbMText
 10
-87.33433299999999
 20
11.542
 30
0.0
 40
4.0
 41
0.0
 71
     2
 72
     1
  1
\W0.952;\A1;49
 11
0.0
 21
1.0
 31
0.0
 73
     1
 44
1.0
  0
POINT
  5
51
330
A
100
AcDbEntity
  8
PV
  6
Continuous
 62
     7
100
AcDbPoint
 10
-93.37299999999999
 20
36.042
 30
0.0
  0
POINT
  5
52
330
A
100
AcDbEntity
  8
PV
  6
Continuous
 62
     7
100
AcDbPoint
 10
-93.37299999999999
 20
-12.958
 30
0.0
  0
POINT
  5
53
330
A
100
AcDbEntity
  8
PV
  6
Continuous
 62
     7
100
AcDbPoint
 10
-81.90100000000001
 20
-12.958
 30
0.0
  0
LINE
  5
54
330
A
100
AcDbEntity
  8
PV
  6
Continuous
 62
     7
100
AcDbLine
 10
11.82
 20
-6.227999999999999
 30
0.0
 11
12.56299999999999
 21
-3.458
 31
0.0
  0
LINE
  5
55
330
A
100
AcDbEntity
  8
PV
  6
Continuous
 62
     7
100
AcDbLine
 10
12.56299999999999
 20
-3.458
 30
0.0
 11
13.305
 21
-6.227999999999999
 31
0.0
  0
LINE
  5
56
330
A
100
AcDbEntity
  8
PV
  6
Continuous
 62
     7
100
AcDbLine
 10
12.56299999999999
 20
-3.458
 30
0.0
 11
12.56299999999999
 21
-6.227999999999999
 31
0.0
  0
LINE
  5
57
330
A
100
AcDbEntity
  8
PV
  6
Continuous
 62
     7
100
AcDbLine
 10
13.305
 20
-93.68799999999998
 30
0.0
 11
12.56299999999999
 21
-96.45800000000001
 31
0.0
  0
LINE
  5
58
330
A
100
AcDbEntity
  8
PV
  6
Continuous
 62
     7
100
AcDbLine
 10
12.56299999999999
 20
-96.45800000000001
 30
0.0
 11
11.82
 21
-93.68799999999998
 31
0.0
  0
LINE
  5
59
330
A
100
AcDbEntity
  8
PV
  6
Continuous
 62
     7
100
AcDbLine
 10
12.56299999999999
 20
-96.45800000000001
 30
0.0
 11
12.56299999999999
 21
-93.68799999999998
 31
0.0
  0
LINE
  5
5A
330
A
100
AcDbEntity
  8
PV
  6
Continuous
 62
     7
100
AcDbLine
 10
12.56299999999999
 20
-3.458
 30
0.0
 11
12.56299999999999
 21
-96.45800000000001
 31
0.0
  0
LINE
  5
5B
330
A
100
AcDbEntity
  8
PV
  6
Continuous
 62
     7
100
AcDbLine
 10
-16.127
 20
-3.458
 30
0.0
 11
14.849
 21
-3.458
 31
0.0
  0
LINE
  5
5C
330
A
100
AcDbEntity
  8
PV
  6
Continuous
 62
     7
100
AcDbLine
 10
-7.332999999999999
 20
-96.45800000000001
 30
0.0
 11
14.849
 21
-96.45800000000001
 31
0.0
  0
MTEXT
  5
5D
330
A
100
AcDbEntity
  8
PV
  6
Continuous
 62
     7
100
AcDbMText
 10
7.129666999999999
 20
-48.689
 30
0.0
 40
4.0
 41
0.0
 71
     2
 72
     1
  1
\W0.952;\A1;93
 11
0.0
 21
1.0
 31
0.0
 73
     1
 44
1.0
  0
POINT
  5
5E
330
A
100
AcDbEntity
  8
PV
  6
Continuous
 62
     7
100
AcDbPoint
 10
-18.667
 20
-3.458
 30
0.0
  0
POINT
  5
5F
330
A
100
AcDbEntity
  8
PV
  6
Continuous
 62
     7
100
AcDbPoint
 10
-9.872999999999999
 20
-96.45800000000001
 30
0.0
  0
POINT
  5
60
330
A
100
AcDbEntity
  8
PV
  6
Continuous
 62
     7
100
AcDbPoint
 10
12.56299999999999
 20
-96.45800000000001
 30
0.0
  0
LINE
  5
61
330
A
100
AcDbEntity
  8
PV
  6
Continuous
 62
     7
100
AcDbLine
 10
11.82
 20
16.272
 30
0.0
 11
12.56299999999999
 21
19.042
 31
0.0
  0
LINE
  5
62
330
A
100
AcDbEntity
  8
PV
  6
Continuous
 62
     7
100
AcDbLine
 10
12.56299999999999
 20
19.042
 30
0.0
 11
13.305
 21
16.272
 31
0.0
  0
LINE
  5
63
330
A
100
AcDbEntity
  8
PV
  6
Continuous
 62
     7
100
AcDbLine
 10
12.56299999999999
 20
19.042
 30
0.0
 11
12.56299999999999
 21
16.272
 31
0.0
  0
LINE
  5
64
330
A
100
AcDbEntity
  8
PV
  6
Continuous
 62
     7
100
AcDbLine
 10
13.305
 20
-0.6879999999999999
 30
0.0
 11
12.56299999999999
 21
-3.458
 31
0.0
  0
LINE
  5
65
330
A
100
AcDbEntity
  8
PV
  6
Continuous
 62
     7
100
AcDbLine
 10
12.56299999999999
 20
-3.458
 30
0.0
 11
11.82
 21
-0.6879999999999999
 31
0.0
  0
LINE
  5
66
330
A
100
AcDbEntity
  8
PV
  6
Continuous
 62
     7
100
AcDbLine
 10
12.56299999999999
 20
-3.458
 30
0.0
 11
12.56299999999999
 21
-0.6879999999999999
 31
0.0
  0
LINE
  5
67
330
A
100
AcDbEntity
  8
PV
  6
Continuous
 62
     7
100
AcDbLine
 10
12.56299999999999
 20
19.042
 30
0.0
 11
12.56299999999999
 21
-3.458
 31
0.0
  0
LINE
  5
68
330
A
100
AcDbEntity
  8
PV
  6
Continuous
 62
     7
100
AcDbLine
 10
-16.127
 20
19.042
 30
0.0
 11
14.849
 21
19.042
 31
0.0
  0
MTEXT
  5
69
330
A
100
AcDbEntity
  8
PV
  6
Continuous
 62
     7
100
AcDbMText
 10
7.129666999999999
 20
7.792
 30
0.0
 40
4.0
 41
0.0
 71
     2
 72
     1
  1
\A1;22.5
 11
0.0
 21
1.0
 31
0.0
 73
     1
 44
1.0
  0
POINT
  5
6A
330
A
100
AcDbEntity
  8
PV
  6
Continuous
 62
     7
100
AcDbPoint
 10
-18.667
 20
19.042
 30
0.0
  0
POINT
  5
6B
330
A
100
AcDbEntity
  8
PV
  6
Continuous
 62
     7
100
AcDbPoint
 10
-18.667
 20
-3.458
 30
0.0
  0
POINT
  5
6C
330
A
100
AcDbEntity
  8
PV
  6
Continuous
 62
     7
100
AcDbPoint
 10
12.56299999999999
 20
-3.458
 30
0.0
  0
LINE
  5
6D
330
A
100
AcDbEntity
  8
PV
  6
Continuous
 62
     7
100
AcDbLine
 10
-69.428
 20
33.27199999999999
 30
0.0
 11
-68.686
 21
36.042
 31
0.0
  0
LINE
  5
6E
330
A
100
AcDbEntity
  8
PV
  6
Continuous
 62
     7
100
AcDbLine
 10
-68.686
 20
36.042
 30
0.0
 11
-67.94299999999999
 21
33.27199999999999
 31
0.0
  0
LINE
  5
6F
330
A
100
AcDbEntity
  8
PV
  6
Continuous
 62
     7
100
AcDbLine
 10
-68.686
 20
36.042
 30
0.0
 11
-68.686
 21
33.27199999999999
 31
0.0
  0
LINE
  5
70
330
A
100
AcDbEntity
  8
PV
  6
Continuous
 62
     7
100
AcDbLine
 10
-67.94299999999999
 20
-93.68799999999998
 30
0.0
 11
-68.686
 21
-96.45800000000001
 31
0.0
  0
LINE
  5
71
330
A
100
AcDbEntity
  8
PV
  6
Continuous
 62
     7
100
AcDbLine
 10
-68.686
 20
-96.45800000000001
 30
0.0
 11
-69.428
 21
-93.68799999999998
 31
0.0
  0
LINE
  5
72
330
A
100
AcDbEntity
  8
PV
  6
Continuous
 62
     7
100
AcDbLine
 10
-68.686
 20
-96.45800000000001
 30
0.0
 11
-68.686
 21
-93.68799999999998
 31
0.0
  0
LINE
  5
73
330
A
100
AcDbEntity
  8
PV
  6
Continuous
 62
     7
100
AcDbLine
 10
-68.686
 20
36.042
 30
0.0
 11
-68.686
 21
-96.45800000000001
 31
0.0
  0
LINE
  5
74
330
A
100
AcDbEntity
  8
PV
  6
Continuous
 62
     7
100
AcDbLine
 10
-91.08400000000001
 20
36.042
 30
0.0
 11
-66.4
 21
36.042
 31
0.0
  0
LINE
  5
75
330
A
100
AcDbEntity
  8
PV
  6
Continuous
 62
     7
100
AcDbLine
 10
-102.333
 20
-96.45800000000001
 30
0.0
 11
-66.4
 21
-96.45800000000001
 31
0.0
  0
MTEXT
  5
76
330
A
100
AcDbEntity
  8
PV
  6
Continuous
 62
     7
100
AcDbMText
 10
-74.119333
 20
-30.208
 30
0.0
 40
4.0
 41
0.0
 71
     2
 72
     1
  1
\A1;132.5
 11
0.0
 21
1.0
 31
0.0
 73
     1
 44
1.0
  0
POINT
  5
77
330
A
100
AcDbEntity
  8
PV
  6
Continuous
 62
     7
100
AcDbPoint
 10
-93.62399999999999
 20
36.042
 30
0.0
  0
POINT
  5
78
330
A
100
AcDbEntity
  8
PV
  6
Continuous
 62
     7
100
AcDbPoint
 10
-104.8729999999999
 20
-96.45800000000001
 30
0.0
  0
POINT
  5
79
330
A
100
AcDbEntity
  8
PV
  6
Continuous
 62
     7
100
AcDbPoint
 10
-68.686
 20
-96.45800000000001
 30
0.0
  0
LINE
  5
7A
330
A
100
AcDbEntity
  8
PV
  6
Continuous
 62
     7
100
AcDbLine
 10
-102.6429999999999
 20
-68.22399999999999
 30
0.0
 11
-99.87299999999999
 21
-68.96600000000001
 31
0.0
  0
LINE
  5
7B
330
A
100
AcDbEntity
  8
PV
  6
Continuous
 62
     7
100
AcDbLine
 10
-99.87299999999999
 20
-68.96600000000001
 30
0.0
 11
-102.6429999999999
 21
-69.708
 31
0.0
  0
LINE
  5
7C
330
A
100
AcDbEntity
  8
PV
  6
Continuous
 62
     7
100
AcDbLine
 10
-99.87299999999999
 20
-68.96600000000001
 30
0.0
 11
-102.6429999999999
 21
-68.96600000000001
 31
0.0
  0
LINE
  5
7D
330
A
100
AcDbEntity
  8
PV
  6
Continuous
 62
     7
100
AcDbLine
 10
-137.1029999999999
 20
-69.708
 30
0.0
 11
-139.873
 21
-68.96600000000001
 31
0.0
  0
LINE
  5
7E
330
A
100
AcDbEntity
  8
PV
  6
Continuous
 62
     7
100
AcDbLine
 10
-139.873
 20
-68.96600000000001
 30
0.0
 11
-137.1029999999999
 21
-68.22399999999999
 31
0.0
  0
LINE
  5
7F
330
A
100
AcDbEntity
  8
PV
  6
Continuous
 62
     7
100
AcDbLine
 10
-139.873
 20
-68.96600000000001
 30
0.0
 11
-137.1029999999999
 21
-68.96600000000001
 31
0.0
  0
LINE
  5
80
330
A
100
AcDbEntity
  8
PV
  6
Continuous
 62
     7
100
AcDbLine
 10
-99.87299999999999
 20
-68.96600000000001
 30
0.0
 11
-139.873
 21
-68.96600000000001
 31
0.0
  0
MTEXT
  5
81
330
A
100
AcDbEntity
  8
PV
  6
Continuous
 62
     7
100
AcDbMText
 10
-110.071
 20
-63.532667
 30
0.0
 40
4.0
 41
0.0
 71
     2
 72
     1
  1
\T1.016;\W1.008;\A1;\U+220540
 73
     1
 44
1.0
  0
POINT
  5
82
330
A
100
AcDbEntity
  8
PV
  6
Continuous
 62
     7
100
AcDbPoint
 10
-99.87299999999999
 20
-72.95799999999999
 30
0.0
  0
POINT
  5
83
330
A
100
AcDbEntity
  8
PV
  6
Continuous
 62
     7
100
AcDbPoint
 10
-139.873
 20
-66.458
 30
0.0
  0
POINT
  5
84
330
A
100
AcDbEntity
  8
PV
  6
Continuous
 62
     7
100
AcDbPoint
 10
-139.873
 20
-68.96600000000001
 30
0.0
  0
LINE
  5
85
330
A
100
AcDbEntity
  8
PV
  6
Continuous
 62
     7
100
AcDbLine
 10
-180.2749999999999
 20
-93.68799999999998
 30
0.0
 11
-181.017
 21
-96.45800000000001
 31
0.0
  0
LINE
  5
86
330
A
100
AcDbEntity
  8
PV
  6
Continuous
 62
     7
100
AcDbLine
 10
-181.017
 20
-96.45800000000001
 30
0.0
 11
-181.759
 21
-93.68799999999998
 31
0.0
  0
LINE
  5
87
330
A
100
AcDbEntity
  8
PV
  6
Continuous
 62
     7
100
AcDbLine
 10
-181.017
 20
-96.45800000000001
 30
0.0
 11
-181.017
 21
-93.68799999999998
 31
0.0
  0
LINE
  5
88
330
A
100
AcDbEntity
  8
PV
  6
Continuous
 62
     7
100
AcDbLine
 10
-181.759
 20
-59.228
 30
0.0
 11
-181.017
 21
-56.458
 31
0.0
  0
LINE
  5
89
330
A
100
AcDbEntity
  8
PV
  6
Continuous
 62
     7
100
AcDbLine
 10
-181.017
 20
-56.458
 30
0.0
 11
-180.2749999999999
 21
-59.228
 31
0.0
  0
LINE
  5
8A
330
A
100
AcDbEntity
  8
PV
  6
Continuous
 62
     7
100
AcDbLine
 10
-181.017
 20
-56.458
 30
0.0
 11
-181.017
 21
-59.228
 31
0.0
  0
LINE
  5
8B
330
A
100
AcDbEntity
  8
PV
  6
Continuous
 62
     7
100
AcDbLine
 10
-181.017
 20
-96.45800000000001
 30
0.0
 11
-181.017
 21
-56.458
 31
0.0
  0
LINE
  5
8C
330
A
100
AcDbEntity
  8
PV
  6
Continuous
 62
     7
100
AcDbLine
 10
-137.4129999999999
 20
-96.45800000000001
 30
0.0
 11
-183.3029999999999
 21
-96.45800000000001
 31
0.0
  0
LINE
  5
8D
330
A
100
AcDbEntity
  8
PV
  6
Continuous
 62
     7
100
AcDbLine
 10
-167.2679999999999
 20
-56.458
 30
0.0
 11
-183.3029999999999
 21
-56.458
 31
0.0
  0
MTEXT
  5
8E
330
A
100
AcDbEntity
  8
PV
  6
Continuous
 62
     7
100
AcDbMText
 10
-186.4503329999999
 20
-76.458
 30
0.0
 40
4.0
 41
0.0
 71
     2
 72
     1
  1
\A1;40
 11
0.0
 21
1.0
 31
0.0
 73
     1
 44
1.0
  0
POINT
  5
8F
330
A
100
AcDbEntity
  8
PV
  6
Continuous
 62
     7
100
AcDbPoint
 10
-134.8729999999999
 20
-96.45800000000001
 30
0.0
  0
POINT
  5
90
330
A
100
AcDbEntity
  8
PV
  6
Continuous
 62
     7
100
AcDbPoint
 10
-164.7279999999999
 20
-56.458
 30
0.0
  0
POINT
  5
91
330
A
100
AcDbEntity
  8
PV
  6
Continuous
 62
     7
100
AcDbPoint
 10
-181.017
 20
-56.458
 30
0.0
  0
LINE
  5
92
330
A
100
AcDbEntity
  8
PV
  6
Continuous
 62
     7
100
AcDbLine
 10
-107.6429999999999
 20
-106.611
 30
0.0
 11
-104.8729999999999
 21
-107.3529999999999
 31
0.0
  0
LINE
  5
93
330
A
100
AcDbEntity
  8
PV
  6
Continuous
 62
     7
100
AcDbLine
 10
-104.8729999999999
 20
-107.3529999999999
 30
0.0
 11
-107.6429999999999
 21
-108.095
 31
0.0
  0
LINE
  5
94
330
A
100
AcDbEntity
  8
PV
  6
Continuous
 62
     7
100
AcDbLine
 10
-104.8729999999999
 20
-107.3529999999999
 30
0.0
 11
-107.6429999999999
 21
-107.3529999999999
 31
0.0
  0
LINE
  5
95
330
A
100
AcDbEntity
  8
PV
  6
Continuous
 62
     7
100
AcDbLine
 10
-132.1029999999999
 20
-108.095
 30
0.0
 11
-134.8729999999999
 21
-107.3529999999999
 31
0.0
  0
LINE
  5
96
330
A
100
AcDbEntity
  8
PV
  6
Continuous
 62
     7
100
AcDbLine
 10
-134.8729999999999
 20
-107.3529999999999
 30
0.0
 11
-132.1029999999999
 21
-106.611
 31
0.0
  0
LINE
  5
97
330
A
100
AcDbEntity
  8
PV
  6
Continuous
 62
     7
100
AcDbLine
 10
-134.8729999999999
 20
-107.3529999999999
 30
0.0
 11
-132.1029999999999
 21
-107.3529999999999
 31
0.0
  0
LINE
  5
98
330
A
100
AcDbEntity
  8
PV
  6
Continuous
 62
     7
100
AcDbLine
 10
-104.8729999999999
 20
-107.3529999999999
 30
0.0
 11
-134.8729999999999
 21
-107.3529999999999
 31
0.0
  0
LINE
  5
99
330
A
100
AcDbEntity
  8
PV
  6
Continuous
 62
     7
100
AcDbLine
 10
-104.8729999999999
 20
-97.847219
 30
0.0
 11
-104.8729999999999
 21
-111.925
 31
0.0
  0
LINE
  5
9A
330
A
100
AcDbEntity
  8
PV
  6
Continuous
 62
     7
100
AcDbLine
 10
-134.8729999999999
 20
-97.847219
 30
0.0
 11
-134.8729999999999
 21
-111.925
 31
0.0
  0
MTEXT
  5
9B
330
A
100
AcDbEntity
  8
PV
  6
Continuous
 62
     7
100
AcDbMText
 10
-113.2109999999999
 20
-101.919667
 30
0.0
 40
4.0
 41
0.0
 71
     2
 72
     1
  1
\T1.016;\W1.008;\A1;\U+220530
 73
     1
 44
1.0
  0
POINT
  5
9C
330
A
100
AcDbEntity
  8
PV
  6
Continuous
 62
     7
100
AcDbPoint
 10
-104.8729999999999
 20
-96.45800000000001
 30
0.0
  0
POINT
  5
9D
330
A
100
AcDbEntity
  8
PV
  6
Continuous
 62
     7
100
AcDbPoint
 10
-134.8729999999999
 20
-96.45800000000001
 30
0.0
  0
POINT
  5
9E
330
A
100
AcDbEntity
  8
PV
  6
Continuous
 62
     7
100
AcDbPoint
 10
-134.8729999999999
 20
-107.3529999999999
 30
0.0
  0
LINE
  5
9F
330
A
100
AcDbEntity
  8
PV
  6
Continuous
 62
     7
100
AcDbLine
 10
-122.6429999999999
 20
-118.066
 30
0.0
 11
-119.8729999999999
 21
-118.808
 31
0.0
  0
LINE
  5
A0
330
A
100
AcDbEntity
  8
PV
  6
Continuous
 62
     7
100
AcDbLine
 10
-119.8729999999999
 20
-118.808
 30
0.0
 11
-122.6429999999999
 21
-119.55
 31
0.0
  0
LINE
  5
A1
330
A
100
AcDbEntity
  8
PV
  6
Continuous
 62
     7
100
AcDbLine
 10
-119.8729999999999
 20
-118.808
 30
0.0
 11
-122.6429999999999
 21
-118.808
 31
0.0
  0
LINE
  5
A2
330
A
100
AcDbEntity
  8
PV
  6
Continuous
 62
     7
100
AcDbLine
 10
-157.1029999999999
 20
-119.55
 30
0.0
 11
-159.8729999999999
 21
-118.808
 31
0.0
  0
LINE
  5
A3
330
A
100
AcDbEntity
  8
PV
  6
Continuous
 62
     7
100
AcDbLine
 10
-159.8729999999999
 20
-118.808
 30
0.0
 11
-157.1029999999999
 21
-118.066
 31
0.0
  0
LINE
  5
A4
330
A
100
AcDbEntity
  8
PV
  6
Continuous
 62
     7
100
AcDbLine
 10
-159.8729999999999
 20
-118.808
 30
0.0
 11
-157.1029999999999
 21
-118.808
 31
0.0
  0
LINE
  5
A5
330
A
100
AcDbEntity
  8
PV
  6
Continuous
 62
     7
100
AcDbLine
 10
-119.8729999999999
 20
-118.808
 30
0.0
 11
-159.8729999999999
 21
-118.808
 31
0.0
  0
LINE
  5
A6
330
A
100
AcDbEntity
  8
PV
  6
Continuous
 62
     7
100
AcDbLine
 10
-119.8729999999999
 20
-103.361644
 30
0.0
 11
-119.8729999999999
 21
-121.0939999999999
 31
0.0
  0
LINE
  5
A7
330
A
100
AcDbEntity
  8
PV
  6
Continuous
 62
     7
100
AcDbLine
 10
-159.8729999999999
 20
-73.66858399999999
 30
0.0
 11
-159.8729999999999
 21
-121.0939999999999
 31
0.0
  0
MTEXT
  5
A8
330
A
100
AcDbEntity
  8
PV
  6
Continuous
 62
     7
100
AcDbMText
 10
-139.873
 20
-113.3746669999999
 30
0.0
 40
4.0
 41
0.0
 71
     2
 72
     1
  1
\A1;40
 73
     1
 44
1.0
  0
POINT
  5
A9
330
A
100
AcDbEntity
  8
PV
  6
Continuous
 62
     7
100
AcDbPoint
 10
-119.8729999999999
 20
-101.604
 30
0.0
  0
POINT
  5
AA
330
A
100
AcDbEntity
  8
PV
  6
Continuous
 62
     7
100
AcDbPoint
 10
-159.8729999999999
 20
-71.458
 30
0.0
  0
POINT
  5
AB
330
A
100
AcDbEntity
  8
PV
  6
Continuous
 62
     7
100
AcDbPoint
 10
-159.8729999999999
 20
-118.808
 30
0.0
  0
LINE
  5
AC
330
A
100
AcDbEntity
  8
PV
  6
Continuous
 62
     7
100
AcDbLine
 10
-172.4399999999999
 20
-68.688
 30
0.0
 11
-173.182
 21
-71.458
 31
0.0
  0
LINE
  5
AD
330
A
100
AcDbEntity
  8
PV
  6
Continuous
 62
     7
100
AcDbLine
 10
-173.182
 20
-71.458
 30
0.0
 11
-173.924
 21
-68.688
 31
0.0
  0
LINE
  5
AE
330
A
100
AcDbEntity
  8
PV
  6
Continuous
 62
     7
100
AcDbLine
 10
-173.182
 20
-71.458
 30
0.0
 11
-173.182
 21
-68.688
 31
0.0
  0
LINE
  5
AF
330
A
100
AcDbEntity
  8
PV
  6
Continuous
 62
     7
100
AcDbLine
 10
-173.924
 20
-44.228
 30
0.0
 11
-173.182
 21
-41.458
 31
0.0
  0
LINE
  5
B0
330
A
100
AcDbEntity
  8
PV
  6
Continuous
 62
     7
100
AcDbLine
 10
-173.182
 20
-41.458
 30
0.0
 11
-172.4399999999999
 21
-44.228
 31
0.0
  0
LINE
  5
B1
330
A
100
AcDbEntity
  8
PV
  6
Continuous
 62
     7
100
AcDbLine
 10
-173.182
 20
-41.458
 30
0.0
 11
-173.182
 21
-44.228
 31
0.0
  0
LINE
  5
B2
330
A
100
AcDbEntity
  8
PV
  6
Continuous
 62
     7
100
AcDbLine
 10
-173.182
 20
-71.458
 30
0.0
 11
-173.182
 21
-41.458
 31
0.0
  0
LINE
  5
B3
330
A
100
AcDbEntity
  8
PV
  6
Continuous
 62
     7
100
AcDbLine
 10
-162.4129999999999
 20
-71.458
 30
0.0
 11
-177.754
 21
-71.458
 31
0.0
  0
LINE
  5
B4
330
A
100
AcDbEntity
  8
PV
  6
Continuous
 62
     7
100
AcDbLine
 10
-162.4129999999999
 20
-41.458
 30
0.0
 11
-177.754
 21
-41.458
 31
0.0
  0
MTEXT
  5
B5
330
A
100
AcDbEntity
  8
PV
  6
Continuous
 62
     7
100
AcDbMText
 10
-178.615333
 20
-49.302
 30
0.0
 40
4.0
 41
0.0
 71
     2
 72
     1
  1
\T1.016;\W1.008;\A1;\U+220530
 11
0.0
 21
1.0
 31
0.0
 73
     1
 44
1.0
  0
POINT
  5
B6
330
A
100
AcDbEntity
  8
PV
  6
Continuous
 62
     7
100
AcDbPoint
 10
-159.8729999999999
 20
-71.458
 30
0.0
  0
POINT
  5
B7
330
A
100
AcDbEntity
  8
PV
  6
Continuous
 62
     7
100
AcDbPoint
 10
-159.8729999999999
 20
-41.458
 30
0.0
  0
POINT
  5
B8
330
A
100
AcDbEntity
  8
PV
  6
Continuous
 62
     7
100
AcDbPoint
 10
-173.182
 20
-41.458
 30
0.0
  0
LINE
  5
B9
330
A
100
AcDbEntity
  8
PV
  6
Continuous
 62
     7
100
AcDbLine
 10
-80.381
 20
114.811
 30
0.0
 11
-79.638
 21
117.581
 31
0.0
  0
LINE
  5
BA
330
A
100
AcDbEntity
  8
PV
  6
Continuous
 62
     7
100
AcDbLine
 10
-79.638
 20
117.581
 30
0.0
 11
-78.896
 21
114.811
 31
0.0
  0
LINE
  5
BB
330
A
100
AcDbEntity
  8
PV
  6
Continuous
 62
     7
100
AcDbLine
 10
-79.638
 20
117.581
 30
0.0
 11
-79.638
 21
114.811
 31
0.0
  0
LINE
  5
BC
330
A
100
AcDbEntity
  8
PV
  6
Continuous
 62
     7
100
AcDbLine
 10
-78.896
 20
73.351
 30
0.0
 11
-79.638
 21
70.581
 31
0.0
  0
LINE
  5
BD
330
A
100
AcDbEntity
  8
PV
  6
Continuous
 62
     7
100
AcDbLine
 10
-79.638
 20
70.581
 30
0.0
 11
-80.381
 21
73.351
 31
0.0
  0
LINE
  5
BE
330
A
100
AcDbEntity
  8
PV
  6
Continuous
 62
     7
100
AcDbLine
 10
-79.638
 20
70.581
 30
0.0
 11
-79.638
 21
73.351
 31
0.0
  0
LINE
  5
BF
330
A
100
AcDbEntity
  8
PV
  6
Continuous
 62
     7
100
AcDbLine
 10
-79.638
 20
117.581
 30
0.0
 11
-79.638
 21
70.581
 31
0.0
  0
LINE
  5
C0
330
A
100
AcDbEntity
  8
PV
  6
Continuous
 62
     7
100
AcDbLine
 10
-98.39292100000001
 20
117.581
 30
0.0
 11
-77.352
 21
117.581
 31
0.0
  0
LINE
  5
C1
330
A
100
AcDbEntity
  8
PV
  6
Continuous
 62
     7
100
AcDbLine
 10
-98.39292100000001
 20
70.581
 30
0.0
 11
-77.352
 21
70.581
 31
0.0
  0
MTEXT
  5
C2
330
A
100
AcDbEntity
  8
PV
  6
Continuous
 62
     7
100
AcDbMText
 10
-85.07133299999999
 20
94.57799999999998
 30
0.0
 40
4.0
 41
0.0
 71
     2
 72
     1
  1
\T0.878;\W1.104;\A1;□47
 11
0.0
 21
1.0
 31
0.0
 73
     1
 44
1.0
  0
POINT
  5
C3
330
A
100
AcDbEntity
  8
PV
  6
Continuous
 62
     7
100
AcDbPoint
 10
-103.258
 20
117.581
 30
0.0
  0
POINT
  5
C4
330
A
100
AcDbEntity
  8
PV
  6
Continuous
 62
     7
100
AcDbPoint
 10
-100.702
 20
70.581
 30
0.0
  0
POINT
  5
C5
330
A
100
AcDbEntity
  8
PV
  6
Continuous
 62
     7
100
AcDbPoint
 10
-79.638
 20
70.581
 30
0.0
  0
CIRCLE
  5
C6
330
A
100
AcDbEntity
  8
PV
  6
Continuous
 62
     7
100
AcDbCircle
 10
-137.3729999999999
 20
111.5809999999999
 30
0.0
 40
3.729999999999999
  0
CIRCLE
  5
C7
330
A
100
AcDbEntity
  8
PV
  6
Continuous
 62
     7
100
AcDbCircle
 10
-137.3729999999999
 20
111.5809999999999
 30
0.0
 40
4.25
  0
LINE
  5
C8
330
A
100
AcDbEntity
  8
PV
  6
Continuous
 62
     7
100
AcDbLine
 10
-139.3729999999999
 20
112.735
 30
0.0
 11
-137.3729999999999
 21
113.89
 31
0.0
  0
LINE
  5
C9
330
A
100
AcDbEntity
  8
PV
  6
Continuous
 62
     7
100
AcDbLine
 10
-137.3729999999999
 20
109.271
 30
0.0
 11
-135.3729999999999
 21
110.426
 31
0.0
  0
LINE
  5
CA
330
A
100
AcDbEntity
  8
PV
  6
Continuous
 62
     7
100
AcDbLine
 10
-139.3729999999999
 20
110.426
 30
0.0
 11
-139.3729999999999
 21
112.735
 31
0.0
  0
LINE
  5
CB
330
A
100
AcDbEntity
  8
PV
  6
Continuous
 62
     7
100
AcDbLine
 10
-135.3729999999999
 20
110.426
 30
0.0
 11
-135.3729999999999
 21
112.735
 31
0.0
  0
LINE
  5
CC
330
A
100
AcDbEntity
  8
PV
  6
Continuous
 62
     7
100
AcDbLine
 10
-139.3729999999999
 20
110.426
 30
0.0
 11
-137.3729999999999
 21
109.271
 31
0.0
  0
LINE
  5
CD
330
A
100
AcDbEntity
  8
PV
  6
Continuous
 62
     7
100
AcDbLine
 10
-137.3729999999999
 20
113.89
 30
0.0
 11
-135.3729999999999
 21
112.735
 31
0.0
  0
CIRCLE
  5
CE
330
A
100
AcDbEntity
  8
PV
  6
Continuous
 62
     7
100
AcDbCircle
 10
-102.373
 20
111.5809999999999
 30
0.0
 40
3.729999999999999
  0
CIRCLE
  5
CF
330
A
100
AcDbEntity
  8
PV
  6
Continuous
 62
     7
100
AcDbCircle
 10
-102.373
 20
111.5809999999999
 30
0.0
 40
4.25
  0
LINE
  5
D0
330
A
100
AcDbEntity
  8
PV
  6
Continuous
 62
     7
100
AcDbLine
 10
-100.373
 20
112.735
 30
0.0
 11
-102.373
 21
113.89
 31
0.0
  0
LINE
  5
D1
330
A
100
AcDbEntity
  8
PV
  6
Continuous
 62
     7
100
AcDbLine
 10
-102.373
 20
109.271
 30
0.0
 11
-104.3729999999999
 21
110.426
 31
0.0
  0
LINE
  5
D2
330
A
100
AcDbEntity
  8
PV
  6
Continuous
 62
     7
100
AcDbLine
 10
-100.373
 20
110.426
 30
0.0
 11
-100.373
 21
112.735
 31
0.0
  0
LINE
  5
D3
330
A
100
AcDbEntity
  8
PV
  6
Continuous
 62
     7
100
AcDbLine
 10
-104.3729999999999
 20
110.426
 30
0.0
 11
-104.3729999999999
 21
112.735
 31
0.0
  0
LINE
  5
D4
330
A
100
AcDbEntity
  8
PV
  6
Continuous
 62
     7
100
AcDbLine
 10
-100.373
 20
110.426
 30
0.0
 11
-102.373
 21
109.271
 31
0.0
  0
LINE
  5
D5
330
A
100
AcDbEntity
  8
PV
  6
Continuous
 62
     7
100
AcDbLine
 10
-102.373
 20
113.89
 30
0.0
 11
-104.3729999999999
 21
112.735
 31
0.0
  0
CIRCLE
  5
D6
330
A
100
AcDbEntity
  8
PV
  6
Continuous
 62
     7
100
AcDbCircle
 10
-137.3729999999999
 20
76.58100000000001
 30
0.0
 40
3.729999999999999
  0
CIRCLE
  5
D7
330
A
100
AcDbEntity
  8
PV
  6
Continuous
 62
     7
100
AcDbCircle
 10
-137.3729999999999
 20
76.58100000000001
 30
0.0
 40
4.25
  0
LINE
  5
D8
330
A
100
AcDbEntity
  8
PV
  6
Continuous
 62
     7
100
AcDbLine
 10
-139.3729999999999
 20
75.426
 30
0.0
 11
-137.3729999999999
 21
74.271
 31
0.0
  0
LINE
  5
D9
330
A
100
AcDbEntity
  8
PV
  6
Continuous
 62
     7
100
AcDbLine
 10
-137.3729999999999
 20
78.89
 30
0.0
 11
-135.3729999999999
 21
77.735
 31
0.0
  0
LINE
  5
DA
330
A
100
AcDbEntity
  8
PV
  6
Continuous
 62
     7
100
AcDbLine
 10
-139.3729999999999
 20
77.735
 30
0.0
 11
-139.3729999999999
 21
75.426
 31
0.0
  0
LINE
  5
DB
330
A
100
AcDbEntity
  8
PV
  6
Continuous
 62
     7
100
AcDbLine
 10
-135.3729999999999
 20
77.735
 30
0.0
 11
-135.3729999999999
 21
75.426
 31
0.0
  0
LINE
  5
DC
330
A
100
AcDbEntity
  8
PV
  6
Continuous
 62
     7
100
AcDbLine
 10
-139.3729999999999
 20
77.735
 30
0.0
 11
-137.3729999999999
 21
78.89
 31
0.0
  0
LINE
  5
DD
330
A
100
AcDbEntity
  8
PV
  6
Continuous
 62
     7
100
AcDbLine
 10
-137.3729999999999
 20
74.271
 30
0.0
 11
-135.3729999999999
 21
75.426
 31
0.0
  0
CIRCLE
  5
DE
330
A
100
AcDbEntity
  8
PV
  6
Continuous
 62
     7
100
AcDbCircle
 10
-102.373
 20
76.58100000000001
 30
0.0
 40
3.729999999999999
  0
CIRCLE
  5
DF
330
A
100
AcDbEntity
  8
PV
  6
Continuous
 62
     7
100
AcDbCircle
 10
-102.373
 20
76.58100000000001
 30
0.0
 40
4.25
  0
LINE
  5
E0
330
A
100
AcDbEntity
  8
PV
  6
Continuous
 62
     7
100
AcDbLine
 10
-100.373
 20
75.426
 30
0.0
 11
-102.373
 21
74.271
 31
0.0
  0
LINE
  5
E1
330
A
100
AcDbEntity
  8
PV
  6
Continuous
 62
     7
100
AcDbLine
 10
-102.373
 20
78.89
 30
0.0
 11
-104.3729999999999
 21
77.735
 31
0.0
  0
LINE
  5
E2
330
A
100
AcDbEntity
  8
PV
  6
Continuous
 62
     7
100
AcDbLine
 10
-100.373
 20
77.735
 30
0.0
 11
-100.373
 21
75.426
 31
0.0
  0
LINE
  5
E3
330
A
100
AcDbEntity
  8
PV
  6
Continuous
 62
     7
100
AcDbLine
 10
-104.3729999999999
 20
77.735
 30
0.0
 11
-104.3729999999999
 21
75.426
 31
0.0
  0
LINE
  5
E4
330
A
100
AcDbEntity
  8
PV
  6
Continuous
 62
     7
100
AcDbLine
 10
-100.373
 20
77.735
 30
0.0
 11
-102.373
 21
78.89
 31
0.0
  0
LINE
  5
E5
330
A
100
AcDbEntity
  8
PV
  6
Continuous
 62
     7
100
AcDbLine
 10
-102.373
 20
74.271
 30
0.0
 11
-104.3729999999999
 21
75.426
 31
0.0
  0
SOLID
  5
E6
330
A
100
AcDbEntity
  8
PV
  6
Continuous
 62
     7
100
AcDbTrace
 10
-122.303
 20
105.59
 30
0.0
 11
-120.9529999999999
 21
105.59
 31
0.0
 12
-122.303
 22
108.34
 32
0.0
 13
-120.9529999999999
 23
108.34
 33
0.0
  0
SOLID
  5
E7
330
A
100
AcDbEntity
  8
PV
  6
Continuous
 62
     7
100
AcDbTrace
 10
-128.781
 20
102.0839999999999
 30
0.0
 11
-128.483
 21
102.0839999999999
 31
0.0
 12
-128.781
 22
103.577
 32
0.0
 13
-128.483
 23
103.577
 33
0.0
  0
SOLID
  5
E8
330
A
100
AcDbEntity
  8
PV
  6
Continuous
 62
     7
100
AcDbTrace
 10
-131.095
 20
102.0839999999999
 30
0.0
 11
-130.796
 21
102.0839999999999
 31
0.0
 12
-131.095
 22
103.577
 32
0.0
 13
-130.796
 23
103.577
 33
0.0
  0
MTEXT
  5
E9
330
A
100
AcDbEntity
  8
PV
  6
Continuous
 62
     7
100
AcDbMText
 10
-119.9389999999999
 20
80.92699999999998
 30
0.0
 40
0.8
 41
0.0
 71
     2
 72
     1
  1
\W0.980;\A1;MADE IN JAPAN
 73
     1
 44
1.0
  0
MTEXT
  5
EA
330
A
100
AcDbEntity
  8
PV
  6
Continuous
 62
     7
100
AcDbMText
 10
-119.7249999999999
 20
90.10799999999999
 30
0.0
 40
1.6
 41
0.0
 71
     2
 72
     1
  1
\W0.925;\A1;HIGH VACUUM VALVES
 73
     1
 44
1.0
  0
MTEXT
  5
EB
330
A
100
AcDbEntity
  8
PV
  6
Continuous
 62
     7
100
AcDbMText
 10
-119.767
 20
85.919
 30
0.0
 40
1.6
 41
0.0
 71
     2
 72
     1
  1
\W0.930;\A1;METAL BELLOWS
 73
     1
 44
1.0
  0
LWPOLYLINE
  5
EC
330
A
100
AcDbEntity
  8
PV
  6
Continuous
 62
     7
100
AcDbPolyline
 90
      137
 70
     0
 43
0.0
 10
-125.9779999999999
 20
97.947
 10
-125.9849999999999
 20
97.969
 10
-126.0039999999999
 20
98.01899999999999
 10
-126.024
 20
98.06700000000001
 10
-126.046
 20
98.11399999999999
 10
-126.0699999999999
 20
98.16
 10
-126.096
 20
98.20399999999999
 10
-126.1239999999999
 20
98.24799999999999
 10
-126.153
 20
98.289
 10
-126.184
 20
98.329
 10
-126.216
 20
98.368
 10
-126.251
 20
98.405
 10
-126.286
 20
98.44000000000001
 10
-126.3229999999999
 20
98.473
 10
-126.361
 20
98.504
 10
-126.401
 20
98.53299999999999
 10
-126.441
 20
98.56000000000001
 10
-126.4829999999999
 20
98.586
 10
-126.526
 20
98.609
 10
-126.5689999999999
 20
98.62999999999999
 10
-126.6139999999999
 20
98.648
 10
-126.6589999999999
 20
98.66500000000002
 10
-126.705
 20
98.679
 10
-126.752
 20
98.69100000000001
 10
-126.7989999999999
 20
98.7
 10
-126.846
 20
98.70700000000001
 10
-126.8939999999999
 20
98.71200000000001
 10
-126.9419999999999
 20
98.71400000000001
 10
-126.99
 20
98.71500000000001
 10
-127.038
 20
98.71200000000001
 10
-127.086
 20
98.708
 10
-127.134
 20
98.701
 10
-127.1819999999999
 20
98.69100000000001
 10
-127.2299999999999
 20
98.679
 10
-127.2769999999999
 20
98.66500000000002
 10
-127.3229999999999
 20
98.649
 10
-127.3689999999999
 20
98.63100000000001
 10
-127.415
 20
98.61
 10
-127.459
 20
98.587
 10
-127.5029999999999
 20
98.56200000000001
 10
-127.546
 20
98.535
 10
-127.587
 20
98.506
 10
-127.6279999999999
 20
98.475
 10
-127.668
 20
98.442
 10
-127.706
 20
98.40700000000001
 10
-127.743
 20
98.37000000000001
 10
-127.7789999999999
 20
98.33200000000001
 10
-127.8129999999999
 20
98.292
 10
-127.845
 20
98.25000000000001
 10
-127.876
 20
98.20700000000002
 10
-127.906
 20
98.16200000000002
 10
-127.9329999999999
 20
98.11700000000001
 10
-127.959
 20
98.07
 10
-127.9839999999999
 20
98.02100000000001
 10
-128.0059999999999
 20
97.97200000000001
 10
-128.026
 20
97.92200000000001
 10
-128.0449999999999
 20
97.87100000000002
 10
-128.061
 20
97.819
 10
-128.0759999999999
 20
97.76700000000001
 10
-128.088
 20
97.71399999999999
 10
-128.0989999999999
 20
97.66
 10
-128.1069999999999
 20
97.60600000000001
 10
-128.114
 20
97.55200000000002
 10
-128.1179999999999
 20
97.498
 10
-128.12
 20
97.443
 10
-128.12
 20
97.38900000000001
 10
-128.1179999999999
 20
97.33499999999999
 10
-128.114
 20
97.28100000000001
 10
-128.108
 20
97.22799999999999
 10
-128.0999999999999
 20
97.17399999999999
 10
-128.089
 20
97.12200000000002
 10
-128.0769999999999
 20
97.07
 10
-128.062
 20
97.019
 10
-128.0459999999999
 20
96.96899999999999
 10
-128.0279999999999
 20
96.919
 10
-128.007
 20
96.871
 10
-127.9849999999999
 20
96.82400000000001
 10
-127.9609999999999
 20
96.77799999999999
 10
-127.9349999999999
 20
96.734
 10
-127.9079999999999
 20
96.691
 10
-127.8779999999999
 20
96.64900000000001
 10
-127.847
 20
96.60899999999999
 10
-127.8149999999999
 20
96.57
 10
-127.781
 20
96.53299999999999
 10
-127.7449999999999
 20
96.49799999999999
 10
-127.7079999999999
 20
96.46500000000001
 10
-127.6699999999999
 20
96.43399999999999
 10
-127.631
 20
96.40500000000001
 10
-127.59
 20
96.37799999999998
 10
-127.5479999999999
 20
96.35200000000001
 10
-127.506
 20
96.32899999999999
 10
-127.462
 20
96.309
 10
-127.4179999999999
 20
96.29000000000001
 10
-127.372
 20
96.27400000000001
 10
-127.326
 20
96.25900000000001
 10
-127.2799999999999
 20
96.248
 10
-127.2329999999999
 20
96.23800000000001
 10
-127.185
 20
96.231
 10
-127.137
 20
96.226
 10
-127.089
 20
96.22399999999998
 10
-127.041
 20
96.22399999999998
 10
-126.993
 20
96.226
 10
-126.9449999999999
 20
96.231
 10
-126.897
 20
96.23800000000001
 10
-126.8489999999999
 20
96.24700000000002
 10
-126.802
 20
96.25900000000001
 10
-126.7549999999999
 20
96.27299999999999
 10
-126.7079999999999
 20
96.28900000000001
 10
-126.662
 20
96.307
 10
-126.617
 20
96.32799999999999
 10
-126.5719999999999
 20
96.35100000000001
 10
-126.5279999999999
 20
96.376
 10
-126.486
 20
96.40299999999999
 10
-126.444
 20
96.432
 10
-126.4029999999999
 20
96.46399999999999
 10
-126.3639999999999
 20
96.49700000000002
 10
-126.3249999999999
 20
96.53100000000002
 10
-126.288
 20
96.568
 10
-126.2529999999999
 20
96.60700000000002
 10
-126.2189999999999
 20
96.64700000000001
 10
-126.186
 20
96.68799999999999
 10
-126.1549999999999
 20
96.73100000000001
 10
-126.126
 20
96.77600000000001
 10
-126.0979999999999
 20
96.821
 10
-126.072
 20
96.86900000000001
 10
-126.0479999999999
 20
96.917
 10
-126.025
 20
96.96600000000001
 10
-126.0049999999999
 20
97.016
 10
-125.987
 20
97.06700000000001
 10
-125.97
 20
97.11899999999999
 10
-125.9549999999999
 20
97.17100000000002
 10
-125.943
 20
97.225
 10
-125.9319999999999
 20
97.278
 10
-125.9239999999999
 20
97.33200000000001
 10
-125.9179999999999
 20
97.38600000000001
 10
-125.913
 20
97.43999999999999
 10
-125.912
 20
97.46999999999999
  0
CIRCLE
  5
ED
330
A
100
AcDbEntity
  8
PV
  6
Continuous
 62
     7
100
AcDbCircle
 10
-119.8729999999999
 20
94.08100000000001
 30
0.0
 40
16.75
  0
CIRCLE
  5
EE
330
A
100
AcDbEntity
  8
PV
  6
Continuous
 62
     7
100
AcDbCircle
 10
-119.8729999999999
 20
94.08100000000001
 30
0.0
 40
17.0
  0
ARC
  5
EF
330
A
100
AcDbEntity
  8
PV
  6
Continuous
 62
     7
100
AcDbCircle
 10
-115.987
 20
106.9649999999999
 30
0.0
 40
0.7
100
AcDbArc
 50
265.3970849999999
 51
94.602915
  0
ARC
  5
F0
330
A
100
AcDbEntity
  8
PV
  6
Continuous
 62
     7
100
AcDbCircle
 10
-116.023
 20
106.9649999999999
 30
0.0
 40
0.7
100
AcDbArc
 50
91.745976
 51
268.254013
  0
ARC
  5
F1
330
A
100
AcDbEntity
  8
PV
  6
Continuous
 62
     7
100
AcDbCircle
 10
-117.2279999999999
 20
106.9649999999999
 30
0.0
 40
1.375
100
AcDbArc
 50
30.587561
 51
329.4124279999999
  0
ARC
  5
F2
330
A
100
AcDbEntity
  8
PV
  6
Continuous
 62
     7
100
AcDbCircle
 10
-119.557
 20
106.9649999999999
 30
0.0
 40
0.75
100
AcDbArc
 50
269.9999969999999
 51
90.00000300000001
  0
ARC
  5
F3
330
A
100
AcDbEntity
  8
PV
  6
Continuous
 62
     7
100
AcDbCircle
 10
-119.557
 20
106.9649999999999
 30
0.0
 40
0.75
100
AcDbArc
 50
90.00000300000001
 51
270.000001
  0
ARC
  5
F4
330
A
100
AcDbEntity
  8
PV
  6
Continuous
 62
     7
100
AcDbCircle
 10
-119.557
 20
106.9649999999999
 30
0.0
 40
1.395999999999999
100
AcDbArc
 50
90.00000300000001
 51
270.000001
  0
ARC
  5
F5
330
A
100
AcDbEntity
  8
PV
  6
Continuous
 62
     7
100
AcDbCircle
 10
-123.4379999999999
 20
107.59
 30
0.0
 40
0.75
100
AcDbArc
 50
179.9999909999999
 51
0.00001
  0
ARC
  5
F6
330
A
100
AcDbEntity
  8
PV
  6
Continuous
 62
     7
100
AcDbCircle
 10
-123.4379999999999
 20
107.59
 30
0.0
 40
0.75
100
AcDbArc
 50
0.0
 51
180.000005
  0
ARC
  5
F7
330
A
100
AcDbEntity
  8
PV
  6
Continuous
 62
   254
100
AcDbCircle
 10
-109.602
 20
102.831
 30
0.0
 40
0.746
100
AcDbArc
 50
359.999996
 51
90.00003000000001
  0
ARC
  5
F8
330
A
100
AcDbEntity
  8
PV
  6
Continuous
 62
   254
100
AcDbCircle
 10
-109.602
 20
102.831
 30
0.0
 40
0.448
100
AcDbArc
 50
359.999996
 51
90.00003000000001
  0
ARC
  5
F9
330
A
100
AcDbEntity
  8
PV
  6
Continuous
 62
   254
100
AcDbCircle
 10
-114.976
 20
102.831
 30
0.0
 40
0.448
100
AcDbArc
 50
359.999996
 51
89.999975
  0
ARC
  5
FA
330
A
100
AcDbEntity
  8
PV
  6
Continuous
 62
   254
100
AcDbCircle
 10
-115.125
 20
102.831
 30
0.0
 40
0.448
100
AcDbArc
 50
179.999978
 51
270.000001
  0
ARC
  5
FB
330
A
100
AcDbEntity
  8
PV
  6
Continuous
 62
   254
100
AcDbCircle
 10
-115.125
 20
102.831
 30
0.0
 40
0.746
100
AcDbArc
 50
179.999978
 51
270.000001
  0
ARC
  5
FC
330
A
100
AcDbEntity
  8
PV
  6
Continuous
 62
   254
100
AcDbCircle
 10
-123.781
 20
102.831
 30
0.0
 40
0.746
100
AcDbArc
 50
179.999978
 51
270.000001
  0
ARC
  5
FD
330
A
100
AcDbEntity
  8
PV
  6
Continuous
 62
   254
100
AcDbCircle
 10
-123.781
 20
102.831
 30
0.0
 40
0.448
100
AcDbArc
 50
179.999978
 51
270.000001
  0
ARC
  5
FE
330
A
100
AcDbEntity
  8
PV
  6
Continuous
 62
   254
100
AcDbCircle
 10
-123.632
 20
102.831
 30
0.0
 40
0.448
100
AcDbArc
 50
359.999996
 51
89.999975
  0
ARC
  5
FF
330
A
100
AcDbEntity
  8
PV
  6
Continuous
 62
   254
100
AcDbCircle
 10
-123.632
 20
102.831
 30
0.0
 40
0.746
100
AcDbArc
 50
359.999996
 51
89.999975
  0
ARC
  5
100
330
A
100
AcDbEntity
  8
PV
  6
Continuous
 62
   254
100
AcDbCircle
 10
-129.4529999999999
 20
103.1289999999999
 30
0.0
 40
0.448
100
AcDbArc
 50
359.999996
 51
89.999975
  0
ARC
  5
101
330
A
100
AcDbEntity
  8
PV
  6
Continuous
 62
   254
100
AcDbCircle
 10
-129.4529999999999
 20
103.1289999999999
 30
0.0
 40
0.149
100
AcDbArc
 50
359.999996
 51
89.999975
  0
ARC
  5
102
330
A
100
AcDbEntity
  8
PV
  6
Continuous
 62
   254
100
AcDbCircle
 10
-116.692
 20
102.831
 30
0.0
 40
0.448
100
AcDbArc
 50
89.999975
 51
270.000001
  0
ARC
  5
103
330
A
100
AcDbEntity
  8
PV
  6
Continuous
 62
   254
100
AcDbCircle
 10
-116.692
 20
102.831
 30
0.0
 40
0.746
100
AcDbArc
 50
89.999975
 51
270.000001
  0
ARC
  5
104
330
A
100
AcDbEntity
  8
PV
  6
Continuous
 62
   254
100
AcDbCircle
 10
-109.602
 20
102.831
 30
0.0
 40
0.448
100
AcDbArc
 50
270.0000109999999
 51
359.999996
  0
ARC
  5
105
330
A
100
AcDbEntity
  8
PV
  6
Continuous
 62
   254
100
AcDbCircle
 10
-109.602
 20
102.831
 30
0.0
 40
0.746
100
AcDbArc
 50
270.0000109999999
 51
359.999996
  0
ARC
  5
106
330
A
100
AcDbEntity
  8
PV
  6
Continuous
 62
   254
100
AcDbCircle
 10
-112.662
 20
102.681
 30
0.0
 40
0.299
100
AcDbArc
 50
179.999978
 51
270.000001
  0
ARC
  5
107
330
A
100
AcDbEntity
  8
PV
  6
Continuous
 62
   254
100
AcDbCircle
 10
-112.662
 20
102.681
 30
0.0
 40
0.597
100
AcDbArc
 50
179.999978
 51
270.000001
  0
CIRCLE
  5
108
330
A
100
AcDbEntity
  8
PV
  6
Continuous
 62
   254
100
AcDbCircle
 10
-114.08
 20
102.271
 30
0.0
 40
0.187
  0
ARC
  5
109
330
A
100
AcDbEntity
  8
PV
  6
Continuous
 62
   254
100
AcDbCircle
 10
-113.602
 20
102.271
 30
0.0
 40
0.187
100
AcDbArc
 50
319.9999189999999
 51
241.536827
  0
ARC
  5
10A
330
A
100
AcDbEntity
  8
PV
  6
Continuous
 62
   254
100
AcDbCircle
 10
-123.632
 20
102.831
 30
0.0
 40
0.448
100
AcDbArc
 50
270.0000109999999
 51
359.999996
  0
ARC
  5
10B
330
A
100
AcDbEntity
  8
PV
  6
Continuous
 62
   254
100
AcDbCircle
 10
-123.781
 20
102.831
 30
0.0
 40
0.448
100
AcDbArc
 50
89.999975
 51
179.99995
  0
ARC
  5
10C
330
A
100
AcDbEntity
  8
PV
  6
Continuous
 62
   254
100
AcDbCircle
 10
-123.632
 20
102.831
 30
0.0
 40
0.746
100
AcDbArc
 50
270.0000109999999
 51
359.999996
  0
ARC
  5
10D
330
A
100
AcDbEntity
  8
PV
  6
Continuous
 62
   254
100
AcDbCircle
 10
-123.781
 20
102.831
 30
0.0
 40
0.746
100
AcDbArc
 50
89.999975
 51
179.99995
  0
ARC
  5
10E
330
A
100
AcDbEntity
  8
PV
  6
Continuous
 62
   254
100
AcDbCircle
 10
-118.781
 20
102.905
 30
0.0
 40
0.373
100
AcDbArc
 50
359.999996
 51
89.999975
  0
ARC
  5
10F
330
A
100
AcDbEntity
  8
PV
  6
Continuous
 62
   254
100
AcDbCircle
 10
-118.931
 20
102.905
 30
0.0
 40
0.373
100
AcDbArc
 50
89.999975
 51
179.99995
  0
ARC
  5
110
330
A
100
AcDbEntity
  8
PV
  6
Continuous
 62
   254
100
AcDbCircle
 10
-118.781
 20
102.905
 30
0.0
 40
0.6720000000000001
100
AcDbArc
 50
359.999996
 51
89.999975
  0
ARC
  5
111
330
A
100
AcDbEntity
  8
PV
  6
Continuous
 62
   254
100
AcDbCircle
 10
-118.931
 20
102.905
 30
0.0
 40
0.6720000000000001
100
AcDbArc
 50
89.999975
 51
179.99995
  0
ARC
  5
112
330
A
100
AcDbEntity
  8
PV
  6
Continuous
 62
   254
100
AcDbCircle
 10
-127.587
 20
102.831
 30
0.0
 40
0.448
100
AcDbArc
 50
199.471211
 51
270.0000109999999
  0
ARC
  5
113
330
A
100
AcDbEntity
  8
PV
  6
Continuous
 62
   254
100
AcDbCircle
 10
-127.587
 20
102.831
 30
0.0
 40
0.448
100
AcDbArc
 50
89.999975
 51
160.528775
  0
ARC
  5
114
330
A
100
AcDbEntity
  8
PV
  6
Continuous
 62
   254
100
AcDbCircle
 10
-127.587
 20
102.831
 30
0.0
 40
0.746
100
AcDbArc
 50
89.999975
 51
270.000001
  0
ARC
  5
115
330
A
100
AcDbEntity
  8
PV
  6
Continuous
 62
   254
100
AcDbCircle
 10
-114.976
 20
102.831
 30
0.0
 40
0.448
100
AcDbArc
 50
270.0000109999999
 51
359.999996
  0
ARC
  5
116
330
A
100
AcDbEntity
  8
PV
  6
Continuous
 62
   254
100
AcDbCircle
 10
-115.125
 20
102.831
 30
0.0
 40
0.448
100
AcDbArc
 50
89.999975
 51
179.99995
  0
ARC
  5
117
330
A
100
AcDbEntity
  8
PV
  6
Continuous
 62
   254
100
AcDbCircle
 10
-114.976
 20
102.831
 30
0.0
 40
0.746
100
AcDbArc
 50
270.0000109999999
 51
359.999996
  0
ARC
  5
118
330
A
100
AcDbEntity
  8
PV
  6
Continuous
 62
   254
100
AcDbCircle
 10
-115.125
 20
102.831
 30
0.0
 40
0.746
100
AcDbArc
 50
89.999975
 51
179.99995
  0
ARC
  5
119
330
A
100
AcDbEntity
  8
PV
  6
Continuous
 62
   254
100
AcDbCircle
 10
-120.4979999999999
 20
102.831
 30
0.0
 40
0.448
100
AcDbArc
 50
199.471211
 51
270.0000109999999
  0
ARC
  5
11A
330
A
100
AcDbEntity
  8
PV
  6
Continuous
 62
   254
100
AcDbCircle
 10
-120.4979999999999
 20
102.831
 30
0.0
 40
0.448
100
AcDbArc
 50
89.999975
 51
160.528775
  0
ARC
  5
11B
330
A
100
AcDbEntity
  8
PV
  6
Continuous
 62
   254
100
AcDbCircle
 10
-120.4979999999999
 20
102.831
 30
0.0
 40
0.746
100
AcDbArc
 50
89.999975
 51
270.000001
  0
ARC
  5
11C
330
A
100
AcDbEntity
  8
PV
  6
Continuous
 62
   254
100
AcDbCircle
 10
-129.4529999999999
 20
103.1289999999999
 30
0.0
 40
0.149
100
AcDbArc
 50
270.0000109999999
 51
359.999996
  0
ARC
  5
11D
330
A
100
AcDbEntity
  8
PV
  6
Continuous
 62
   254
100
AcDbCircle
 10
-129.4529999999999
 20
103.1289999999999
 30
0.0
 40
0.448
100
AcDbArc
 50
273.7218359999999
 51
359.999996
  0
ARC
  5
11E
330
A
100
AcDbEntity
  8
PV
  6
Continuous
 62
   254
100
AcDbCircle
 10
-114.976
 20
102.831
 30
0.0
 40
0.746
100
AcDbArc
 50
359.999996
 51
89.999975
  0
ARC
  5
11F
330
A
100
AcDbEntity
  8
PV
  6
Continuous
 62
     7
100
AcDbCircle
 10
-106.377
 20
98.05500000000002
 30
0.0
 40
0.45
100
AcDbArc
 50
4.584908
 51
240.0678709999999
  0
ARC
  5
120
330
A
100
AcDbEntity
  8
PV
  6
Continuous
 62
     7
100
AcDbCircle
 10
-106.377
 20
98.05500000000002
 30
0.0
 40
0.7
100
AcDbArc
 50
14.70246199999999
 51
243.207545
  0
ARC
  5
121
330
A
100
AcDbEntity
  8
PV
  6
Continuous
 62
     7
100
AcDbCircle
 10
-106.6279999999999
 20
96.88400000000001
 30
0.0
 40
0.45
100
AcDbArc
 50
184.58491
 51
53.886818
  0
ARC
  5
122
330
A
100
AcDbEntity
  8
PV
  6
Continuous
 62
     7
100
AcDbCircle
 10
-106.6279999999999
 20
96.88400000000001
 30
0.0
 40
0.7
100
AcDbArc
 50
194.702455
 51
58.91297
  0
LINE
  5
123
330
A
100
AcDbEntity
  8
PV
  6
Continuous
 62
     7
100
AcDbLine
 10
-119.557
 20
107.715
 30
0.0
 11
-119.557
 21
106.215
 31
0.0
  0
LINE
  5
124
330
A
100
AcDbEntity
  8
PV
  6
Continuous
 62
     7
100
AcDbLine
 10
-119.557
 20
106.215
 30
0.0
 11
-119.557
 21
105.569
 31
0.0
  0
LINE
  5
125
330
A
100
AcDbEntity
  8
PV
  6
Continuous
 62
     7
100
AcDbLine
 10
-124.1879999999999
 20
107.59
 30
0.0
 11
-122.6879999999999
 21
107.59
 31
0.0
  0
LINE
  5
126
330
A
100
AcDbEntity
  8
PV
  6
Continuous
 62
     7
100
AcDbLine
 10
-116.005
 20
107.665
 30
0.0
 11
-116.005
 21
106.265
 31
0.0
  0
LINE
  5
127
330
A
100
AcDbEntity
  8
PV
  6
Continuous
 62
     7
100
AcDbLine
 10
-119.557
 20
108.3609999999999
 30
0.0
 11
-119.557
 21
107.715
 31
0.0
  0
LINE
  5
128
330
A
100
AcDbEntity
  8
PV
  6
Continuous
 62
     7
100
AcDbLine
 10
-120.9529999999999
 20
108.34
 30
0.0
 11
-120.9529999999999
 21
105.59
 31
0.0
  0
LINE
  5
129
330
A
100
AcDbEntity
  8
PV
  6
Continuous
 62
     7
100
AcDbLine
 10
-122.303
 20
108.34
 30
0.0
 11
-122.303
 21
105.59
 31
0.0
  0
LINE
  5
12A
330
A
100
AcDbEntity
  8
PV
  6
Continuous
 62
     7
100
AcDbLine
 10
-122.303
 20
108.34
 30
0.0
 11
-120.9529999999999
 21
108.34
 31
0.0
  0
LINE
  5
12B
330
A
100
AcDbEntity
  8
PV
  6
Continuous
 62
     7
100
AcDbLine
 10
-122.303
 20
105.59
 30
0.0
 11
-120.9529999999999
 21
105.59
 31
0.0
  0
LINE
  5
12C
330
A
100
AcDbEntity
  8
PV
  6
Continuous
 62
     7
100
AcDbLine
 10
-122.6879999999999
 20
107.59
 30
0.0
 11
-122.6879999999999
 21
105.59
 31
0.0
  0
LINE
  5
12D
330
A
100
AcDbEntity
  8
PV
  6
Continuous
 62
     7
100
AcDbLine
 10
-124.1879999999999
 20
105.59
 30
0.0
 11
-122.6879999999999
 21
105.59
 31
0.0
  0
LINE
  5
12E
330
A
100
AcDbEntity
  8
PV
  6
Continuous
 62
     7
100
AcDbLine
 10
-124.1879999999999
 20
107.59
 30
0.0
 11
-124.1879999999999
 21
105.59
 31
0.0
  0
LINE
  5
12F
330
A
100
AcDbEntity
  8
PV
  6
Continuous
 62
   254
100
AcDbLine
 10
-110.125
 20
102.831
 30
0.0
 11
-110.125
 21
102.383
 31
0.0
  0
LINE
  5
130
330
A
100
AcDbEntity
  8
PV
  6
Continuous
 62
   254
100
AcDbLine
 10
-110.4229999999999
 20
102.831
 30
0.0
 11
-110.4229999999999
 21
102.0839999999999
 31
0.0
  0
LINE
  5
131
330
A
100
AcDbEntity
  8
PV
  6
Continuous
 62
   254
100
AcDbLine
 10
-109.155
 20
102.831
 30
0.0
 11
-108.856
 21
102.831
 31
0.0
  0
LINE
  5
132
330
A
100
AcDbEntity
  8
PV
  6
Continuous
 62
   254
100
AcDbLine
 10
-110.4229999999999
 20
102.831
 30
0.0
 11
-110.125
 21
102.831
 31
0.0
  0
LINE
  5
133
330
A
100
AcDbEntity
  8
PV
  6
Continuous
 62
   254
100
AcDbLine
 10
-114.5279999999999
 20
102.831
 30
0.0
 11
-114.229
 21
102.831
 31
0.0
  0
LINE
  5
134
330
A
100
AcDbEntity
  8
PV
  6
Continuous
 62
   254
100
AcDbLine
 10
-115.871
 20
102.831
 30
0.0
 11
-115.5729999999999
 21
102.831
 31
0.0
  0
LINE
  5
135
330
A
100
AcDbEntity
  8
PV
  6
Continuous
 62
   254
100
AcDbLine
 10
-123.184
 20
102.831
 30
0.0
 11
-122.886
 21
102.831
 31
0.0
  0
LINE
  5
136
330
A
100
AcDbEntity
  8
PV
  6
Continuous
 62
   254
100
AcDbLine
 10
-129.3039999999999
 20
103.1289999999999
 30
0.0
 11
-129.0049999999999
 21
103.1289999999999
 31
0.0
  0
LINE
  5
137
330
A
100
AcDbEntity
  8
PV
  6
Continuous
 62
   254
100
AcDbLine
 10
-130.498
 20
103.1289999999999
 30
0.0
 11
-130.1989999999999
 21
103.1289999999999
 31
0.0
  0
LINE
  5
138
330
A
100
AcDbEntity
  8
PV
  6
Continuous
 62
   254
100
AcDbLine
 10
-130.1989999999999
 20
103.1289999999999
 30
0.0
 11
-130.1989999999999
 21
102.98
 31
0.0
  0
LINE
  5
139
330
A
100
AcDbEntity
  8
PV
  6
Continuous
 62
   254
100
AcDbLine
 10
-130.498
 20
103.1289999999999
 30
0.0
 11
-130.498
 21
102.0839999999999
 31
0.0
  0
LINE
  5
13A
330
A
100
AcDbEntity
  8
PV
  6
Continuous
 62
   254
100
AcDbLine
 10
-110.125
 20
103.278
 30
0.0
 11
-110.125
 21
102.831
 31
0.0
  0
LINE
  5
13B
330
A
100
AcDbEntity
  8
PV
  6
Continuous
 62
   254
100
AcDbLine
 10
-110.125
 20
102.383
 30
0.0
 11
-109.602
 21
102.383
 31
0.0
  0
LINE
  5
13C
330
A
100
AcDbEntity
  8
PV
  6
Continuous
 62
   254
100
AcDbLine
 10
-110.4229999999999
 20
103.577
 30
0.0
 11
-110.4229999999999
 21
102.831
 31
0.0
  0
LINE
  5
13D
330
A
100
AcDbEntity
  8
PV
  6
Continuous
 62
   254
100
AcDbLine
 10
-111.4679999999999
 20
102.0839999999999
 30
0.0
 11
-111.17
 21
102.0839999999999
 31
0.0
  0
LINE
  5
13E
330
A
100
AcDbEntity
  8
PV
  6
Continuous
 62
   254
100
AcDbLine
 10
-111.17
 20
103.278
 30
0.0
 11
-110.5729999999999
 21
103.278
 31
0.0
  0
LINE
  5
13F
330
A
100
AcDbEntity
  8
PV
  6
Continuous
 62
   254
100
AcDbLine
 10
-110.4229999999999
 20
103.577
 30
0.0
 11
-109.602
 21
103.577
 31
0.0
  0
LINE
  5
140
330
A
100
AcDbEntity
  8
PV
  6
Continuous
 62
   254
100
AcDbLine
 10
-110.125
 20
103.278
 30
0.0
 11
-109.602
 21
103.278
 31
0.0
  0
LINE
  5
141
330
A
100
AcDbEntity
  8
PV
  6
Continuous
 62
   254
100
AcDbLine
 10
-111.4679999999999
 20
103.278
 30
0.0
 11
-111.4679999999999
 21
102.0839999999999
 31
0.0
  0
LINE
  5
142
330
A
100
AcDbEntity
  8
PV
  6
Continuous
 62
   254
100
AcDbLine
 10
-111.17
 20
103.278
 30
0.0
 11
-111.17
 21
102.0839999999999
 31
0.0
  0
LINE
  5
143
330
A
100
AcDbEntity
  8
PV
  6
Continuous
 62
   254
100
AcDbLine
 10
-112.0649999999999
 20
103.278
 30
0.0
 11
-111.4679999999999
 21
103.278
 31
0.0
  0
LINE
  5
144
330
A
100
AcDbEntity
  8
PV
  6
Continuous
 62
   254
100
AcDbLine
 10
-110.5729999999999
 20
103.577
 30
0.0
 11
-110.5729999999999
 21
103.278
 31
0.0
  0
LINE
  5
145
330
A
100
AcDbEntity
  8
PV
  6
Continuous
 62
   254
100
AcDbLine
 10
-112.0649999999999
 20
103.577
 30
0.0
 11
-112.0649999999999
 21
103.278
 31
0.0
  0
LINE
  5
146
330
A
100
AcDbEntity
  8
PV
  6
Continuous
 62
   254
100
AcDbLine
 10
-112.0649999999999
 20
103.577
 30
0.0
 11
-110.5729999999999
 21
103.577
 31
0.0
  0
LINE
  5
147
330
A
100
AcDbEntity
  8
PV
  6
Continuous
 62
   254
100
AcDbLine
 10
-113.2589999999999
 20
103.577
 30
0.0
 11
-112.961
 21
103.577
 31
0.0
  0
LINE
  5
148
330
A
100
AcDbEntity
  8
PV
  6
Continuous
 62
   254
100
AcDbLine
 10
-110.4229999999999
 20
102.0839999999999
 30
0.0
 11
-109.602
 21
102.0839999999999
 31
0.0
  0
LINE
  5
149
330
A
100
AcDbEntity
  8
PV
  6
Continuous
 62
   254
100
AcDbLine
 10
-112.662
 20
102.383
 30
0.0
 11
-111.9159999999999
 21
102.383
 31
0.0
  0
LINE
  5
14A
330
A
100
AcDbEntity
  8
PV
  6
Continuous
 62
   254
100
AcDbLine
 10
-112.961
 20
103.577
 30
0.0
 11
-112.961
 21
102.681
 31
0.0
  0
LINE
  5
14B
330
A
100
AcDbEntity
  8
PV
  6
Continuous
 62
   254
100
AcDbLine
 10
-111.9159999999999
 20
102.383
 30
0.0
 11
-111.9159999999999
 21
102.0839999999999
 31
0.0
  0
LINE
  5
14C
330
A
100
AcDbEntity
  8
PV
  6
Continuous
 62
   254
100
AcDbLine
 10
-113.2589999999999
 20
103.577
 30
0.0
 11
-113.2589999999999
 21
102.681
 31
0.0
  0
LINE
  5
14D
330
A
100
AcDbEntity
  8
PV
  6
Continuous
 62
   254
100
AcDbLine
 10
-113.8179999999999
 20
101.956
 30
0.0
 11
-113.7029999999999
 21
101.8599999999999
 31
0.0
  0
LINE
  5
14E
330
A
100
AcDbEntity
  8
PV
  6
Continuous
 62
   254
100
AcDbLine
 10
-113.8179999999999
 20
101.956
 30
0.0
 11
-113.691
 21
102.107
 31
0.0
  0
LINE
  5
14F
330
A
100
AcDbEntity
  8
PV
  6
Continuous
 62
   254
100
AcDbLine
 10
-113.7029999999999
 20
101.8599999999999
 30
0.0
 11
-113.46
 21
102.151
 31
0.0
  0
LINE
  5
150
330
A
100
AcDbEntity
  8
PV
  6
Continuous
 62
   254
100
AcDbLine
 10
-123.781
 20
103.278
 30
0.0
 11
-123.632
 21
103.278
 31
0.0
  0
LINE
  5
151
330
A
100
AcDbEntity
  8
PV
  6
Continuous
 62
   254
100
AcDbLine
 10
-123.781
 20
102.383
 30
0.0
 11
-123.632
 21
102.383
 31
0.0
  0
LINE
  5
152
330
A
100
AcDbEntity
  8
PV
  6
Continuous
 62
   254
100
AcDbLine
 10
-123.781
 20
103.577
 30
0.0
 11
-123.632
 21
103.577
 31
0.0
  0
LINE
  5
153
330
A
100
AcDbEntity
  8
PV
  6
Continuous
 62
   254
100
AcDbLine
 10
-123.781
 20
102.0839999999999
 30
0.0
 11
-123.632
 21
102.0839999999999
 31
0.0
  0
LINE
  5
154
330
A
100
AcDbEntity
  8
PV
  6
Continuous
 62
   254
100
AcDbLine
 10
-118.4079999999999
 20
102.0839999999999
 30
0.0
 11
-118.11
 21
102.0839999999999
 31
0.0
  0
LINE
  5
155
330
A
100
AcDbEntity
  8
PV
  6
Continuous
 62
   254
100
AcDbLine
 10
-118.4079999999999
 20
102.905
 30
0.0
 11
-118.4079999999999
 21
102.0839999999999
 31
0.0
  0
LINE
  5
156
330
A
100
AcDbEntity
  8
PV
  6
Continuous
 62
   254
100
AcDbLine
 10
-119.304
 20
102.905
 30
0.0
 11
-119.304
 21
102.0839999999999
 31
0.0
  0
LINE
  5
157
330
A
100
AcDbEntity
  8
PV
  6
Continuous
 62
   254
100
AcDbLine
 10
-118.931
 20
103.278
 30
0.0
 11
-118.781
 21
103.278
 31
0.0
  0
LINE
  5
158
330
A
100
AcDbEntity
  8
PV
  6
Continuous
 62
   254
100
AcDbLine
 10
-118.11
 20
102.905
 30
0.0
 11
-118.11
 21
102.0839999999999
 31
0.0
  0
LINE
  5
159
330
A
100
AcDbEntity
  8
PV
  6
Continuous
 62
   254
100
AcDbLine
 10
-119.602
 20
102.905
 30
0.0
 11
-119.602
 21
102.0839999999999
 31
0.0
  0
LINE
  5
15A
330
A
100
AcDbEntity
  8
PV
  6
Continuous
 62
   254
100
AcDbLine
 10
-118.931
 20
103.577
 30
0.0
 11
-118.781
 21
103.577
 31
0.0
  0
LINE
  5
15B
330
A
100
AcDbEntity
  8
PV
  6
Continuous
 62
   254
100
AcDbLine
 10
-119.601
 20
102.0839999999999
 30
0.0
 11
-119.304
 21
102.0839999999999
 31
0.0
  0
LINE
  5
15C
330
A
100
AcDbEntity
  8
PV
  6
Continuous
 62
   254
100
AcDbLine
 10
-112.662
 20
102.0839999999999
 30
0.0
 11
-111.9159999999999
 21
102.0839999999999
 31
0.0
  0
LINE
  5
15D
330
A
100
AcDbEntity
  8
PV
  6
Continuous
 62
   254
100
AcDbLine
 10
-115.9459999999999
 20
103.278
 30
0.0
 11
-115.9459999999999
 21
103.577
 31
0.0
  0
LINE
  5
15E
330
A
100
AcDbEntity
  8
PV
  6
Continuous
 62
   254
100
AcDbLine
 10
-116.692
 20
103.278
 30
0.0
 11
-115.9459999999999
 21
103.278
 31
0.0
  0
LINE
  5
15F
330
A
100
AcDbEntity
  8
PV
  6
Continuous
 62
   254
100
AcDbLine
 10
-116.692
 20
102.383
 30
0.0
 11
-115.9459999999999
 21
102.383
 31
0.0
  0
LINE
  5
160
330
A
100
AcDbEntity
  8
PV
  6
Continuous
 62
   254
100
AcDbLine
 10
-116.692
 20
103.577
 30
0.0
 11
-115.9459999999999
 21
103.577
 31
0.0
  0
LINE
  5
161
330
A
100
AcDbEntity
  8
PV
  6
Continuous
 62
   254
100
AcDbLine
 10
-116.692
 20
102.0839999999999
 30
0.0
 11
-115.9459999999999
 21
102.0839999999999
 31
0.0
  0
LINE
  5
162
330
A
100
AcDbEntity
  8
PV
  6
Continuous
 62
   254
100
AcDbLine
 10
-126.916
 20
102.383
 30
0.0
 11
-126.916
 21
102.0839999999999
 31
0.0
  0
LINE
  5
163
330
A
100
AcDbEntity
  8
PV
  6
Continuous
 62
   254
100
AcDbLine
 10
-126.916
 20
102.98
 30
0.0
 11
-126.916
 21
102.681
 31
0.0
  0
LINE
  5
164
330
A
100
AcDbEntity
  8
PV
  6
Continuous
 62
   254
100
AcDbLine
 10
-127.587
 20
102.383
 30
0.0
 11
-126.916
 21
102.383
 31
0.0
  0
LINE
  5
165
330
A
100
AcDbEntity
  8
PV
  6
Continuous
 62
   254
100
AcDbLine
 10
-128.01
 20
102.98
 30
0.0
 11
-126.916
 21
102.98
 31
0.0
  0
LINE
  5
166
330
A
100
AcDbEntity
  8
PV
  6
Continuous
 62
   254
100
AcDbLine
 10
-128.01
 20
102.681
 30
0.0
 11
-126.916
 21
102.681
 31
0.0
  0
LINE
  5
167
330
A
100
AcDbEntity
  8
PV
  6
Continuous
 62
   254
100
AcDbLine
 10
-127.587
 20
102.0839999999999
 30
0.0
 11
-126.916
 21
102.0839999999999
 31
0.0
  0
LINE
  5
168
330
A
100
AcDbEntity
  8
PV
  6
Continuous
 62
   254
100
AcDbLine
 10
-127.587
 20
103.577
 30
0.0
 11
-126.916
 21
103.577
 31
0.0
  0
LINE
  5
169
330
A
100
AcDbEntity
  8
PV
  6
Continuous
 62
   254
100
AcDbLine
 10
-126.916
 20
103.577
 30
0.0
 11
-126.916
 21
103.278
 31
0.0
  0
LINE
  5
16A
330
A
100
AcDbEntity
  8
PV
  6
Continuous
 62
   254
100
AcDbLine
 10
-124.7979999999999
 20
102.0839999999999
 30
0.0
 11
-124.4529999999999
 21
102.0839999999999
 31
0.0
  0
LINE
  5
16B
330
A
100
AcDbEntity
  8
PV
  6
Continuous
 62
   254
100
AcDbLine
 10
-124.9739999999999
 20
103.577
 30
0.0
 11
-124.4529999999999
 21
103.577
 31
0.0
  0
LINE
  5
16C
330
A
100
AcDbEntity
  8
PV
  6
Continuous
 62
   254
100
AcDbLine
 10
-125.722
 20
102.6879999999999
 30
0.0
 11
-125.722
 21
102.0839999999999
 31
0.0
  0
LINE
  5
16D
330
A
100
AcDbEntity
  8
PV
  6
Continuous
 62
   254
100
AcDbLine
 10
-125.312
 20
102.9749999999999
 30
0.0
 11
-125.722
 21
102.6879999999999
 31
0.0
  0
LINE
  5
16E
330
A
100
AcDbEntity
  8
PV
  6
Continuous
 62
   254
100
AcDbLine
 10
-124.7979999999999
 20
102.0839999999999
 30
0.0
 11
-125.312
 21
102.9749999999999
 31
0.0
  0
LINE
  5
16F
330
A
100
AcDbEntity
  8
PV
  6
Continuous
 62
   254
100
AcDbLine
 10
-124.9739999999999
 20
103.577
 30
0.0
 11
-125.722
 21
103.0529999999999
 31
0.0
  0
LINE
  5
170
330
A
100
AcDbEntity
  8
PV
  6
Continuous
 62
   254
100
AcDbLine
 10
-124.4529999999999
 20
103.577
 30
0.0
 11
-125.067
 21
103.147
 31
0.0
  0
LINE
  5
171
330
A
100
AcDbEntity
  8
PV
  6
Continuous
 62
   254
100
AcDbLine
 10
-124.4529999999999
 20
102.0839999999999
 30
0.0
 11
-125.067
 21
103.147
 31
0.0
  0
LINE
  5
172
330
A
100
AcDbEntity
  8
PV
  6
Continuous
 62
   254
100
AcDbLine
 10
-125.722
 20
103.577
 30
0.0
 11
-125.722
 21
103.0529999999999
 31
0.0
  0
LINE
  5
173
330
A
100
AcDbEntity
  8
PV
  6
Continuous
 62
   254
100
AcDbLine
 10
-126.0199999999999
 20
103.577
 30
0.0
 11
-126.0199999999999
 21
102.0839999999999
 31
0.0
  0
LINE
  5
174
330
A
100
AcDbEntity
  8
PV
  6
Continuous
 62
   254
100
AcDbLine
 10
-126.0199999999999
 20
102.0839999999999
 30
0.0
 11
-125.722
 21
102.0839999999999
 31
0.0
  0
LINE
  5
175
330
A
100
AcDbEntity
  8
PV
  6
Continuous
 62
   254
100
AcDbLine
 10
-126.0199999999999
 20
103.577
 30
0.0
 11
-125.722
 21
103.577
 31
0.0
  0
LINE
  5
176
330
A
100
AcDbEntity
  8
PV
  6
Continuous
 62
   254
100
AcDbLine
 10
-115.125
 20
103.278
 30
0.0
 11
-114.976
 21
103.278
 31
0.0
  0
LINE
  5
177
330
A
100
AcDbEntity
  8
PV
  6
Continuous
 62
   254
100
AcDbLine
 10
-115.125
 20
102.383
 30
0.0
 11
-114.976
 21
102.383
 31
0.0
  0
LINE
  5
178
330
A
100
AcDbEntity
  8
PV
  6
Continuous
 62
   254
100
AcDbLine
 10
-115.9459999999999
 20
102.086
 30
0.0
 11
-115.9459999999999
 21
102.383
 31
0.0
  0
LINE
  5
179
330
A
100
AcDbEntity
  8
PV
  6
Continuous
 62
   254
100
AcDbLine
 10
-115.125
 20
103.577
 30
0.0
 11
-114.976
 21
103.577
 31
0.0
  0
LINE
  5
17A
330
A
100
AcDbEntity
  8
PV
  6
Continuous
 62
   254
100
AcDbLine
 10
-115.125
 20
102.0839999999999
 30
0.0
 11
-114.976
 21
102.0839999999999
 31
0.0
  0
LINE
  5
17B
330
A
100
AcDbEntity
  8
PV
  6
Continuous
 62
   254
100
AcDbLine
 10
-121.5139999999999
 20
102.0839999999999
 30
0.0
 11
-121.1699999999999
 21
102.0839999999999
 31
0.0
  0
LINE
  5
17C
330
A
100
AcDbEntity
  8
PV
  6
Continuous
 62
   254
100
AcDbLine
 10
-121.69
 20
103.577
 30
0.0
 11
-121.1699999999999
 21
103.577
 31
0.0
  0
LINE
  5
17D
330
A
100
AcDbEntity
  8
PV
  6
Continuous
 62
   254
100
AcDbLine
 10
-122.4379999999999
 20
102.6879999999999
 30
0.0
 11
-122.4379999999999
 21
102.0839999999999
 31
0.0
  0
LINE
  5
17E
330
A
100
AcDbEntity
  8
PV
  6
Continuous
 62
   254
100
AcDbLine
 10
-122.029
 20
102.9749999999999
 30
0.0
 11
-122.4379999999999
 21
102.6879999999999
 31
0.0
  0
LINE
  5
17F
330
A
100
AcDbEntity
  8
PV
  6
Continuous
 62
   254
100
AcDbLine
 10
-121.5139999999999
 20
102.0839999999999
 30
0.0
 11
-122.029
 21
102.9749999999999
 31
0.0
  0
LINE
  5
180
330
A
100
AcDbEntity
  8
PV
  6
Continuous
 62
   254
100
AcDbLine
 10
-121.69
 20
103.577
 30
0.0
 11
-122.4379999999999
 21
103.0529999999999
 31
0.0
  0
LINE
  5
181
330
A
100
AcDbEntity
  8
PV
  6
Continuous
 62
   254
100
AcDbLine
 10
-121.1699999999999
 20
103.577
 30
0.0
 11
-121.7829999999999
 21
103.147
 31
0.0
  0
LINE
  5
182
330
A
100
AcDbEntity
  8
PV
  6
Continuous
 62
   254
100
AcDbLine
 10
-121.1699999999999
 20
102.0839999999999
 30
0.0
 11
-121.7829999999999
 21
103.147
 31
0.0
  0
LINE
  5
183
330
A
100
AcDbEntity
  8
PV
  6
Continuous
 62
   254
100
AcDbLine
 10
-129.37
 20
102.0839999999999
 30
0.0
 11
-129.7879999999999
 21
102.681
 31
0.0
  0
LINE
  5
184
330
A
100
AcDbEntity
  8
PV
  6
Continuous
 62
   254
100
AcDbLine
 10
-129.0049999999999
 20
102.0839999999999
 30
0.0
 11
-129.424
 21
102.682
 31
0.0
  0
LINE
  5
185
330
A
100
AcDbEntity
  8
PV
  6
Continuous
 62
   254
100
AcDbLine
 10
-122.4379999999999
 20
103.577
 30
0.0
 11
-122.4379999999999
 21
103.0529999999999
 31
0.0
  0
LINE
  5
186
330
A
100
AcDbEntity
  8
PV
  6
Continuous
 62
   254
100
AcDbLine
 10
-122.737
 20
103.577
 30
0.0
 11
-122.737
 21
102.0839999999999
 31
0.0
  0
LINE
  5
187
330
A
100
AcDbEntity
  8
PV
  6
Continuous
 62
   254
100
AcDbLine
 10
-119.826
 20
102.383
 30
0.0
 11
-119.826
 21
102.0839999999999
 31
0.0
  0
LINE
  5
188
330
A
100
AcDbEntity
  8
PV
  6
Continuous
 62
   254
100
AcDbLine
 10
-119.826
 20
102.98
 30
0.0
 11
-119.826
 21
102.681
 31
0.0
  0
LINE
  5
189
330
A
100
AcDbEntity
  8
PV
  6
Continuous
 62
   254
100
AcDbLine
 10
-120.4979999999999
 20
103.278
 30
0.0
 11
-119.826
 21
103.278
 31
0.0
  0
LINE
  5
18A
330
A
100
AcDbEntity
  8
PV
  6
Continuous
 62
   254
100
AcDbLine
 10
-120.4979999999999
 20
102.383
 30
0.0
 11
-119.826
 21
102.383
 31
0.0
  0
LINE
  5
18B
330
A
100
AcDbEntity
  8
PV
  6
Continuous
 62
   254
100
AcDbLine
 10
-120.92
 20
102.98
 30
0.0
 11
-119.826
 21
102.98
 31
0.0
  0
LINE
  5
18C
330
A
100
AcDbEntity
  8
PV
  6
Continuous
 62
   254
100
AcDbLine
 10
-120.92
 20
102.681
 30
0.0
 11
-119.826
 21
102.681
 31
0.0
  0
LINE
  5
18D
330
A
100
AcDbEntity
  8
PV
  6
Continuous
 62
   254
100
AcDbLine
 10
-122.737
 20
102.0839999999999
 30
0.0
 11
-122.4379999999999
 21
102.0839999999999
 31
0.0
  0
LINE
  5
18E
330
A
100
AcDbEntity
  8
PV
  6
Continuous
 62
   254
100
AcDbLine
 10
-122.737
 20
103.577
 30
0.0
 11
-122.4379999999999
 21
103.577
 31
0.0
  0
LINE
  5
18F
330
A
100
AcDbEntity
  8
PV
  6
Continuous
 62
   254
100
AcDbLine
 10
-120.4979999999999
 20
102.0839999999999
 30
0.0
 11
-119.826
 21
102.0839999999999
 31
0.0
  0
LINE
  5
190
330
A
100
AcDbEntity
  8
PV
  6
Continuous
 62
   254
100
AcDbLine
 10
-120.4979999999999
 20
103.577
 30
0.0
 11
-119.826
 21
103.577
 31
0.0
  0
LINE
  5
191
330
A
100
AcDbEntity
  8
PV
  6
Continuous
 62
   254
100
AcDbLine
 10
-128.483
 20
103.577
 30
0.0
 11
-128.483
 21
102.0839999999999
 31
0.0
  0
LINE
  5
192
330
A
100
AcDbEntity
  8
PV
  6
Continuous
 62
   254
100
AcDbLine
 10
-128.781
 20
103.577
 30
0.0
 11
-128.781
 21
102.0839999999999
 31
0.0
  0
LINE
  5
193
330
A
100
AcDbEntity
  8
PV
  6
Continuous
 62
   254
100
AcDbLine
 10
-128.781
 20
102.0839999999999
 30
0.0
 11
-128.483
 21
102.0839999999999
 31
0.0
  0
LINE
  5
194
330
A
100
AcDbEntity
  8
PV
  6
Continuous
 62
   254
100
AcDbLine
 10
-128.781
 20
103.577
 30
0.0
 11
-128.483
 21
103.577
 31
0.0
  0
LINE
  5
195
330
A
100
AcDbEntity
  8
PV
  6
Continuous
 62
   254
100
AcDbLine
 10
-129.37
 20
102.0839999999999
 30
0.0
 11
-129.0049999999999
 21
102.0839999999999
 31
0.0
  0
LINE
  5
196
330
A
100
AcDbEntity
  8
PV
  6
Continuous
 62
   254
100
AcDbLine
 10
-130.1989999999999
 20
102.681
 30
0.0
 11
-130.1989999999999
 21
102.0839999999999
 31
0.0
  0
LINE
  5
197
330
A
100
AcDbEntity
  8
PV
  6
Continuous
 62
   254
100
AcDbLine
 10
-130.498
 20
103.577
 30
0.0
 11
-129.4529999999999
 21
103.577
 31
0.0
  0
LINE
  5
198
330
A
100
AcDbEntity
  8
PV
  6
Continuous
 62
   254
100
AcDbLine
 10
-130.498
 20
102.0839999999999
 30
0.0
 11
-130.1989999999999
 21
102.0839999999999
 31
0.0
  0
LINE
  5
199
330
A
100
AcDbEntity
  8
PV
  6
Continuous
 62
   254
100
AcDbLine
 10
-129.4529999999999
 20
102.98
 30
0.0
 11
-130.1989999999999
 21
102.98
 31
0.0
  0
LINE
  5
19A
330
A
100
AcDbEntity
  8
PV
  6
Continuous
 62
   254
100
AcDbLine
 10
-129.4529999999999
 20
103.278
 30
0.0
 11
-130.1989999999999
 21
103.278
 31
0.0
  0
LINE
  5
19B
330
A
100
AcDbEntity
  8
PV
  6
Continuous
 62
   254
100
AcDbLine
 10
-130.1989999999999
 20
102.681
 30
0.0
 11
-129.7879999999999
 21
102.681
 31
0.0
  0
LINE
  5
19C
330
A
100
AcDbEntity
  8
PV
  6
Continuous
 62
   254
100
AcDbLine
 10
-119.826
 20
103.577
 30
0.0
 11
-119.826
 21
103.278
 31
0.0
  0
LINE
  5
19D
330
A
100
AcDbEntity
  8
PV
  6
Continuous
 62
   254
100
AcDbLine
 10
-130.1989999999999
 20
103.278
 30
0.0
 11
-130.1989999999999
 21
103.1289999999999
 31
0.0
  0
LINE
  5
19E
330
A
100
AcDbEntity
  8
PV
  6
Continuous
 62
   254
100
AcDbLine
 10
-130.498
 20
103.577
 30
0.0
 11
-130.498
 21
103.1289999999999
 31
0.0
  0
LINE
  5
19F
330
A
100
AcDbEntity
  8
PV
  6
Continuous
 62
   254
100
AcDbLine
 10
-130.796
 20
103.577
 30
0.0
 11
-130.796
 21
102.0839999999999
 31
0.0
  0
LINE
  5
1A0
330
A
100
AcDbEntity
  8
PV
  6
Continuous
 62
   254
100
AcDbLine
 10
-131.095
 20
103.577
 30
0.0
 11
-131.095
 21
102.0839999999999
 31
0.0
  0
LINE
  5
1A1
330
A
100
AcDbEntity
  8
PV
  6
Continuous
 62
   254
100
AcDbLine
 10
-131.095
 20
102.0839999999999
 30
0.0
 11
-130.796
 21
102.0839999999999
 31
0.0
  0
LINE
  5
1A2
330
A
100
AcDbEntity
  8
PV
  6
Continuous
 62
   254
100
AcDbLine
 10
-131.095
 20
103.577
 30
0.0
 11
-130.796
 21
103.577
 31
0.0
  0
LINE
  5
1A3
330
A
100
AcDbEntity
  8
PV
  6
Continuous
 62
   254
100
AcDbLine
 10
-127.587
 20
103.278
 30
0.0
 11
-126.916
 21
103.278
 31
0.0
  0
LINE
  5
1A4
330
A
100
AcDbEntity
  8
PV
  6
Continuous
 62
   254
100
AcDbLine
 10
-124.5279999999999
 20
102.831
 30
0.0
 11
-124.229
 21
102.831
 31
0.0
  0
LINE
  5
1A5
330
A
100
AcDbEntity
  8
PV
  6
Continuous
 62
     7
100
AcDbLine
 10
-135.0899999999999
 20
101.0809999999999
 30
0.0
 11
-104.656
 21
101.0809999999999
 31
0.0
  0
LINE
  5
1A6
330
A
100
AcDbEntity
  8
PV
  6
Continuous
 62
     7
100
AcDbLine
 10
-106.267
 20
97.483
 30
0.0
 11
-106.6019999999999
 21
97.665
 31
0.0
  0
LINE
  5
1A7
330
A
100
AcDbEntity
  8
PV
  6
Continuous
 62
     7
100
AcDbLine
 10
-106.6929999999999
 20
97.43000000000002
 30
0.0
 11
-106.363
 21
97.24700000000002
 31
0.0
  0
LINE
  5
1A8
330
A
100
AcDbEntity
  8
PV
  6
Continuous
 62
     7
100
AcDbLine
 10
-105.6999999999999
 20
98.23200000000001
 30
0.0
 11
-105.929
 21
98.09000000000001
 31
0.0
  0
LINE
  5
1A9
330
A
100
AcDbEntity
  8
PV
  6
Continuous
 62
     7
100
AcDbLine
 10
-107.3059999999999
 20
96.706
 30
0.0
 11
-107.077
 21
96.848
 31
0.0
  0
LINE
  5
1AA
330
A
100
AcDbEntity
  8
PV
  6
Continuous
 62
     7
100
AcDbLine
 10
-121.261
 20
98.46899999999999
 30
0.0
 11
-121.216
 21
98.719
 31
0.0
  0
LINE
  5
1AB
330
A
100
AcDbEntity
  8
PV
  6
Continuous
 62
     7
100
AcDbLine
 10
-121.459
 20
97.344
 30
0.0
 11
-121.415
 21
97.59399999999999
 31
0.0
  0
LINE
  5
1AC
330
A
100
AcDbEntity
  8
PV
  6
Continuous
 62
     7
100
AcDbLine
 10
-121.657
 20
96.219
 30
0.0
 11
-121.6129999999999
 21
96.469
 31
0.0
  0
LINE
  5
1AD
330
A
100
AcDbEntity
  8
PV
  6
Continuous
 62
     7
100
AcDbLine
 10
-122.3349999999999
 20
97.59399999999999
 30
0.0
 11
-122.1799999999999
 21
98.46899999999999
 31
0.0
  0
LINE
  5
1AE
330
A
100
AcDbEntity
  8
PV
  6
Continuous
 62
     7
100
AcDbLine
 10
-122.3789999999999
 20
97.344
 30
0.0
 11
-121.459
 21
97.344
 31
0.0
  0
LINE
  5
1AF
330
A
100
AcDbEntity
  8
PV
  6
Continuous
 62
     7
100
AcDbLine
 10
-122.3349999999999
 20
97.59399999999999
 30
0.0
 11
-121.415
 21
97.59399999999999
 31
0.0
  0
LINE
  5
1B0
330
A
100
AcDbEntity
  8
PV
  6
Continuous
 62
     7
100
AcDbLine
 10
-122.1799999999999
 20
98.46899999999999
 30
0.0
 11
-121.261
 21
98.46899999999999
 31
0.0
  0
LINE
  5
1B1
330
A
100
AcDbEntity
  8
PV
  6
Continuous
 62
     7
100
AcDbLine
 10
-122.3899999999999
 20
98.719
 30
0.0
 11
-121.216
 21
98.719
 31
0.0
  0
LINE
  5
1B2
330
A
100
AcDbEntity
  8
PV
  6
Continuous
 62
     7
100
AcDbLine
 10
-122.5329999999999
 20
96.469
 30
0.0
 11
-122.3789999999999
 21
97.344
 31
0.0
  0
LINE
  5
1B3
330
A
100
AcDbEntity
  8
PV
  6
Continuous
 62
     7
100
AcDbLine
 10
-122.5329999999999
 20
96.469
 30
0.0
 11
-121.6129999999999
 21
96.469
 31
0.0
  0
LINE
  5
1B4
330
A
100
AcDbEntity
  8
PV
  6
Continuous
 62
     7
100
AcDbLine
 10
-122.831
 20
96.219
 30
0.0
 11
-121.657
 21
96.219
 31
0.0
  0
LINE
  5
1B5
330
A
100
AcDbEntity
  8
PV
  6
Continuous
 62
     7
100
AcDbLine
 10
-122.831
 20
96.219
 30
0.0
 11
-122.3899999999999
 21
98.719
 31
0.0
  0
LINE
  5
1B6
330
A
100
AcDbEntity
  8
PV
  6
Continuous
 62
     7
100
AcDbLine
 10
-117.2549999999999
 20
98.719
 30
0.0
 11
-116.9889999999999
 21
98.719
 31
0.0
  0
LINE
  5
1B7
330
A
100
AcDbEntity
  8
PV
  6
Continuous
 62
     7
100
AcDbLine
 10
-118.225
 20
96.219
 30
0.0
 11
-117.8989999999999
 21
96.219
 31
0.0
  0
LINE
  5
1B8
330
A
100
AcDbEntity
  8
PV
  6
Continuous
 62
     7
100
AcDbLine
 10
-118.666
 20
98.719
 30
0.0
 11
-118.412
 21
98.719
 31
0.0
  0
LINE
  5
1B9
330
A
100
AcDbEntity
  8
PV
  6
Continuous
 62
     7
100
AcDbLine
 10
-117.8989999999999
 20
96.219
 30
0.0
 11
-116.9889999999999
 21
98.719
 31
0.0
  0
LINE
  5
1BA
330
A
100
AcDbEntity
  8
PV
  6
Continuous
 62
     7
100
AcDbLine
 10
-118.666
 20
98.719
 30
0.0
 11
-118.225
 21
96.219
 31
0.0
  0
LINE
  5
1BB
330
A
100
AcDbEntity
  8
PV
  6
Continuous
 62
     7
100
AcDbLine
 10
-118.035
 20
96.57799999999999
 30
0.0
 11
-117.2549999999999
 21
98.719
 31
0.0
  0
LINE
  5
1BC
330
A
100
AcDbEntity
  8
PV
  6
Continuous
 62
     7
100
AcDbLine
 10
-118.412
 20
98.719
 30
0.0
 11
-118.035
 21
96.57799999999999
 31
0.0
  0
LINE
  5
1BD
330
A
100
AcDbEntity
  8
PV
  6
Continuous
 62
     7
100
AcDbLine
 10
-124.756
 20
98.719
 30
0.0
 11
-124.502
 21
98.719
 31
0.0
  0
LINE
  5
1BE
330
A
100
AcDbEntity
  8
PV
  6
Continuous
 62
     7
100
AcDbLine
 10
-123.824
 20
96.219
 30
0.0
 11
-123.78
 21
96.469
 31
0.0
  0
LINE
  5
1BF
330
A
100
AcDbEntity
  8
PV
  6
Continuous
 62
     7
100
AcDbLine
 10
-124.899
 20
96.469
 30
0.0
 11
-124.502
 21
98.719
 31
0.0
  0
LINE
  5
1C0
330
A
100
AcDbEntity
  8
PV
  6
Continuous
 62
     7
100
AcDbLine
 10
-124.899
 20
96.469
 30
0.0
 11
-123.78
 21
96.469
 31
0.0
  0
LINE
  5
1C1
330
A
100
AcDbEntity
  8
PV
  6
Continuous
 62
     7
100
AcDbLine
 10
-125.197
 20
96.219
 30
0.0
 11
-123.824
 21
96.219
 31
0.0
  0
LINE
  5
1C2
330
A
100
AcDbEntity
  8
PV
  6
Continuous
 62
     7
100
AcDbLine
 10
-125.197
 20
96.219
 30
0.0
 11
-124.756
 21
98.719
 31
0.0
  0
LINE
  5
1C3
330
A
100
AcDbEntity
  8
PV
  6
Continuous
 62
     7
100
AcDbLine
 10
-132.5069999999999
 20
96.74799999999999
 30
0.0
 11
-132.366
 21
96.219
 31
0.0
  0
LINE
  5
1C4
330
A
100
AcDbEntity
  8
PV
  6
Continuous
 62
     7
100
AcDbLine
 10
-133.431
 20
96.99799999999999
 30
0.0
 11
-132.938
 21
98.353
 31
0.0
  0
LINE
  5
1C5
330
A
100
AcDbEntity
  8
PV
  6
Continuous
 62
     7
100
AcDbLine
 10
-133.431
 20
96.99799999999999
 30
0.0
 11
-132.5739999999999
 21
96.99799999999999
 31
0.0
  0
LINE
  5
1C6
330
A
100
AcDbEntity
  8
PV
  6
Continuous
 62
     7
100
AcDbLine
 10
-132.938
 20
98.353
 30
0.0
 11
-132.5739999999999
 21
96.99799999999999
 31
0.0
  0
LINE
  5
1C7
330
A
100
AcDbEntity
  8
PV
  6
Continuous
 62
     7
100
AcDbLine
 10
-133.7139999999999
 20
96.219
 30
0.0
 11
-133.522
 21
96.74799999999999
 31
0.0
  0
LINE
  5
1C8
330
A
100
AcDbEntity
  8
PV
  6
Continuous
 62
     7
100
AcDbLine
 10
-132.366
 20
96.219
 30
0.0
 11
-132.1069999999999
 21
96.219
 31
0.0
  0
LINE
  5
1C9
330
A
100
AcDbEntity
  8
PV
  6
Continuous
 62
     7
100
AcDbLine
 10
-133.9799999999999
 20
96.219
 30
0.0
 11
-133.7139999999999
 21
96.219
 31
0.0
  0
LINE
  5
1CA
330
A
100
AcDbEntity
  8
PV
  6
Continuous
 62
     7
100
AcDbLine
 10
-133.522
 20
96.74799999999999
 30
0.0
 11
-132.5069999999999
 21
96.74799999999999
 31
0.0
  0
LINE
  5
1CB
330
A
100
AcDbEntity
  8
PV
  6
Continuous
 62
     7
100
AcDbLine
 10
-132.777
 20
98.719
 30
0.0
 11
-132.1069999999999
 21
96.219
 31
0.0
  0
LINE
  5
1CC
330
A
100
AcDbEntity
  8
PV
  6
Continuous
 62
     7
100
AcDbLine
 10
-133.0699999999999
 20
98.719
 30
0.0
 11
-132.777
 21
98.719
 31
0.0
  0
LINE
  5
1CD
330
A
100
AcDbEntity
  8
PV
  6
Continuous
 62
     7
100
AcDbLine
 10
-133.9799999999999
 20
96.219
 30
0.0
 11
-133.0699999999999
 21
98.719
 31
0.0
  0
LINE
  5
1CE
330
A
100
AcDbEntity
  8
PV
  6
Continuous
 62
     7
100
AcDbLine
 10
-110.355
 20
98.719
 30
0.0
 11
-110.0889999999999
 21
98.719
 31
0.0
  0
LINE
  5
1CF
330
A
100
AcDbEntity
  8
PV
  6
Continuous
 62
     7
100
AcDbLine
 10
-111.325
 20
96.219
 30
0.0
 11
-110.999
 21
96.219
 31
0.0
  0
LINE
  5
1D0
330
A
100
AcDbEntity
  8
PV
  6
Continuous
 62
     7
100
AcDbLine
 10
-111.766
 20
98.719
 30
0.0
 11
-111.512
 21
98.719
 31
0.0
  0
LINE
  5
1D1
330
A
100
AcDbEntity
  8
PV
  6
Continuous
 62
     7
100
AcDbLine
 10
-110.999
 20
96.219
 30
0.0
 11
-110.0889999999999
 21
98.719
 31
0.0
  0
LINE
  5
1D2
330
A
100
AcDbEntity
  8
PV
  6
Continuous
 62
     7
100
AcDbLine
 10
-111.766
 20
98.719
 30
0.0
 11
-111.325
 21
96.219
 31
0.0
  0
LINE
  5
1D3
330
A
100
AcDbEntity
  8
PV
  6
Continuous
 62
     7
100
AcDbLine
 10
-111.135
 20
96.57799999999999
 30
0.0
 11
-110.355
 21
98.719
 31
0.0
  0
LINE
  5
1D4
330
A
100
AcDbEntity
  8
PV
  6
Continuous
 62
     7
100
AcDbLine
 10
-111.512
 20
98.719
 30
0.0
 11
-111.135
 21
96.57799999999999
 31
0.0
  0
LINE
  5
1D5
330
A
100
AcDbEntity
  8
PV
  6
Continuous
 62
     7
100
AcDbLine
 10
-107.861
 20
98.46899999999999
 30
0.0
 11
-107.816
 21
98.719
 31
0.0
  0
LINE
  5
1D6
330
A
100
AcDbEntity
  8
PV
  6
Continuous
 62
     7
100
AcDbLine
 10
-108.0589999999999
 20
97.344
 30
0.0
 11
-108.0149999999999
 21
97.59399999999999
 31
0.0
  0
LINE
  5
1D7
330
A
100
AcDbEntity
  8
PV
  6
Continuous
 62
     7
100
AcDbLine
 10
-108.257
 20
96.219
 30
0.0
 11
-108.213
 21
96.469
 31
0.0
  0
LINE
  5
1D8
330
A
100
AcDbEntity
  8
PV
  6
Continuous
 62
     7
100
AcDbLine
 10
-108.935
 20
97.59399999999999
 30
0.0
 11
-108.78
 21
98.46899999999999
 31
0.0
  0
LINE
  5
1D9
330
A
100
AcDbEntity
  8
PV
  6
Continuous
 62
     7
100
AcDbLine
 10
-108.979
 20
97.344
 30
0.0
 11
-108.0589999999999
 21
97.344
 31
0.0
  0
LINE
  5
1DA
330
A
100
AcDbEntity
  8
PV
  6
Continuous
 62
     7
100
AcDbLine
 10
-108.935
 20
97.59399999999999
 30
0.0
 11
-108.0149999999999
 21
97.59399999999999
 31
0.0
  0
LINE
  5
1DB
330
A
100
AcDbEntity
  8
PV
  6
Continuous
 62
     7
100
AcDbLine
 10
-108.78
 20
98.46899999999999
 30
0.0
 11
-107.861
 21
98.46899999999999
 31
0.0
  0
LINE
  5
1DC
330
A
100
AcDbEntity
  8
PV
  6
Continuous
 62
     7
100
AcDbLine
 10
-108.9899999999999
 20
98.719
 30
0.0
 11
-107.816
 21
98.719
 31
0.0
  0
LINE
  5
1DD
330
A
100
AcDbEntity
  8
PV
  6
Continuous
 62
     7
100
AcDbLine
 10
-109.1329999999999
 20
96.469
 30
0.0
 11
-108.979
 21
97.344
 31
0.0
  0
LINE
  5
1DE
330
A
100
AcDbEntity
  8
PV
  6
Continuous
 62
     7
100
AcDbLine
 10
-109.1329999999999
 20
96.469
 30
0.0
 11
-108.213
 21
96.469
 31
0.0
  0
LINE
  5
1DF
330
A
100
AcDbEntity
  8
PV
  6
Continuous
 62
     7
100
AcDbLine
 10
-109.4309999999999
 20
96.219
 30
0.0
 11
-108.257
 21
96.219
 31
0.0
  0
LINE
  5
1E0
330
A
100
AcDbEntity
  8
PV
  6
Continuous
 62
     7
100
AcDbLine
 10
-109.4309999999999
 20
96.219
 30
0.0
 11
-108.9899999999999
 21
98.719
 31
0.0
  0
LINE
  5
1E1
330
A
100
AcDbEntity
  8
PV
  6
Continuous
 62
     7
100
AcDbLine
 10
-113.456
 20
98.719
 30
0.0
 11
-113.202
 21
98.719
 31
0.0
  0
LINE
  5
1E2
330
A
100
AcDbEntity
  8
PV
  6
Continuous
 62
     7
100
AcDbLine
 10
-112.524
 20
96.219
 30
0.0
 11
-112.48
 21
96.469
 31
0.0
  0
LINE
  5
1E3
330
A
100
AcDbEntity
  8
PV
  6
Continuous
 62
     7
100
AcDbLine
 10
-113.5989999999999
 20
96.469
 30
0.0
 11
-113.202
 21
98.719
 31
0.0
  0
LINE
  5
1E4
330
A
100
AcDbEntity
  8
PV
  6
Continuous
 62
     7
100
AcDbLine
 10
-113.5989999999999
 20
96.469
 30
0.0
 11
-112.48
 21
96.469
 31
0.0
  0
LINE
  5
1E5
330
A
100
AcDbEntity
  8
PV
  6
Continuous
 62
     7
100
AcDbLine
 10
-113.897
 20
96.219
 30
0.0
 11
-112.524
 21
96.219
 31
0.0
  0
LINE
  5
1E6
330
A
100
AcDbEntity
  8
PV
  6
Continuous
 62
     7
100
AcDbLine
 10
-113.897
 20
96.219
 30
0.0
 11
-113.456
 21
98.719
 31
0.0
  0
LINE
  5
1E7
330
A
100
AcDbEntity
  8
PV
  6
Continuous
 62
     7
100
AcDbLine
 10
-126.2129999999999
 20
97.862
 30
0.0
 11
-125.9779999999999
 21
97.948
 31
0.0
  0
LINE
  5
1E8
330
A
100
AcDbEntity
  8
PV
  6
Continuous
 62
     7
100
AcDbLine
 10
-126.751
 20
97.21899999999999
 30
0.0
 11
-126.707
 21
97.469
 31
0.0
  0
LINE
  5
1E9
330
A
100
AcDbEntity
  8
PV
  6
Continuous
 62
     7
100
AcDbLine
 10
-126.751
 20
97.21899999999999
 30
0.0
 11
-126.201
 21
97.21899999999999
 31
0.0
  0
LINE
  5
1EA
330
A
100
AcDbEntity
  8
PV
  6
Continuous
 62
     7
100
AcDbLine
 10
-126.707
 20
97.469
 30
0.0
 11
-125.912
 21
97.469
 31
0.0
  0
LINE
  5
1EB
330
A
100
AcDbEntity
  8
PV
  6
Continuous
 62
     7
100
AcDbLine
 10
-129.607
 20
96.66200000000001
 30
0.0
 11
-129.245
 21
98.719
 31
0.0
  0
LINE
  5
1EC
330
A
100
AcDbEntity
  8
PV
  6
Continuous
 62
     7
100
AcDbLine
 10
-129.6889999999999
 20
96.219
 30
0.0
 11
-130.5439999999999
 21
98.20999999999999
 31
0.0
  0
LINE
  5
1ED
330
A
100
AcDbEntity
  8
PV
  6
Continuous
 62
     7
100
AcDbLine
 10
-130.895
 20
96.219
 30
0.0
 11
-130.5439999999999
 21
98.20999999999999
 31
0.0
  0
LINE
  5
1EE
330
A
100
AcDbEntity
  8
PV
  6
Continuous
 62
     7
100
AcDbLine
 10
-115.107
 20
96.74799999999999
 30
0.0
 11
-114.966
 21
96.219
 31
0.0
  0
LINE
  5
1EF
330
A
100
AcDbEntity
  8
PV
  6
Continuous
 62
     7
100
AcDbLine
 10
-116.031
 20
96.99799999999999
 30
0.0
 11
-115.538
 21
98.353
 31
0.0
  0
LINE
  5
1F0
330
A
100
AcDbEntity
  8
PV
  6
Continuous
 62
     7
100
AcDbLine
 10
-116.031
 20
96.99799999999999
 30
0.0
 11
-115.1739999999999
 21
96.99799999999999
 31
0.0
  0
LINE
  5
1F1
330
A
100
AcDbEntity
  8
PV
  6
Continuous
 62
     7
100
AcDbLine
 10
-115.538
 20
98.353
 30
0.0
 11
-115.1739999999999
 21
96.99799999999999
 31
0.0
  0
LINE
  5
1F2
330
A
100
AcDbEntity
  8
PV
  6
Continuous
 62
     7
100
AcDbLine
 10
-116.314
 20
96.219
 30
0.0
 11
-116.122
 21
96.74799999999999
 31
0.0
  0
LINE
  5
1F3
330
A
100
AcDbEntity
  8
PV
  6
Continuous
 62
     7
100
AcDbLine
 10
-129.607
 20
96.66200000000001
 30
0.0
 11
-130.49
 21
98.719
 31
0.0
  0
LINE
  5
1F4
330
A
100
AcDbEntity
  8
PV
  6
Continuous
 62
     7
100
AcDbLine
 10
-129.245
 20
98.719
 30
0.0
 11
-128.991
 21
98.719
 31
0.0
  0
LINE
  5
1F5
330
A
100
AcDbEntity
  8
PV
  6
Continuous
 62
     7
100
AcDbLine
 10
-129.6889999999999
 20
96.219
 30
0.0
 11
-129.432
 21
96.219
 31
0.0
  0
LINE
  5
1F6
330
A
100
AcDbEntity
  8
PV
  6
Continuous
 62
     7
100
AcDbLine
 10
-129.432
 20
96.219
 30
0.0
 11
-128.991
 21
98.719
 31
0.0
  0
LINE
  5
1F7
330
A
100
AcDbEntity
  8
PV
  6
Continuous
 62
     7
100
AcDbLine
 10
-131.149
 20
96.219
 30
0.0
 11
-130.895
 21
96.219
 31
0.0
  0
LINE
  5
1F8
330
A
100
AcDbEntity
  8
PV
  6
Continuous
 62
     7
100
AcDbLine
 10
-130.708
 20
98.719
 30
0.0
 11
-130.49
 21
98.719
 31
0.0
  0
LINE
  5
1F9
330
A
100
AcDbEntity
  8
PV
  6
Continuous
 62
     7
100
AcDbLine
 10
-131.149
 20
96.219
 30
0.0
 11
-130.708
 21
98.719
 31
0.0
  0
LINE
  5
1FA
330
A
100
AcDbEntity
  8
PV
  6
Continuous
 62
     7
100
AcDbLine
 10
-114.966
 20
96.219
 30
0.0
 11
-114.707
 21
96.219
 31
0.0
  0
LINE
  5
1FB
330
A
100
AcDbEntity
  8
PV
  6
Continuous
 62
     7
100
AcDbLine
 10
-116.5799999999999
 20
96.219
 30
0.0
 11
-116.314
 21
96.219
 31
0.0
  0
LINE
  5
1FC
330
A
100
AcDbEntity
  8
PV
  6
Continuous
 62
     7
100
AcDbLine
 10
-116.122
 20
96.74799999999999
 30
0.0
 11
-115.107
 21
96.74799999999999
 31
0.0
  0
LINE
  5
1FD
330
A
100
AcDbEntity
  8
PV
  6
Continuous
 62
     7
100
AcDbLine
 10
-115.377
 20
98.719
 30
0.0
 11
-114.707
 21
96.219
 31
0.0
  0
LINE
  5
1FE
330
A
100
AcDbEntity
  8
PV
  6
Continuous
 62
     7
100
AcDbLine
 10
-115.67
 20
98.719
 30
0.0
 11
-115.377
 21
98.719
 31
0.0
  0
LINE
  5
1FF
330
A
100
AcDbEntity
  8
PV
  6
Continuous
 62
     7
100
AcDbLine
 10
-116.5799999999999
 20
96.219
 30
0.0
 11
-115.67
 21
98.719
 31
0.0
  0
CIRCLE
  5
200
330
A
100
AcDbEntity
  8
PV
  6
Continuous
 62
     7
100
AcDbCircle
 10
-15.87299999999999
 20
-8.958
 30
0.0
 40
1.199999999999999
  0
CIRCLE
  5
201
330
A
100
AcDbEntity
  8
PV
  6
Continuous
 62
     7
100
AcDbCircle
 10
-15.87299999999999
 20
-8.958
 30
0.0
 40
1.5
  0
CIRCLE
  5
202
330
A
100
AcDbEntity
  8
PV
  6
Continuous
 62
     7
100
AcDbCircle
 10
-33.873
 20
-8.958
 30
0.0
 40
1.199999999999999
  0
CIRCLE
  5
203
330
A
100
AcDbEntity
  8
PV
  6
Continuous
 62
     7
100
AcDbCircle
 10
-33.873
 20
-8.958
 30
0.0
 40
1.5
  0
CIRCLE
  5
204
330
A
100
AcDbEntity
  8
PV
  6
Continuous
 62
     7
100
AcDbCircle
 10
-15.87299999999999
 20
32.042
 30
0.0
 40
1.199999999999999
  0
CIRCLE
  5
205
330
A
100
AcDbEntity
  8
PV
  6
Continuous
 62
     7
100
AcDbCircle
 10
-15.87299999999999
 20
32.042
 30
0.0
 40
1.5
  0
CIRCLE
  5
206
330
A
100
AcDbEntity
  8
PV
  6
Continuous
 62
     7
100
AcDbCircle
 10
-33.873
 20
32.042
 30
0.0
 40
1.199999999999999
  0
CIRCLE
  5
207
330
A
100
AcDbEntity
  8
PV
  6
Continuous
 62
     7
100
AcDbCircle
 10
-33.873
 20
32.042
 30
0.0
 40
1.5
  0
CIRCLE
  5
208
330
A
100
AcDbEntity
  8
PV
  6
Continuous
 62
     7
100
AcDbCircle
 10
-24.873
 20
-3.458
 30
0.0
 40
3.879999999999999
  0
CIRCLE
  5
209
330
A
100
AcDbEntity
  8
PV
  6
Continuous
 62
     7
100
AcDbCircle
 10
-24.873
 20
-3.458
 30
0.0
 40
4.849999999999999
  0
CIRCLE
  5
20A
330
A
100
AcDbEntity
  8
PV
  6
Continuous
 62
     7
100
AcDbCircle
 10
-24.873
 20
19.042
 30
0.0
 40
3.879999999999999
  0
CIRCLE
  5
20B
330
A
100
AcDbEntity
  8
PV
  6
Continuous
 62
     7
100
AcDbCircle
 10
-24.873
 20
19.042
 30
0.0
 40
4.849999999999999
  0
ARC
  5
20C
330
A
100
AcDbEntity
  8
PV
  6
Continuous
 62
     7
100
AcDbCircle
 10
-157.1939999999999
 20
-56.458
 30
0.0
 40
20.0
100
AcDbArc
 50
329.9999989999999
 51
30.000001
  0
ARC
  5
20D
330
A
100
AcDbEntity
  8
PV
  6
Continuous
 62
     7
100
AcDbCircle
 10
-158.024
 20
-42.95799999999999
 30
0.0
 40
1.5
100
AcDbArc
 50
14.999978
 51
89.999962
  0
ARC
  5
20E
330
A
100
AcDbEntity
  8
PV
  6
Continuous
 62
     7
100
AcDbCircle
 10
-133.3729999999999
 20
-94.609
 30
0.0
 40
1.5
100
AcDbArc
 50
104.999979
 51
179.9999639999999
  0
ARC
  5
20F
330
A
100
AcDbEntity
  8
PV
  6
Continuous
 62
     7
100
AcDbCircle
 10
-108.8729999999999
 20
-75.45799999999999
 30
0.0
 40
1.0
100
AcDbArc
 50
90.00000300000001
 51
180.000005
  0
ARC
  5
210
330
A
100
AcDbEntity
  8
PV
  6
Continuous
 62
     7
100
AcDbCircle
 10
-130.8729999999999
 20
-75.45799999999999
 30
0.0
 40
1.0
100
AcDbArc
 50
0.0
 51
90.00000300000001
  0
ARC
  5
211
330
A
100
AcDbEntity
  8
PV
  6
Continuous
 62
     7
100
AcDbCircle
 10
-158.024
 20
-69.958
 30
0.0
 40
1.5
100
AcDbArc
 50
269.9999839999999
 51
344.999964
  0
ARC
  5
212
330
A
100
AcDbEntity
  8
PV
  6
Continuous
 62
     7
100
AcDbCircle
 10
-106.3729999999999
 20
-94.609
 30
0.0
 40
1.5
100
AcDbArc
 50
359.9999819999999
 51
74.999965
  0
ARC
  5
213
330
A
100
AcDbEntity
  8
PV
  6
Continuous
 62
     7
100
AcDbCircle
 10
-11.37299999999999
 20
-94.609
 30
0.0
 40
1.5
100
AcDbArc
 50
359.9999819999999
 51
74.999965
  0
ARC
  5
214
330
A
100
AcDbEntity
  8
PV
  6
Continuous
 62
     7
100
AcDbCircle
 10
-38.373
 20
-94.609
 30
0.0
 40
1.5
100
AcDbArc
 50
104.999979
 51
179.9999639999999
  0
ARC
  5
215
330
A
100
AcDbEntity
  8
PV
  6
Continuous
 62
     7
100
AcDbCircle
 10
-13.87299999999999
 20
-75.45799999999999
 30
0.0
 40
1.0
100
AcDbArc
 50
90.00000300000001
 51
180.000005
  0
ARC
  5
216
330
A
100
AcDbEntity
  8
PV
  6
Continuous
 62
     7
100
AcDbCircle
 10
-35.873
 20
-75.45799999999999
 30
0.0
 40
1.0
100
AcDbArc
 50
0.0
 51
90.00000300000001
  0
ARC
  5
217
330
A
100
AcDbEntity
  8
PV
  6
Continuous
 62
     7
100
AcDbCircle
 10
-119.8729999999999
 20
94.08100000000001
 30
0.0
 40
30.5
100
AcDbArc
 50
39.601929
 51
50.39811799999999
  0
ARC
  5
218
330
A
100
AcDbEntity
  8
PV
  6
Continuous
 62
     7
100
AcDbCircle
 10
-119.8729999999999
 20
94.08100000000001
 30
0.0
 40
30.5
100
AcDbArc
 50
309.6019699999999
 51
320.398071
  0
ARC
  5
219
330
A
100
AcDbEntity
  8
PV
  6
Continuous
 62
     7
100
AcDbCircle
 10
-119.8729999999999
 20
94.08100000000001
 30
0.0
 40
30.5
100
AcDbArc
 50
219.601924
 51
230.398035
  0
ARC
  5
21A
330
A
100
AcDbEntity
  8
PV
  6
Continuous
 62
     7
100
AcDbCircle
 10
-119.8729999999999
 20
94.08100000000001
 30
0.0
 40
30.5
100
AcDbArc
 50
129.601883
 51
140.398076
  0
ARC
  5
21B
330
A
100
AcDbEntity
  8
PV
  6
Continuous
 62
     7
100
AcDbCircle
 10
-95.373
 20
83.581
 30
0.0
 40
2.0
100
AcDbArc
 50
269.9999969999999
 51
0.0
  0
ARC
  5
21C
330
A
100
AcDbEntity
  8
PV
  6
Continuous
 62
     7
100
AcDbCircle
 10
-95.373
 20
104.581
 30
0.0
 40
2.0
100
AcDbArc
 50
0.0
 51
90.00000300000001
  0
CIRCLE
  5
21D
330
A
100
AcDbEntity
  8
PV
  6
Continuous
 62
     7
100
AcDbCircle
 10
-137.3729999999999
 20
111.5809999999999
 30
0.0
 40
4.75
  0
CIRCLE
  5
21E
330
A
100
AcDbEntity
  8
PV
  6
Continuous
 62
     7
100
AcDbCircle
 10
-102.373
 20
111.5809999999999
 30
0.0
 40
4.75
  0
CIRCLE
  5
21F
330
A
100
AcDbEntity
  8
PV
  6
Continuous
 62
     7
100
AcDbCircle
 10
-137.3729999999999
 20
76.58100000000001
 30
0.0
 40
4.75
  0
CIRCLE
  5
220
330
A
100
AcDbEntity
  8
PV
  6
Continuous
 62
     7
100
AcDbCircle
 10
-102.373
 20
76.58100000000001
 30
0.0
 40
4.75
  0
ARC
  5
221
330
A
100
AcDbEntity
  8
PV
  6
Continuous
 62
     7
100
AcDbCircle
 10
-158.024
 20
80.58100000000001
 30
0.0
 40
1.5
100
AcDbArc
 50
270.0000379999999
 51
345.000022
  0
ARC
  5
222
330
A
100
AcDbEntity
  8
PV
  6
Continuous
 62
     7
100
AcDbCircle
 10
-158.024
 20
107.581
 30
0.0
 40
1.5
100
AcDbArc
 50
14.999978
 51
89.999962
  0
LINE
  5
223
330
A
100
AcDbEntity
  8
PV
  6
Continuous
 62
     7
100
AcDbLine
 10
-100.431
 20
36.042
 30
0.0
 11
-100.431
 21
-12.958
 31
0.0
  0
LINE
  5
224
330
A
100
AcDbEntity
  8
PV
  6
Continuous
 62
     7
100
AcDbLine
 10
-139.315
 20
36.042
 30
0.0
 11
-139.315
 21
-12.958
 31
0.0
  0
LINE
  5
225
330
A
100
AcDbEntity
  8
PV
  6
Continuous
 62
     7
100
AcDbLine
 10
-5.431
 20
36.042
 30
0.0
 11
-5.431
 21
-12.958
 31
0.0
  0
LINE
  5
226
330
A
100
AcDbEntity
  8
PV
  6
Continuous
 62
     7
100
AcDbLine
 10
-44.31499999999999
 20
36.042
 30
0.0
 11
-44.31499999999999
 21
-12.958
 31
0.0
  0
LINE
  5
228
330
A
100
AcDbEntity
  8
PV
  6
CENTER
 62
     7
100
AcDbLine
 10
-18.14099999999999
 20
-8.958
 30
0.0
 11
-13.352
 21
-8.958
 31
0.0
  0
LINE
  5
229
330
A
100
AcDbEntity
  8
PV
  6
CENTER
 62
     7
100
AcDbLine
 10
-15.87299999999999
 20
-11.72299999999999
 30
0.0
 11
-15.87299999999999
 21
-6.572
 31
0.0
  0
LINE
  5
22A
330
A
100
AcDbEntity
  8
PV
  6
CENTER
 62
     7
100
AcDbLine
 10
-31.606
 20
-8.958
 30
0.0
 11
-36.394
 21
-8.958
 31
0.0
  0
LINE
  5
22B
330
A
100
AcDbEntity
  8
PV
  6
CENTER
 62
     7
100
AcDbLine
 10
-33.873
 20
-11.72299999999999
 30
0.0
 11
-33.873
 21
-6.572
 31
0.0
  0
LINE
  5
22C
330
A
100
AcDbEntity
  8
PV
  6
CENTER
 62
     7
100
AcDbLine
 10
-18.14099999999999
 20
32.042
 30
0.0
 11
-13.352
 21
32.042
 31
0.0
  0
LINE
  5
22D
330
A
100
AcDbEntity
  8
PV
  6
CENTER
 62
     7
100
AcDbLine
 10
-15.87299999999999
 20
34.80699999999999
 30
0.0
 11
-15.87299999999999
 21
29.656
 31
0.0
  0
LINE
  5
22E
330
A
100
AcDbEntity
  8
PV
  6
CENTER
 62
     7
100
AcDbLine
 10
-31.606
 20
32.042
 30
0.0
 11
-36.394
 21
32.042
 31
0.0
  0
LINE
  5
22F
330
A
100
AcDbEntity
  8
PV
  6
CENTER
 62
     7
100
AcDbLine
 10
-33.873
 20
34.80699999999999
 30
0.0
 11
-33.873
 21
29.656
 31
0.0
  0
LINE
  5
230
330
A
100
AcDbEntity
  8
PV
  6
Continuous
 62
     7
100
AcDbLine
 10
-37.373
 20
36.042
 30
0.0
 11
-37.373
 21
-12.958
 31
0.0
  0
LINE
  5
231
330
A
100
AcDbEntity
  8
PV
  6
Continuous
 62
     7
100
AcDbLine
 10
-12.373
 20
36.042
 30
0.0
 11
-12.373
 21
-12.958
 31
0.0
  0
LINE
  5
232
330
A
100
AcDbEntity
  8
PV
  6
Continuous
 62
     7
100
AcDbLine
 10
-93.37299999999999
 20
36.042
 30
0.0
 11
-93.37299999999999
 21
-12.958
 31
0.0
  0
LINE
  5
233
330
A
100
AcDbEntity
  8
PV
  6
Continuous
 62
     7
100
AcDbLine
 10
-99.966
 20
-72.458
 30
0.0
 11
-139.7839999999999
 21
-72.458
 31
0.0
  0
LINE
  5
234
330
A
100
AcDbEntity
  8
PV
  6
Continuous
 62
     7
100
AcDbLine
 10
-99.87299999999999
 20
-72.458
 30
0.0
 11
-101.8729999999999
 21
-74.458
 31
0.0
  0
LINE
  5
235
330
A
100
AcDbEntity
  8
PV
  6
Continuous
 62
     7
100
AcDbLine
 10
-139.873
 20
-72.458
 30
0.0
 11
-137.873
 21
-74.458
 31
0.0
  0
LINE
  5
236
330
A
100
AcDbEntity
  8
PV
  6
Continuous
 62
     7
100
AcDbLine
 10
-96.37299999999999
 20
-23.458
 30
0.0
 11
-143.3729999999999
 21
-23.458
 31
0.0
  0
LINE
  5
237
330
A
100
AcDbEntity
  8
PV
  6
Continuous
 62
     7
100
AcDbLine
 10
-93.37299999999999
 20
-12.958
 30
0.0
 11
-143.3729999999999
 21
-12.958
 31
0.0
  0
LINE
  5
238
330
A
100
AcDbEntity
  8
PV
  6
Continuous
 62
     7
100
AcDbLine
 10
-93.37299999999999
 20
36.042
 30
0.0
 11
-143.3729999999999
 21
36.042
 31
0.0
  0
LINE
  5
239
330
A
100
AcDbEntity
  8
PV
  6
Continuous
 62
     7
100
AcDbLine
 10
-96.37299999999999
 20
-12.87099999999999
 30
0.0
 11
-96.37299999999999
 21
36.042
 31
0.0
  0
LINE
  5
23A
330
A
100
AcDbEntity
  8
PV
  6
Continuous
 62
     7
100
AcDbLine
 10
-100.373
 20
-13.059
 30
0.0
 11
-100.373
 21
-23.404
 31
0.0
  0
LINE
  5
23B
330
A
100
AcDbEntity
  8
PV
  6
Continuous
 62
     7
100
AcDbLine
 10
-139.3729999999999
 20
-12.958
 30
0.0
 11
-139.3729999999999
 21
-23.34099999999999
 31
0.0
  0
LINE
  5
23C
330
A
100
AcDbEntity
  8
PV
  6
Continuous
 62
     7
100
AcDbLine
 10
-96.37299999999999
 20
-12.99599999999999
 30
0.0
 11
-96.37299999999999
 21
-23.458
 31
0.0
  0
LINE
  5
23D
330
A
100
AcDbEntity
  8
PV
  6
Continuous
 62
     7
100
AcDbLine
 10
-143.3729999999999
 20
-12.99599999999999
 30
0.0
 11
-143.3729999999999
 21
-23.404
 31
0.0
  0
LINE
  5
23E
330
A
100
AcDbEntity
  8
PV
  6
Continuous
 62
     7
100
AcDbLine
 10
-143.3729999999999
 20
36.042
 30
0.0
 11
-143.3729999999999
 21
-12.958
 31
0.0
  0
LINE
  5
23F
330
A
100
AcDbEntity
  8
PV
  6
CENTER
 62
     7
100
AcDbLine
 10
-119.8729999999999
 20
46.95
 30
0.0
 11
-119.8729999999999
 21
-101.604
 31
0.0
  0
LINE
  5
240
330
A
100
AcDbEntity
  8
PV
  6
Continuous
 62
     7
100
AcDbLine
 10
-139.873
 20
-23.46699999999999
 30
0.0
 11
-139.873
 21
-46.458
 31
0.0
  0
LINE
  5
241
330
A
100
AcDbEntity
  8
PV
  6
Continuous
 62
     7
100
AcDbLine
 10
-99.87299999999999
 20
-23.46699999999999
 30
0.0
 11
-99.87299999999999
 21
-72.458
 31
0.0
  0
LINE
  5
242
330
A
100
AcDbEntity
  8
PV
  6
Continuous
 62
     7
100
AcDbLine
 10
-93.37299999999999
 20
-12.958
 30
0.0
 11
-93.37299999999999
 21
36.042
 31
0.0
  0
LINE
  5
243
330
A
100
AcDbEntity
  8
PV
  6
CENTER
 62
     7
100
AcDbLine
 10
-89.87799999999998
 20
19.042
 30
0.0
 11
-105.515
 21
19.042
 31
0.0
  0
LINE
  5
244
330
A
100
AcDbEntity
  8
PV
  6
CENTER
 62
     7
100
AcDbLine
 10
-89.87799999999998
 20
-3.458
 30
0.0
 11
-106.0089999999999
 21
-3.458
 31
0.0
  0
LINE
  5
245
330
A
100
AcDbEntity
  8
PV
  6
CENTER
 62
     7
100
AcDbLine
 10
-135.387
 20
-56.458
 30
0.0
 11
-166.932
 21
-56.458
 31
0.0
  0
LINE
  5
246
330
A
100
AcDbEntity
  8
PV
  6
Continuous
 62
     7
100
AcDbLine
 10
-155.5329999999999
 20
-66.458
 30
0.0
 11
-155.5329999999999
 21
-46.458
 31
0.0
  0
LINE
  5
247
330
A
100
AcDbEntity
  8
PV
  6
Continuous
 62
     7
100
AcDbLine
 10
-156.8729999999999
 20
-70.92
 30
0.0
 11
-156.8729999999999
 21
-41.996
 31
0.0
  0
LINE
  5
248
330
A
100
AcDbEntity
  8
PV
  6
Continuous
 62
     7
100
AcDbLine
 10
-156.5749999999999
 20
-42.57
 30
0.0
 11
-155.5329999999999
 21
-46.458
 31
0.0
  0
LINE
  5
249
330
A
100
AcDbEntity
  8
PV
  6
Continuous
 62
     7
100
AcDbLine
 10
-156.5749999999999
 20
-70.34600000000001
 30
0.0
 11
-155.5329999999999
 21
-66.458
 31
0.0
  0
LINE
  5
24A
330
A
100
AcDbEntity
  8
PV
  6
Continuous
 62
     7
100
AcDbLine
 10
-155.5329999999999
 20
-66.458
 30
0.0
 11
-139.873
 21
-66.458
 31
0.0
  0
LINE
  5
24B
330
A
100
AcDbEntity
  8
PV
  6
Continuous
 62
     7
100
AcDbLine
 10
-155.5329999999999
 20
-46.458
 30
0.0
 11
-139.873
 21
-46.458
 31
0.0
  0
LINE
  5
24C
330
A
100
AcDbEntity
  8
PV
  6
Continuous
 62
     7
100
AcDbLine
 10
-159.8729999999999
 20
-71.458
 30
0.0
 11
-158.024
 21
-71.458
 31
0.0
  0
LINE
  5
24D
330
A
100
AcDbEntity
  8
PV
  6
Continuous
 62
     7
100
AcDbLine
 10
-159.8729999999999
 20
-41.458
 30
0.0
 11
-158.024
 21
-41.458
 31
0.0
  0
LINE
  5
24E
330
A
100
AcDbEntity
  8
PV
  6
Continuous
 62
     7
100
AcDbLine
 10
-159.8729999999999
 20
-71.458
 30
0.0
 11
-159.8729999999999
 21
-41.458
 31
0.0
  0
LINE
  5
24F
330
A
100
AcDbEntity
  8
PV
  6
Continuous
 62
     7
100
AcDbLine
 10
-109.8729999999999
 20
-92.118
 30
0.0
 11
-129.8729999999999
 21
-92.118
 31
0.0
  0
LINE
  5
250
330
A
100
AcDbEntity
  8
PV
  6
Continuous
 62
     7
100
AcDbLine
 10
-105.411
 20
-93.458
 30
0.0
 11
-134.335
 21
-93.458
 31
0.0
  0
LINE
  5
251
330
A
100
AcDbEntity
  8
PV
  6
Continuous
 62
     7
100
AcDbLine
 10
-133.7609999999999
 20
-93.16
 30
0.0
 11
-129.8729999999999
 21
-92.118
 31
0.0
  0
LINE
  5
252
330
A
100
AcDbEntity
  8
PV
  6
Continuous
 62
     7
100
AcDbLine
 10
-105.9849999999999
 20
-93.16
 30
0.0
 11
-109.8729999999999
 21
-92.118
 31
0.0
  0
LINE
  5
253
330
A
100
AcDbEntity
  8
PV
  6
Continuous
 62
     7
100
AcDbLine
 10
-109.8729999999999
 20
-92.118
 30
0.0
 11
-109.8729999999999
 21
-75.45799999999999
 31
0.0
  0
LINE
  5
254
330
A
100
AcDbEntity
  8
PV
  6
Continuous
 62
     7
100
AcDbLine
 10
-129.8729999999999
 20
-92.118
 30
0.0
 11
-129.8729999999999
 21
-75.45799999999999
 31
0.0
  0
LINE
  5
255
330
A
100
AcDbEntity
  8
PV
  6
Continuous
 62
     7
100
AcDbLine
 10
-104.8729999999999
 20
-96.45800000000001
 30
0.0
 11
-104.8729999999999
 21
-94.609
 31
0.0
  0
LINE
  5
256
330
A
100
AcDbEntity
  8
PV
  6
Continuous
 62
     7
100
AcDbLine
 10
-134.8729999999999
 20
-96.45800000000001
 30
0.0
 11
-134.8729999999999
 21
-94.609
 31
0.0
  0
LINE
  5
257
330
A
100
AcDbEntity
  8
PV
  6
Continuous
 62
     7
100
AcDbLine
 10
-104.8729999999999
 20
-96.45800000000001
 30
0.0
 11
-134.8729999999999
 21
-96.45800000000001
 31
0.0
  0
LINE
  5
258
330
A
100
AcDbEntity
  8
PV
  6
Continuous
 62
     7
100
AcDbLine
 10
-101.8729999999999
 20
-74.458
 30
0.0
 11
-137.873
 21
-74.458
 31
0.0
  0
LINE
  5
259
330
A
100
AcDbEntity
  8
PV
  6
Continuous
 62
     7
100
AcDbLine
 10
-139.873
 20
-66.458
 30
0.0
 11
-139.873
 21
-72.458
 31
0.0
  0
LINE
  5
25A
330
A
100
AcDbEntity
  8
PV
  6
CENTER
 62
     7
100
AcDbLine
 10
-137.3729999999999
 20
40.68999999999999
 30
0.0
 11
-137.3729999999999
 21
-26.72699999999999
 31
0.0
  0
LINE
  5
25B
330
A
100
AcDbEntity
  8
PV
  6
CENTER
 62
     7
100
AcDbLine
 10
-102.373
 20
41.03699999999999
 30
0.0
 11
-102.373
 21
-26.413
 31
0.0
  0
LINE
  5
25C
330
A
100
AcDbEntity
  8
PV
  6
Continuous
 62
     7
100
AcDbLine
 10
-130.0729999999999
 20
-12.933
 30
0.0
 11
-130.0729999999999
 21
36.018
 31
0.0
  0
LINE
  5
25D
330
A
100
AcDbEntity
  8
PV
  6
Continuous
 62
     7
100
AcDbLine
 10
-125.6729999999999
 20
-12.87099999999999
 30
0.0
 11
-125.6729999999999
 21
35.988
 31
0.0
  0
LINE
  5
25E
330
A
100
AcDbEntity
  8
PV
  6
Continuous
 62
     7
100
AcDbLine
 10
-114.073
 20
-12.87099999999999
 30
0.0
 11
-114.073
 21
35.953
 31
0.0
  0
LINE
  5
25F
330
A
100
AcDbEntity
  8
PV
  6
Continuous
 62
     7
100
AcDbLine
 10
-109.6729999999999
 20
-12.933
 30
0.0
 11
-109.6729999999999
 21
35.953
 31
0.0
  0
LINE
  5
260
330
A
100
AcDbEntity
  8
PV
  6
Continuous
 62
     7
100
AcDbLine
 10
-4.966
 20
-72.458
 30
0.0
 11
-44.78399999999999
 21
-72.458
 31
0.0
  0
LINE
  5
261
330
A
100
AcDbEntity
  8
PV
  6
Continuous
 62
     7
100
AcDbLine
 10
-4.873
 20
-72.458
 30
0.0
 11
-6.872999999999999
 21
-74.458
 31
0.0
  0
LINE
  5
262
330
A
100
AcDbEntity
  8
PV
  6
Continuous
 62
     7
100
AcDbLine
 10
-44.873
 20
-72.458
 30
0.0
 11
-42.873
 21
-74.458
 31
0.0
  0
LINE
  5
263
330
A
100
AcDbEntity
  8
PV
  6
Continuous
 62
     7
100
AcDbLine
 10
-1.373
 20
-23.458
 30
0.0
 11
-48.373
 21
-23.458
 31
0.0
  0
LINE
  5
264
330
A
100
AcDbEntity
  8
PV
  6
Continuous
 62
     7
100
AcDbLine
 10
-1.373
 20
-12.958
 30
0.0
 11
-48.373
 21
-12.958
 31
0.0
  0
LINE
  5
265
330
A
100
AcDbEntity
  8
PV
  6
Continuous
 62
     7
100
AcDbLine
 10
-1.373
 20
36.042
 30
0.0
 11
-48.373
 21
36.042
 31
0.0
  0
LINE
  5
266
330
A
100
AcDbEntity
  8
PV
  6
Continuous
 62
     7
100
AcDbLine
 10
-1.373
 20
-12.87099999999999
 30
0.0
 11
-1.373
 21
36.042
 31
0.0
  0
LINE
  5
267
330
A
100
AcDbEntity
  8
PV
  6
Continuous
 62
     7
100
AcDbLine
 10
-5.372999999999999
 20
-13.059
 30
0.0
 11
-5.372999999999999
 21
-23.404
 31
0.0
  0
LINE
  5
268
330
A
100
AcDbEntity
  8
PV
  6
Continuous
 62
     7
100
AcDbLine
 10
-44.373
 20
-12.958
 30
0.0
 11
-44.373
 21
-23.34099999999999
 31
0.0
  0
LINE
  5
269
330
A
100
AcDbEntity
  8
PV
  6
Continuous
 62
     7
100
AcDbLine
 10
-1.373
 20
-12.99599999999999
 30
0.0
 11
-1.373
 21
-23.458
 31
0.0
  0
LINE
  5
26A
330
A
100
AcDbEntity
  8
PV
  6
Continuous
 62
     7
100
AcDbLine
 10
-48.373
 20
-12.99599999999999
 30
0.0
 11
-48.373
 21
-23.404
 31
0.0
  0
LINE
  5
26B
330
A
100
AcDbEntity
  8
PV
  6
Continuous
 62
     7
100
AcDbLine
 10
-48.373
 20
36.042
 30
0.0
 11
-48.373
 21
-12.958
 31
0.0
  0
LINE
  5
26C
330
A
100
AcDbEntity
  8
PV
  6
CENTER
 62
     7
100
AcDbLine
 10
-24.873
 20
46.284
 30
0.0
 11
-24.873
 21
-101.604
 31
0.0
  0
LINE
  5
26D
330
A
100
AcDbEntity
  8
PV
  6
Continuous
 62
     7
100
AcDbLine
 10
-44.873
 20
-23.46699999999999
 30
0.0
 11
-44.873
 21
-72.458
 31
0.0
  0
LINE
  5
26E
330
A
100
AcDbEntity
  8
PV
  6
Continuous
 62
     7
100
AcDbLine
 10
-4.873
 20
-23.46699999999999
 30
0.0
 11
-4.873
 21
-72.458
 31
0.0
  0
LINE
  5
26F
330
A
100
AcDbEntity
  8
PV
  6
CENTER
 62
     7
100
AcDbLine
 10
-18.667
 20
19.042
 30
0.0
 11
-31.548
 21
19.042
 31
0.0
  0
LINE
  5
270
330
A
100
AcDbEntity
  8
PV
  6
CENTER
 62
     7
100
AcDbLine
 10
-18.667
 20
-3.458
 30
0.0
 11
-31.04
 21
-3.458
 31
0.0
  0
LINE
  5
271
330
A
100
AcDbEntity
  8
PV
  6
Continuous
 62
     7
100
AcDbLine
 10
-14.873
 20
-92.118
 30
0.0
 11
-34.873
 21
-92.118
 31
0.0
  0
LINE
  5
272
330
A
100
AcDbEntity
  8
PV
  6
Continuous
 62
     7
100
AcDbLine
 10
-10.41099999999999
 20
-93.458
 30
0.0
 11
-39.335
 21
-93.458
 31
0.0
  0
LINE
  5
273
330
A
100
AcDbEntity
  8
PV
  6
Continuous
 62
     7
100
AcDbLine
 10
-38.76099999999999
 20
-93.16
 30
0.0
 11
-34.873
 21
-92.118
 31
0.0
  0
LINE
  5
274
330
A
100
AcDbEntity
  8
PV
  6
Continuous
 62
     7
100
AcDbLine
 10
-10.985
 20
-93.16
 30
0.0
 11
-14.873
 21
-92.118
 31
0.0
  0
LINE
  5
275
330
A
100
AcDbEntity
  8
PV
  6
Continuous
 62
     7
100
AcDbLine
 10
-14.873
 20
-92.118
 30
0.0
 11
-14.873
 21
-75.45799999999999
 31
0.0
  0
LINE
  5
276
330
A
100
AcDbEntity
  8
PV
  6
Continuous
 62
     7
100
AcDbLine
 10
-34.873
 20
-92.118
 30
0.0
 11
-34.873
 21
-75.45799999999999
 31
0.0
  0
LINE
  5
277
330
A
100
AcDbEntity
  8
PV
  6
Continuous
 62
     7
100
AcDbLine
 10
-9.872999999999999
 20
-96.45800000000001
 30
0.0
 11
-9.872999999999999
 21
-94.609
 31
0.0
  0
LINE
  5
278
330
A
100
AcDbEntity
  8
PV
  6
Continuous
 62
     7
100
AcDbLine
 10
-39.873
 20
-96.45800000000001
 30
0.0
 11
-39.873
 21
-94.609
 31
0.0
  0
LINE
  5
279
330
A
100
AcDbEntity
  8
PV
  6
Continuous
 62
     7
100
AcDbLine
 10
-9.872999999999999
 20
-96.45800000000001
 30
0.0
 11
-39.873
 21
-96.45800000000001
 31
0.0
  0
LINE
  5
27A
330
A
100
AcDbEntity
  8
PV
  6
Continuous
 62
     7
100
AcDbLine
 10
-6.872999999999999
 20
-74.458
 30
0.0
 11
-42.873
 21
-74.458
 31
0.0
  0
LINE
  5
27B
330
A
100
AcDbEntity
  8
PV
  6
CENTER
 62
     7
100
AcDbLine
 10
-42.373
 20
40.73699999999999
 30
0.0
 11
-42.373
 21
-26.72699999999999
 31
0.0
  0
LINE
  5
27C
330
A
100
AcDbEntity
  8
PV
  6
CENTER
 62
     7
100
AcDbLine
 10
-7.372999999999999
 20
40.73699999999999
 30
0.0
 11
-7.372999999999999
 21
-26.413
 31
0.0
  0
LINE
  5
27D
330
A
100
AcDbEntity
  8
PV
  6
Continuous
 62
     7
100
AcDbLine
 10
-109.6729999999999
 20
117.581
 30
0.0
 11
-109.6729999999999
 21
116.581
 31
0.0
  0
LINE
  5
27E
330
A
100
AcDbEntity
  8
PV
  6
Continuous
 62
     7
100
AcDbLine
 10
-109.6729999999999
 20
116.581
 30
0.0
 11
-108.773
 21
116.581
 31
0.0
  0
LINE
  5
27F
330
A
100
AcDbEntity
  8
PV
  6
Continuous
 62
     7
100
AcDbLine
 10
-108.773
 20
116.581
 30
0.0
 11
-108.773
 21
112.881
 31
0.0
  0
LINE
  5
280
330
A
100
AcDbEntity
  8
PV
  6
Continuous
 62
     7
100
AcDbLine
 10
-114.9729999999999
 20
112.881
 30
0.0
 11
-108.773
 21
112.881
 31
0.0
  0
LINE
  5
281
330
A
100
AcDbEntity
  8
PV
  6
Continuous
 62
     7
100
AcDbLine
 10
-114.9729999999999
 20
116.581
 30
0.0
 11
-114.9729999999999
 21
112.881
 31
0.0
  0
LINE
  5
282
330
A
100
AcDbEntity
  8
PV
  6
Continuous
 62
     7
100
AcDbLine
 10
-114.9729999999999
 20
116.581
 30
0.0
 11
-114.073
 21
116.581
 31
0.0
  0
LINE
  5
283
330
A
100
AcDbEntity
  8
PV
  6
Continuous
 62
     7
100
AcDbLine
 10
-114.073
 20
117.581
 30
0.0
 11
-114.073
 21
116.581
 31
0.0
  0
LINE
  5
284
330
A
100
AcDbEntity
  8
PV
  6
Continuous
 62
     7
100
AcDbLine
 10
-125.6729999999999
 20
117.581
 30
0.0
 11
-125.6729999999999
 21
116.581
 31
0.0
  0
LINE
  5
285
330
A
100
AcDbEntity
  8
PV
  6
Continuous
 62
     7
100
AcDbLine
 10
-125.6729999999999
 20
116.581
 30
0.0
 11
-124.773
 21
116.581
 31
0.0
  0
LINE
  5
286
330
A
100
AcDbEntity
  8
PV
  6
Continuous
 62
     7
100
AcDbLine
 10
-124.773
 20
116.581
 30
0.0
 11
-124.773
 21
112.881
 31
0.0
  0
LINE
  5
287
330
A
100
AcDbEntity
  8
PV
  6
Continuous
 62
     7
100
AcDbLine
 10
-130.9729999999999
 20
112.881
 30
0.0
 11
-124.773
 21
112.881
 31
0.0
  0
LINE
  5
288
330
A
100
AcDbEntity
  8
PV
  6
Continuous
 62
     7
100
AcDbLine
 10
-130.9729999999999
 20
116.581
 30
0.0
 11
-130.0729999999999
 21
116.581
 31
0.0
  0
LINE
  5
289
330
A
100
AcDbEntity
  8
PV
  6
Continuous
 62
     7
100
AcDbLine
 10
-130.9729999999999
 20
116.581
 30
0.0
 11
-130.9729999999999
 21
112.881
 31
0.0
  0
LINE
  5
28A
330
A
100
AcDbEntity
  8
PV
  6
Continuous
 62
     7
100
AcDbLine
 10
-130.0729999999999
 20
117.581
 30
0.0
 11
-130.0729999999999
 21
116.581
 31
0.0
  0
LINE
  5
28B
330
A
100
AcDbEntity
  8
PV
  6
Continuous
 62
     7
100
AcDbLine
 10
-100.431
 20
117.581
 30
0.0
 11
-139.315
 21
117.581
 31
0.0
  0
LINE
  5
28C
330
A
100
AcDbEntity
  8
PV
  6
CENTER
 62
     7
100
AcDbLine
 10
-137.3729999999999
 20
106.9409999999999
 30
0.0
 11
-137.3729999999999
 21
116.032
 31
0.0
  0
LINE
  5
28D
330
A
100
AcDbEntity
  8
PV
  6
CENTER
 62
     7
100
AcDbLine
 10
-132.8529999999999
 20
111.5809999999999
 30
0.0
 11
-141.493
 21
111.5809999999999
 31
0.0
  0
LINE
  5
28E
330
A
100
AcDbEntity
  8
PV
  6
CENTER
 62
     7
100
AcDbLine
 10
-102.373
 20
106.9409999999999
 30
0.0
 11
-102.373
 21
116.032
 31
0.0
  0
LINE
  5
28F
330
A
100
AcDbEntity
  8
PV
  6
CENTER
 62
     7
100
AcDbLine
 10
-106.8929999999999
 20
111.5809999999999
 30
0.0
 11
-98.25299999999998
 21
111.5809999999999
 31
0.0
  0
LINE
  5
290
330
A
100
AcDbEntity
  8
PV
  6
CENTER
 62
     7
100
AcDbLine
 10
-137.3729999999999
 20
81.22100000000001
 30
0.0
 11
-137.3729999999999
 21
72.12899999999999
 31
0.0
  0
LINE
  5
291
330
A
100
AcDbEntity
  8
PV
  6
CENTER
 62
     7
100
AcDbLine
 10
-132.8529999999999
 20
76.58100000000001
 30
0.0
 11
-141.493
 21
76.58100000000001
 31
0.0
  0
LINE
  5
292
330
A
100
AcDbEntity
  8
PV
  6
Continuous
 62
     7
100
AcDbLine
 10
-96.37299999999999
 20
81.58100000000001
 30
0.0
 11
-96.37299999999999
 21
74.638
 31
0.0
  0
LINE
  5
293
330
A
100
AcDbEntity
  8
PV
  6
Continuous
 62
     7
100
AcDbLine
 10
-96.37299999999999
 20
113.5229999999999
 30
0.0
 11
-96.37299999999999
 21
106.581
 31
0.0
  0
LINE
  5
294
330
A
100
AcDbEntity
  8
PV
  6
Continuous
 62
     7
100
AcDbLine
 10
-100.431
 20
70.581
 30
0.0
 11
-139.315
 21
70.581
 31
0.0
  0
LINE
  5
295
330
A
100
AcDbEntity
  8
PV
  6
Continuous
 62
     7
100
AcDbLine
 10
-143.3729999999999
 20
113.5229999999999
 30
0.0
 11
-143.3729999999999
 21
74.638
 31
0.0
  0
LINE
  5
296
330
A
100
AcDbEntity
  8
PV
  6
Continuous
 62
     7
100
AcDbLine
 10
-96.37299999999999
 20
110.5809999999999
 30
0.0
 11
-96.37299999999999
 21
106.581
 31
0.0
  0
LINE
  5
297
330
A
100
AcDbEntity
  8
PV
  6
Continuous
 62
     7
100
AcDbLine
 10
-96.37299999999999
 20
81.58100000000001
 30
0.0
 11
-96.37299999999999
 21
77.581
 31
0.0
  0
LINE
  5
298
330
A
100
AcDbEntity
  8
PV
  6
CENTER
 62
     7
100
AcDbLine
 10
-106.8929999999999
 20
76.58100000000001
 30
0.0
 11
-98.25299999999998
 21
76.58100000000001
 31
0.0
  0
LINE
  5
299
330
A
100
AcDbEntity
  8
PV
  6
CENTER
 62
     7
100
AcDbLine
 10
-102.373
 20
81.22100000000001
 30
0.0
 11
-102.373
 21
72.12899999999999
 31
0.0
  0
LINE
  5
29A
330
A
100
AcDbEntity
  8
PV
  6
Continuous
 62
     7
100
AcDbLine
 10
-95.373
 20
81.58100000000001
 30
0.0
 11
-96.37299999999999
 21
81.58100000000001
 31
0.0
  0
LINE
  5
29B
330
A
100
AcDbEntity
  8
PV
  6
Continuous
 62
     7
100
AcDbLine
 10
-95.373
 20
106.581
 30
0.0
 11
-96.37299999999999
 21
106.581
 31
0.0
  0
LINE
  5
29C
330
A
100
AcDbEntity
  8
PV
  6
Continuous
 62
     7
100
AcDbLine
 10
-130.9729999999999
 20
71.58100000000001
 30
0.0
 11
-130.0729999999999
 21
71.58100000000001
 31
0.0
  0
LINE
  5
29D
330
A
100
AcDbEntity
  8
PV
  6
Continuous
 62
     7
100
AcDbLine
 10
-130.9729999999999
 20
71.58100000000001
 30
0.0
 11
-130.9729999999999
 21
75.28100000000001
 31
0.0
  0
LINE
  5
29E
330
A
100
AcDbEntity
  8
PV
  6
Continuous
 62
     7
100
AcDbLine
 10
-130.9729999999999
 20
75.28100000000001
 30
0.0
 11
-124.773
 21
75.28100000000001
 31
0.0
  0
LINE
  5
29F
330
A
100
AcDbEntity
  8
PV
  6
Continuous
 62
     7
100
AcDbLine
 10
-124.773
 20
71.58100000000001
 30
0.0
 11
-124.773
 21
75.28100000000001
 31
0.0
  0
LINE
  5
2A0
330
A
100
AcDbEntity
  8
PV
  6
Continuous
 62
     7
100
AcDbLine
 10
-125.6729999999999
 20
71.58100000000001
 30
0.0
 11
-124.773
 21
71.58100000000001
 31
0.0
  0
LINE
  5
2A1
330
A
100
AcDbEntity
  8
PV
  6
Continuous
 62
     7
100
AcDbLine
 10
-125.6729999999999
 20
70.581
 30
0.0
 11
-125.6729999999999
 21
71.58100000000001
 31
0.0
  0
LINE
  5
2A2
330
A
100
AcDbEntity
  8
PV
  6
Continuous
 62
     7
100
AcDbLine
 10
-114.073
 20
70.581
 30
0.0
 11
-114.073
 21
71.58100000000001
 31
0.0
  0
LINE
  5
2A3
330
A
100
AcDbEntity
  8
PV
  6
Continuous
 62
     7
100
AcDbLine
 10
-114.9729999999999
 20
71.58100000000001
 30
0.0
 11
-114.073
 21
71.58100000000001
 31
0.0
  0
LINE
  5
2A4
330
A
100
AcDbEntity
  8
PV
  6
Continuous
 62
     7
100
AcDbLine
 10
-130.0729999999999
 20
70.581
 30
0.0
 11
-130.0729999999999
 21
71.58100000000001
 31
0.0
  0
LINE
  5
2A5
330
A
100
AcDbEntity
  8
PV
  6
Continuous
 62
     7
100
AcDbLine
 10
-114.9729999999999
 20
71.58100000000001
 30
0.0
 11
-114.9729999999999
 21
75.28100000000001
 31
0.0
  0
LINE
  5
2A6
330
A
100
AcDbEntity
  8
PV
  6
Continuous
 62
     7
100
AcDbLine
 10
-114.9729999999999
 20
75.28100000000001
 30
0.0
 11
-108.773
 21
75.28100000000001
 31
0.0
  0
LINE
  5
2A7
330
A
100
AcDbEntity
  8
PV
  6
Continuous
 62
     7
100
AcDbLine
 10
-109.6729999999999
 20
70.581
 30
0.0
 11
-109.6729999999999
 21
71.58100000000001
 31
0.0
  0
LINE
  5
2A8
330
A
100
AcDbEntity
  8
PV
  6
Continuous
 62
     7
100
AcDbLine
 10
-109.6729999999999
 20
71.58100000000001
 30
0.0
 11
-108.773
 21
71.58100000000001
 31
0.0
  0
LINE
  5
2A9
330
A
100
AcDbEntity
  8
PV
  6
Continuous
 62
     7
100
AcDbLine
 10
-108.773
 20
71.58100000000001
 30
0.0
 11
-108.773
 21
75.28100000000001
 31
0.0
  0
LINE
  5
2AA
330
A
100
AcDbEntity
  8
PV
  6
Continuous
 62
     7
100
AcDbLine
 10
-93.37299999999999
 20
83.581
 30
0.0
 11
-93.37299999999999
 21
104.581
 31
0.0
  0
LINE
  5
2AB
330
A
100
AcDbEntity
  8
PV
  6
CENTER
 62
     7
100
AcDbLine
 10
-119.8729999999999
 20
119.4329999999999
 30
0.0
 11
-119.8729999999999
 21
68.766
 31
0.0
  0
LINE
  5
2AC
330
A
100
AcDbEntity
  8
PV
  6
Continuous
 62
     7
100
AcDbLine
 10
-159.8729999999999
 20
79.08100000000001
 30
0.0
 11
-158.024
 21
79.08100000000001
 31
0.0
  0
LINE
  5
2AD
330
A
100
AcDbEntity
  8
PV
  6
Continuous
 62
     7
100
AcDbLine
 10
-156.5749999999999
 20
80.19199999999999
 30
0.0
 11
-155.5329999999999
 21
84.08100000000001
 31
0.0
  0
LINE
  5
2AE
330
A
100
AcDbEntity
  8
PV
  6
Continuous
 62
     7
100
AcDbLine
 10
-155.5329999999999
 20
104.081
 30
0.0
 11
-155.5329999999999
 21
84.08100000000001
 31
0.0
  0
LINE
  5
2AF
330
A
100
AcDbEntity
  8
PV
  6
Continuous
 62
     7
100
AcDbLine
 10
-156.8729999999999
 20
108.5429999999999
 30
0.0
 11
-156.8729999999999
 21
79.61899999999999
 31
0.0
  0
LINE
  5
2B0
330
A
100
AcDbEntity
  8
PV
  6
CENTER
 62
     7
100
AcDbLine
 10
-162.7499999999999
 20
94.08100000000001
 30
0.0
 11
-88.573
 21
94.08100000000001
 31
0.0
  0
LINE
  5
2B1
330
A
100
AcDbEntity
  8
PV
  6
Continuous
 62
     7
100
AcDbLine
 10
-156.5749999999999
 20
107.969
 30
0.0
 11
-155.5329999999999
 21
104.081
 31
0.0
  0
LINE
  5
2B2
330
A
100
AcDbEntity
  8
PV
  6
Continuous
 62
     7
100
AcDbLine
 10
-155.5329999999999
 20
84.08100000000001
 30
0.0
 11
-143.3729999999999
 21
84.08100000000001
 31
0.0
  0
LINE
  5
2B3
330
A
100
AcDbEntity
  8
PV
  6
Continuous
 62
     7
100
AcDbLine
 10
-155.5329999999999
 20
104.081
 30
0.0
 11
-143.3729999999999
 21
104.081
 31
0.0
  0
LINE
  5
2B4
330
A
100
AcDbEntity
  8
PV
  6
Continuous
 62
     7
100
AcDbLine
 10
-159.8729999999999
 20
109.081
 30
0.0
 11
-158.024
 21
109.081
 31
0.0
  0
LINE
  5
2B5
330
A
100
AcDbEntity
  8
PV
  6
Continuous
 62
     7
100
AcDbLine
 10
-159.8729999999999
 20
79.08100000000001
 30
0.0
 11
-159.8729999999999
 21
109.081
 31
0.0
  0
ENDSEC
  0
SECTION
  2
OBJECTS
  0
DICTIONARY
  5
19
330
0
100
AcDbDictionary
281
     1
  3
ACAD_GROUP
350
1A
  3
ACAD_LAYOUT
350
1E
  3
ACAD_MLINESTYLE
350
1B
  3
ACAD_PLOTSETTINGS
350
22
  3
ACAD_PLOTSTYLENAME
350
1F
  0
DICTIONARY
  5
1A
102
{ACAD_REACTORS
330
19
102
}
330
19
100
AcDbDictionary
281
     1
  0
DICTIONARY
  5
1E
102
{ACAD_REACTORS
330
19
102
}
330
19
100
AcDbDictionary
281
     1
  3
Layout1
350
21
  3
Model
350
20
  0
DICTIONARY
  5
1B
102
{ACAD_REACTORS
330
19
102
}
330
19
100
AcDbDictionary
281
     1
  3
Standard
350
1C
  0
DICTIONARY
  5
22
102
{ACAD_REACTORS
330
19
102
}
330
19
100
AcDbDictionary
281
     1
  0
ACDBDICTIONARYWDFLT
  5
1F
102
{ACAD_REACTORS
330
19
102
}
330
19
100
AcDbDictionary
281
     1
  3
Normal
350
1D
100
AcDbDictionaryWithDefault
340
1D
  0
LAYOUT
  5
21
102
{ACAD_REACTORS
330
1E
102
}
330
1E
100
AcDbPlotSettings
  1

  2

  4

  6

 40
0.0
 41
0.0
 42
0.0
 43
0.0
 44
0.0
 45
0.0
 46
0.0
 47
0.0
 48
0.0
 49
0.0
140
0.0
141
0.0
142
1.0
143
1.0
 70
     0
 72
     0
 73
     0
 74
     0
  7

 75
     0
147
1.0
148
0.0
149
0.0
100
AcDbLayout
  1
Layout1
 70
     0
 71
     1
 10
0.0
 20
0.0
 11
12.0
 21
9.0
 12
0.0
 22
0.0
 32
0.0
 14
1.000000000000000E+20
 24
1.000000000000000E+20
 34
1.000000000000000E+20
 15
-1.000000000000000E+20
 25
-1.000000000000000E+20
 35
-1.000000000000000E+20
146
0.0
 13
0.0
 23
0.0
 33
0.0
 16
1.0
 26
0.0
 36
0.0
 17
0.0
 27
1.0
 37
0.0
 76
     0
330
B
  0
LAYOUT
  5
20
102
{ACAD_REACTORS
330
1E
102
}
330
1E
100
AcDbPlotSettings
  1

  2
Adobe PDF
  4
A3
  6

 40
3.174999952316284
 41
3.174999952316284
 42
3.17498779296875
 43
3.17498779296875
 44
297.0318298339843
 45
420.1583251953125
 46
39.81
 47
78.92
 48
0.0
 49
0.0
140
0.0
141
0.0
142
1.0
143
1.0
 70
 11268
 72
     1
 73
     0
 74
     2
  7

 75
     0
147
1.0
148
187.7836659999999
149
121.0939999999999
100
AcDbLayout
  1
Model
 70
     0
 71
     0
 10
0.0
 20
0.0
 11
0.0
 21
0.0
 12
0.0
 22
0.0
 32
0.0
 14
0.0
 24
0.0
 34
0.0
 15
0.0
 25
0.0
 35
0.0
146
0.0
 13
0.0
 23
0.0
 33
0.0
 16
0.0
 26
0.0
 36
0.0
 17
0.0
 27
0.0
 37
0.0
 76
     0
330
A
  0
MLINESTYLE
  5
1C
102
{ACAD_REACTORS
330
1B
102
}
330
1B
100
AcDbMlineStyle
  2
STANDARD
 70
     0
  3

 62
     0
 51
90.0
 52
90.0
 71
     2
 49
0.5
 62
   256
  6
BYLAYER
 49
-0.5
 62
   256
  6
BYLAYER
  0
ACDBPLACEHOLDER
  5
1D
102
{ACAD_REACTORS
330
1F
102
}
330
1F
  0
ENDSEC
  0
EOF
