  0
SECTION
  2
HEADER
  9
$ACADVER
  1
AC1009
  9
$DWGCODEPAGE
  3
dos932
  9
$INSBASE
 10
0.0
 20
0.0
 30
0.0
  9
$EXTMIN
 10
-3.0
 20
-346.00000047683716
 30
0.0
  9
$EXTMAX
 10
285.0
 20
27.5
 30
0.0
  9
$LIMMIN
 10
-3.0
 20
-346.00000047683716
  9
$LIMMAX
 10
285.0
 20
27.5
  9
$ORTHOMODE
 70
               0
  9
$REGENMODE
 70
               1
  9
$FILLMODE
 70
               1
  9
$QTEXTMODE
 70
               0
  9
$MIRRTEXT
 70
               1
  9
$DRAGMODE
 70
               2
  9
$LTSCALE
 40
1.0
  9
$OSMODE
 70
               0
  9
$ATTMODE
 70
               1
  9
$TEXTSIZE
 40
3.2000000476837158
  9
$TRACEWID
 40
0.05
  9
$TEXTSTYLE
  7
MX_NOTE_STANDARD
  9
$CLAYER
  8
LY_3
  9
$CELTYPE
  6
CONTINUOUS
  9
$CECOLOR
 62
             256
  9
$DIMSCALE
 40
1.0
  9
$DIMASZ
 40
2.5
  9
$DIMEXO
 40
2.0
  9
$DIMDLI
 40
3.75
  9
$DIMRND
 40
0.0
  9
$DIMDLE
 40
0.0
  9
$DIMEXE
 40
1.0
  9
$DIMTP
 40
0.0
  9
$DIMTM
 40
0.0
  9
$DIMTXT
 40
4.1655998229980469
  9
$DIMCEN
 40
2.5
  9
$DIMTSZ
 40
0.0
  9
$DIMTOL
 70
               0
  9
$DIMLIM
 70
               0
  9
$DIMTIH
 70
               0
  9
$DIMTOH
 70
               0
  9
$DIMSE1
 70
               0
  9
$DIMSE2
 70
               0
  9
$DIMTAD
 70
               1
  9
$DIMZIN
 70
               8
  9
$DIMBLK
  1

  9
$DIMASO
 70
               1
  9
$DIMSHO
 70
               1
  9
$DIMPOST
  1

  9
$DIMAPOST
  1

  9
$DIMALT
 70
               0
  9
$DIMALTD
 70
               4
  9
$DIMALTF
 40
0.03937007874016
  9
$DIMLFAC
 40
1.0
  9
$DIMTOFL
 70
               1
  9
$DIMTVP
 40
0.0
  9
$DIMTIX
 70
               0
  9
$DIMSOXD
 70
               0
  9
$DIMSAH
 70
               1
  9
$DIMBLK1
  1
_OPEN30
  9
$DIMBLK2
  1
_OPEN30
  9
$DIMSTYLE
  2
MXDIMSTYLE
  9
$DIMCLRD
 70
               0
  9
$DIMCLRE
 70
               0
  9
$DIMCLRT
 70
               0
  9
$DIMTFAC
 40
1.0
  9
$DIMGAP
 40
1.0
  9
$LUNITS
 70
               2
  9
$LUPREC
 70
               4
  9
$AXISMODE
 70
               0
  9
$AXISUNIT
 10
0.0
 20
0.0
  9
$SKETCHINC
 40
0.1
  9
$FILLETRAD
 40
0.0
  9
$AUNITS
 70
               0
  9
$AUPREC
 70
               0
  9
$MENU
  1
acad
  9
$ELEVATION
 40
0.0
  9
$PELEVATION
 40
0.0
  9
$THICKNESS
 40
0.0
  9
$LIMCHECK
 70
               0
  9
$BLIPMODE
 70
               1
  9
$CHAMFERA
 40
0.0
  9
$CHAMFERB
 40
0.0
  9
$SKPOLY
 70
               0
  9
$TDCREATE
 40
2455163.528900463
  9
$TDUPDATE
 40
2455163.528900463
  9
$TDINDWG
 40
0.0000000000
  9
$TDUSRTIMER
 40
0.0000000000
  9
$USRTIMER
 70
               1
  9
$ANGBASE
 50
0.0
  9
$ANGDIR
 70
               0
  9
$PDMODE
 70
               0
  9
$PDSIZE
 40
0.0
  9
$PLINEWID
 40
0.0
  9
$COORDS
 70
               1
  9
$SPLFRAME
 70
               0
  9
$SPLINETYPE
 70
               6
  9
$SPLINESEGS
 70
               8
  9
$ATTDIA
 70
               0
  9
$ATTREQ
 70
               1
  9
$HANDLING
 70
               1
  9
$HANDSEED
  5
189
  9
$SURFTAB1
 70
               6
  9
$SURFTAB2
 70
               6
  9
$SURFTYPE
 70
               6
  9
$SURFU
 70
               6
  9
$SURFV
 70
               6
  9
$UCSNAME
  2

  9
$UCSORG
 10
0.0
 20
0.0
 30
0.0
  9
$UCSXDIR
 10
1.0
 20
0.0
 30
0.0
  9
$UCSYDIR
 10
0.0
 20
1.0
 30
0.0
  9
$PUCSNAME
  2

  9
$PUCSORG
 10
0.0
 20
0.0
 30
0.0
  9
$PUCSXDIR
 10
1.0
 20
0.0
 30
0.0
  9
$PUCSYDIR
 10
0.0
 20
1.0
 30
0.0
  9
$USERI1
 70
               0
  9
$USERI2
 70
               0
  9
$USERI3
 70
               0
  9
$USERI4
 70
               0
  9
$USERI5
 70
               0
  9
$USERR1
 40
0.0
  9
$USERR2
 40
0.0
  9
$USERR3
 40
0.0
  9
$USERR4
 40
0.0
  9
$USERR5
 40
0.0
  9
$WORLDVIEW
 70
               1
  9
$SHADEDGE
 70
               3
  9
$SHADEDIF
 70
              70
  9
$TILEMODE
 70
               1
  9
$MAXACTVP
 70
              16
  9
$PINSBASE
 10
0.0
 20
0.0
 30
0.0
  9
$PLIMCHECK
 70
               0
  9
$PEXTMIN
 10
1.0000000000000000E+20
 20
1.0000000000000000E+20
 30
1.0000000000000000E+20
  9
$PEXTMAX
 10
-1.0000000000000000E+20
 20
-1.0000000000000000E+20
 30
-1.0000000000000000E+20
  9
$PLIMMIN
 10
0.0
 20
0.0
  9
$PLIMMAX
 10
12.0
 20
9.0
  9
$UNITMODE
 70
               0
  9
$VISRETAIN
 70
               0
  9
$PLINEGEN
 70
               1
  9
$PSLTSCALE
 70
               0
  9
$TREEDEPTH
 70
            3020
  0
ENDSEC
  0
SECTION
  2
TABLES
  0
TABLE
  2
VPORT
 70
               1
  0
VPORT
  2
*ACTIVE
 70
               0
 10
0.0
 20
0.0
 11
1.0
 21
1.0
 12
141.0
 22
-159.25000023841858
 13
0.0
 23
0.0
 14
1.0
 24
1.0
 15
0.0
 25
0.0
 16
0.0
 26
0.0
 36
1.0
 17
0.0
 27
0.0
 37
0.0
 40
377.23500048160554
 41
1.7320508075688772
 42
50.0
 43
0.0
 44
0.0
 50
0.0
 51
0.0
 71
               0
 72
             100
 73
               1
 74
               1
 75
               0
 76
               0
 77
               0
 78
               0
  0
ENDTAB
  0
TABLE
  2
LTYPE
 70
               2
  0
LTYPE
  2
CONTINUOUS
 70
              64
  3
Solid line
 72
              65
 73
               0
 40
0.0
  0
LTYPE
  2
CENTER
 70
              64
  3
Center ____ _ ____ _ ____ _ ____ _ ____ _ ____
 72
              65
 73
               4
 40
50.800000000000004
 49
31.75
 49
-6.3499999999999996
 49
6.3499999999999996
 49
-6.3499999999999996
  0
ENDTAB
  0
TABLE
  2
LAYER
 70
               3
  0
LAYER
  2
0
 70
               0
 62
               7
  6
CONTINUOUS
  0
LAYER
  2
DEFPOINTS
 70
               0
 62
               7
  6
CONTINUOUS
  0
LAYER
  2
LY_3
 70
               0
 62
               7
  6
CONTINUOUS
  0
ENDTAB
  0
TABLE
  2
STYLE
 70
               1
  0
STYLE
  2
MX_NOTE_STANDARD
 70
               0
 40
0.0
 41
1.0
 50
0.0
 71
               0
 42
3.2000000476837158
  3
txt.shx
  4
extfont.shx
  0
ENDTAB
  0
TABLE
  2
VIEW
 70
               0
  0
ENDTAB
  0
TABLE
  2
UCS
 70
               0
  0
ENDTAB
  0
TABLE
  2
APPID
 70
               1
  0
APPID
  2
ACAD
 70
               0
  0
ENDTAB
  0
TABLE
  2
DIMSTYLE
 70
               1
  0
DIMSTYLE
  2
MXDIMSTYLE
 70
               0
  3

  4

  5

  6
_OPEN30
  7
_OPEN30
 40
1.0
 41
2.5
 42
2.0
 43
3.75
 44
1.0
 45
0.0
 46
0.0
 47
0.0
 48
0.0
 71
               0
 72
               0
 73
               0
 74
               0
 75
               0
 76
               0
 77
               1
 78
               8
140
4.1655998229980469
141
2.5
142
0.0
143
0.03937007874016
144
1.0
145
0.0
146
1.0
147
1.0
170
               0
171
               4
172
               1
173
               1
174
               0
175
               0
176
               0
177
               0
178
               0
  0
ENDTAB
  0
ENDSEC
  0
SECTION
  2
BLOCKS
  0
BLOCK
  8
0
  6
BYBLOCK
 62
               0
  5
20
  2
_OPEN30
 70
               2
 10
0.0
 20
0.0
 30
0.0
  3
_OPEN30
  0
LINE
  8
0
  6
BYBLOCK
 62
               0
  5
21
 10
-1.0
 20
0.267949
 30
0.0
 11
0.0
 21
0.0
 31
0.0
  0
LINE
  8
0
  6
BYBLOCK
 62
               0
  5
22
 10
0.0
 20
0.0
 30
0.0
 11
-1.0
 21
-0.267949
 31
0.0
  0
LINE
  8
0
  6
BYBLOCK
 62
               0
  5
23
 10
0.0
 20
0.0
 30
0.0
 11
-1.0
 21
0.0
 31
0.0
  0
ENDBLK
  8
0
  6
BYBLOCK
 62
               0
  5
24
  0
ENDSEC
  0
SECTION
  2
ENTITIES
  0
TEXT
  8
LY_3
  6
CONTINUOUS
 62
             110
  5
25
 10
228.82352806079317
 20
-324.0
 30
0.0
 40
8.0
  1
VP9100
 41
0.9929999709374764
  7
MX_NOTE_STANDARD
 11
228.82352806079317
 21
-316.0
 31
0.0
 73
               3
  0
LINE
  8
LY_3
  6
CONTINUOUS
 62
               3
  5
26
 10
272.0
 20
-306.57090900000003
 30
0.0
 11
272.0
 21
-240.0
 31
0.0
  0
LINE
  8
LY_3
  6
CONTINUOUS
 62
               3
  5
27
 10
240.91176200000001
 20
-289.0
 30
0.0
 11
240.91176200000001
 21
-240.0
 31
0.0
  0
LINE
  8
LY_3
  6
CONTINUOUS
 62
               3
  5
28
 10
238.0
 20
-296.57090900000003
 30
0.0
 11
238.0
 21
-240.0
 31
0.0
  0
LINE
  8
LY_3
  6
CENTER
 62
             110
  5
2A
 10
283.0
 20
-240.0
 30
0.0
 11
227.0
 21
-240.0
 31
0.0
  0
LINE
  8
LY_3
  6
CONTINUOUS
 62
               3
  5
2B
 10
255.0
 20
-191.0
 30
0.0
 11
255.0
 21
-195.44999999999999
 31
0.0
  0
LINE
  8
LY_3
  6
CONTINUOUS
 62
               3
  5
2C
 10
230.0
 20
-183.0
 30
0.0
 11
230.0
 21
-297.0
 31
0.0
  0
LINE
  8
LY_3
  6
CONTINUOUS
 62
               3
  5
2D
 10
236.94968900000001
 20
-183.0
 30
0.0
 11
230.0
 21
-183.0
 31
0.0
  0
LINE
  8
LY_3
  6
CONTINUOUS
 62
               3
  5
2E
 10
255.0
 20
-191.0
 30
0.0
 11
240.91176200000001
 21
-191.0
 31
0.0
  0
LINE
  8
LY_3
  6
CONTINUOUS
 62
               3
  5
2F
 10
255.0
 20
-195.34999999999999
 30
0.0
 11
250.0
 21
-195.34999999999999
 31
0.0
  0
LINE
  8
LY_3
  6
CONTINUOUS
 62
               3
  5
30
 10
248.52775700000001
 20
-198.40000000000001
 30
0.0
 11
230.0
 21
-198.40000000000001
 31
0.0
  0
LINE
  8
LY_3
  6
CONTINUOUS
 62
               3
  5
31
 10
250.0
 20
-195.34999999999999
 30
0.0
 11
250.0
 21
-240.0
 31
0.0
  0
LINE
  8
LY_3
  6
CONTINUOUS
 62
               3
  5
32
 10
250.0
 20
-197.55000000000001
 30
0.0
 11
248.52775700000001
 21
-198.40000000000001
 31
0.0
  0
LINE
  8
LY_3
  6
CONTINUOUS
 62
               3
  5
33
 10
238.359228
 20
-183.98696999999999
 30
0.0
 11
240.91176200000001
 21
-191.0
 31
0.0
  0
LINE
  8
LY_3
  6
CONTINUOUS
 62
               3
  5
34
 10
248.52775700000001
 20
-198.40000000000001
 30
0.0
 11
248.52775700000001
 21
-240.0
 31
0.0
  0
LINE
  8
LY_3
  6
CONTINUOUS
 62
               3
  5
35
 10
236.94968900000001
 20
-297.0
 30
0.0
 11
230.0
 21
-297.0
 31
0.0
  0
LINE
  8
LY_3
  6
CONTINUOUS
 62
               3
  5
36
 10
255.0
 20
-289.0
 30
0.0
 11
240.91176200000001
 21
-289.0
 31
0.0
  0
LINE
  8
LY_3
  6
CONTINUOUS
 62
               3
  5
37
 10
238.359228
 20
-296.01303000000001
 30
0.0
 11
240.91176200000001
 21
-289.0
 31
0.0
  0
LINE
  8
LY_3
  6
CONTINUOUS
 62
               3
  5
38
 10
272.0
 20
-195.44999999999999
 30
0.0
 11
250.0
 21
-195.44999999999999
 31
0.0
  0
LINE
  8
LY_3
  6
CONTINUOUS
 62
               3
  5
39
 10
269.0
 20
-284.55000000000001
 30
0.0
 11
255.0
 21
-284.55000000000001
 31
0.0
  0
LINE
  8
LY_3
  6
CONTINUOUS
 62
               3
  5
3A
 10
272.0
 20
-197.55000000000001
 30
0.0
 11
250.0
 21
-197.55000000000001
 31
0.0
  0
LINE
  8
LY_3
  6
CONTINUOUS
 62
               3
  5
3B
 10
255.0
 20
-240.0
 30
0.0
 11
255.0
 21
-289.0
 31
0.0
  0
LINE
  8
LY_3
  6
CONTINUOUS
 62
               3
  5
3C
 10
272.0
 20
-195.30000000000001
 30
0.0
 11
272.0
 21
-240.0
 31
0.0
  0
LINE
  8
LY_3
  6
CONTINUOUS
 62
               3
  5
3D
 10
280.0
 20
-173.0
 30
0.0
 11
280.0
 21
-307.0
 31
0.0
  0
LINE
  8
LY_3
  6
CONTINUOUS
 62
               3
  5
3E
 10
280.0
 20
-173.0
 30
0.0
 11
273.05031100000002
 21
-173.0
 31
0.0
  0
LINE
  8
LY_3
  6
CONTINUOUS
 62
               3
  5
3F
 10
269.0
 20
-181.24243200000001
 30
0.0
 11
269.0
 21
-195.44999999999999
 31
0.0
  0
LINE
  8
LY_3
  6
CONTINUOUS
 62
               3
  5
40
 10
271.64077199999997
 20
-173.98696999999999
 30
0.0
 11
269.0
 21
-181.24243200000001
 31
0.0
  0
LINE
  8
LY_3
  6
CONTINUOUS
 62
               3
  5
41
 10
280.0
 20
-188.90000000000001
 30
0.0
 11
273.5
 21
-188.90000000000001
 31
0.0
  0
LINE
  8
LY_3
  6
CONTINUOUS
 62
               3
  5
42
 10
273.5
 20
-188.90000000000001
 30
0.0
 11
273.5
 21
-240.0
 31
0.0
  0
LINE
  8
LY_3
  6
CONTINUOUS
 62
               3
  5
43
 10
272.0
 20
-195.30000000000001
 30
0.0
 11
269.0
 21
-195.30000000000001
 31
0.0
  0
LINE
  8
LY_3
  6
CONTINUOUS
 62
               3
  5
44
 10
273.5
 20
-196.30000000000001
 30
0.0
 11
272.0
 21
-196.30000000000001
 31
0.0
  0
LINE
  8
LY_3
  6
CONTINUOUS
 62
               3
  5
45
 10
280.0
 20
-307.0
 30
0.0
 11
273.05031100000002
 21
-307.0
 31
0.0
  0
LINE
  8
LY_3
  6
CONTINUOUS
 62
               3
  5
46
 10
269.0
 20
-298.75756799999999
 30
0.0
 11
269.0
 21
-240.0
 31
0.0
  0
LINE
  8
LY_3
  6
CONTINUOUS
 62
               3
  5
47
 10
271.64077199999997
 20
-306.01303000000001
 30
0.0
 11
269.0
 21
-298.75756799999999
 31
0.0
  0
ARC
  8
LY_3
  6
CONTINUOUS
 62
               3
  5
48
 10
236.94968900000001
 20
-295.5
 30
0.0
 40
1.5
 50
270.0
 51
340.0
  0
ARC
  8
LY_3
  6
CONTINUOUS
 62
               3
  5
49
 10
236.94968900000001
 20
-184.5
 30
0.0
 40
1.5
 50
20.0
 51
90.0
  0
ARC
  8
LY_3
  6
CONTINUOUS
 62
               3
  5
4A
 10
273.05031100000002
 20
-174.5
 30
0.0
 40
1.5
 50
90.0
 51
160.0
  0
ARC
  8
LY_3
  6
CONTINUOUS
 62
               3
  5
4B
 10
273.05031100000002
 20
-305.5
 30
0.0
 40
1.5
 50
200.0
 51
270.0
  0
TEXT
  8
LY_3
  6
CONTINUOUS
 62
             110
  5
4C
 10
228.74999864896139
 20
-144.0
 30
0.0
 40
8.0
  1
VP9090
 41
0.9380000233650208
  7
MX_NOTE_STANDARD
 11
228.74999864896139
 21
-136.0
 31
0.0
 73
               3
  0
LINE
  8
LY_3
  6
CONTINUOUS
 62
               3
  5
4D
 10
272.0
 20
-60.0
 30
0.0
 11
272.0
 21
-126.570908
 31
0.0
  0
LINE
  8
LY_3
  6
CONTINUOUS
 62
               3
  5
4E
 10
230.0
 20
-33.899999999999999
 30
0.0
 11
232.5
 21
-33.899999999999999
 31
0.0
  0
LINE
  8
LY_3
  6
CONTINUOUS
 62
               3
  5
4F
 10
233.0
 20
-60.0
 30
0.0
 11
233.0
 21
-96.961889999999997
 31
0.0
  0
LINE
  8
LY_3
  6
CONTINUOUS
 62
               3
  5
50
 10
234.942632
 20
-90.25
 30
0.0
 11
234.942632
 21
-60.0
 31
0.0
  0
LINE
  8
LY_3
  6
CONTINUOUS
 62
               3
  5
51
 10
234.942632
 20
-90.25
 30
0.0
 11
250.0
 21
-90.25
 31
0.0
  0
LINE
  8
LY_3
  6
CONTINUOUS
 62
               3
  5
52
 10
234.94263100000001
 20
-29.75
 30
0.0
 11
250.0
 21
-29.75
 31
0.0
  0
LINE
  8
LY_3
  6
CONTINUOUS
 62
               3
  5
53
 10
269.0
 20
-29.600000000000001
 30
0.0
 11
272.0
 21
-29.600000000000001
 31
0.0
  0
LINE
  8
LY_3
  6
CONTINUOUS
 62
               3
  5
54
 10
250.0
 20
-90.25
 30
0.0
 11
269.0
 21
-90.25
 31
0.0
  0
LINE
  8
LY_3
  6
CONTINUOUS
 62
               3
  5
55
 10
250.0
 20
-31.75
 30
0.0
 11
272.0
 21
-31.75
 31
0.0
  0
LINE
  8
LY_3
  6
CONTINUOUS
 62
               3
  5
56
 10
250.0
 20
-29.75
 30
0.0
 11
272.0
 21
-29.75
 31
0.0
  0
ARC
  8
LY_3
  6
CONTINUOUS
 62
               3
  5
57
 10
273.05031200000002
 20
-125.5
 30
0.0
 40
1.5
 50
199.99999099999999
 51
270.00001800000001
  0
ARC
  8
LY_3
  6
CONTINUOUS
 62
               3
  5
58
 10
273.05031000000002
 20
5.5
 30
0.0
 40
1.5
 50
89.999982000000003
 51
160.00000900000001
  0
ARC
  8
LY_3
  6
CONTINUOUS
 62
               3
  5
59
 10
231.849007
 20
-24.0
 30
0.0
 40
1.5
 50
15.000011000000001
 51
89.999982000000003
  0
ARC
  8
LY_3
  6
CONTINUOUS
 62
               3
  5
5A
 10
231.84901400000001
 20
-96.0
 30
0.0
 40
1.5
 50
270.00001800000001
 51
344.99998399999998
  0
LINE
  8
LY_3
  6
CONTINUOUS
 62
               3
  5
5B
 10
232.5
 20
-32.5
 30
0.0
 11
232.5
 21
-60.0
 31
0.0
  0
LINE
  8
LY_3
  6
CONTINUOUS
 62
               3
  5
5C
 10
250.0
 20
-29.75
 30
0.0
 11
250.0
 21
-90.25
 31
0.0
  0
LINE
  8
LY_3
  6
CONTINUOUS
 62
               3
  5
5D
 10
232.5
 20
-32.5
 30
0.0
 11
250.0
 21
-32.5
 31
0.0
  0
LINE
  8
LY_3
  6
CONTINUOUS
 62
               3
  5
5E
 10
272.0
 20
-30.600000000000001
 30
0.0
 11
273.5
 21
-30.600000000000001
 31
0.0
  0
LINE
  8
LY_3
  6
CONTINUOUS
 62
               3
  5
5F
 10
272.0
 20
-29.600000000000001
 30
0.0
 11
272.0
 21
-60.0
 31
0.0
  0
LINE
  8
LY_3
  6
CONTINUOUS
 62
               3
  5
60
 10
273.5
 20
-8.8999999999999986
 30
0.0
 11
273.5
 21
-60.0
 31
0.0
  0
LINE
  8
LY_3
  6
CONTINUOUS
 62
               3
  5
61
 10
273.5
 20
-8.8999999999999986
 30
0.0
 11
280.0
 21
-8.8999999999999986
 31
0.0
  0
LINE
  8
LY_3
  6
CONTINUOUS
 62
               3
  5
62
 10
269.0
 20
-60.0
 30
0.0
 11
269.0
 21
-118.75756799999999
 31
0.0
  0
LINE
  8
LY_3
  6
CONTINUOUS
 62
               3
  5
63
 10
269.0
 20
-1.2424249999999972
 30
0.0
 11
269.0
 21
-29.75
 31
0.0
  0
LINE
  8
LY_3
  6
CONTINUOUS
 62
               3
  5
64
 10
269.0
 20
-118.75756799999999
 30
0.0
 11
271.64077199999997
 21
-126.01303
 31
0.0
  0
LINE
  8
LY_3
  6
CONTINUOUS
 62
               3
  5
65
 10
269.0
 20
-1.2424249999999972
 30
0.0
 11
271.64076999999997
 21
6.0130280000000056
 31
0.0
  0
LINE
  8
LY_3
  6
CONTINUOUS
 62
               3
  5
66
 10
273.05031000000002
 20
7.0
 30
0.0
 11
280.0
 21
7.0
 31
0.0
  0
LINE
  8
LY_3
  6
CONTINUOUS
 62
               3
  5
67
 10
273.05031200000002
 20
-127.0
 30
0.0
 11
280.0
 21
-127.0
 31
0.0
  0
LINE
  8
LY_3
  6
CONTINUOUS
 62
               3
  5
68
 10
233.29699199999999
 20
-96.391614000000004
 30
0.0
 11
234.942632
 21
-90.25
 31
0.0
  0
LINE
  8
LY_3
  6
CONTINUOUS
 62
               3
  5
69
 10
233.29789700000001
 20
-23.61177
 30
0.0
 11
234.94263100000001
 21
-29.75
 31
0.0
  0
LINE
  8
LY_3
  6
CONTINUOUS
 62
               3
  5
6A
 10
230.0
 20
-97.5
 30
0.0
 11
231.84901400000001
 21
-97.5
 31
0.0
  0
LINE
  8
LY_3
  6
CONTINUOUS
 62
               3
  5
6B
 10
230.0
 20
-22.5
 30
0.0
 11
231.849007
 21
-22.5
 31
0.0
  0
LINE
  8
LY_3
  6
CONTINUOUS
 62
               3
  5
6C
 10
280.0
 20
7.0
 30
0.0
 11
280.0
 21
-127.0
 31
0.0
  0
LINE
  8
LY_3
  6
CONTINUOUS
 62
               3
  5
6D
 10
230.0
 20
-22.5
 30
0.0
 11
230.0
 21
-97.5
 31
0.0
  0
LINE
  8
LY_3
  6
CENTER
 62
             110
  5
6E
 10
225.0
 20
-60.0
 30
0.0
 11
285.0
 21
-60.0
 31
0.0
  0
TEXT
  8
LY_3
  6
CONTINUOUS
 62
             110
  5
6F
 10
108.74999864896138
 20
-344.0
 30
0.0
 40
8.0
  1
VP9080
 41
0.9380000233650208
  7
MX_NOTE_STANDARD
 11
108.74999864896138
 21
-336.0
 31
0.0
 73
               3
  0
LINE
  8
LY_3
  6
CONTINUOUS
 62
               3
  5
70
 10
152.0
 20
-270.0
 30
0.0
 11
152.0
 21
-327.0
 31
0.0
  0
LINE
  8
LY_3
  6
CONTINUOUS
 62
               3
  5
71
 10
110.0
 20
-243.90000000000001
 30
0.0
 11
112.5
 21
-243.90000000000001
 31
0.0
  0
LINE
  8
LY_3
  6
CONTINUOUS
 62
               3
  5
72
 10
113.0
 20
-270.0
 30
0.0
 11
113.0
 21
-306.96188999999998
 31
0.0
  0
LINE
  8
LY_3
  6
CONTINUOUS
 62
               3
  5
73
 10
114.942632
 20
-300.25
 30
0.0
 11
114.942632
 21
-270.0
 31
0.0
  0
LINE
  8
LY_3
  6
CONTINUOUS
 62
               3
  5
74
 10
114.942632
 20
-300.25
 30
0.0
 11
130.0
 21
-300.25
 31
0.0
  0
LINE
  8
LY_3
  6
CONTINUOUS
 62
               3
  5
75
 10
114.94263100000001
 20
-239.75
 30
0.0
 11
130.0
 21
-239.75
 31
0.0
  0
LINE
  8
LY_3
  6
CONTINUOUS
 62
               3
  5
76
 10
149.0
 20
-239.59999999999999
 30
0.0
 11
152.0
 21
-239.59999999999999
 31
0.0
  0
LINE
  8
LY_3
  6
CONTINUOUS
 62
               3
  5
77
 10
130.0
 20
-300.25
 30
0.0
 11
149.0
 21
-300.25
 31
0.0
  0
LINE
  8
LY_3
  6
CONTINUOUS
 62
               3
  5
78
 10
130.0
 20
-241.75
 30
0.0
 11
152.0
 21
-241.75
 31
0.0
  0
LINE
  8
LY_3
  6
CONTINUOUS
 62
               3
  5
79
 10
130.0
 20
-239.75
 30
0.0
 11
152.0
 21
-239.75
 31
0.0
  0
ARC
  8
LY_3
  6
CONTINUOUS
 62
               3
  5
7A
 10
153.05031199999999
 20
-325.5
 30
0.0
 40
1.5
 50
199.99999099999999
 51
270.00001800000001
  0
ARC
  8
LY_3
  6
CONTINUOUS
 62
               3
  5
7B
 10
153.05031
 20
-214.5
 30
0.0
 40
1.5
 50
89.999982000000003
 51
160.00000900000001
  0
ARC
  8
LY_3
  6
CONTINUOUS
 62
               3
  5
7C
 10
111.849007
 20
-234.0
 30
0.0
 40
1.5
 50
15.000011000000001
 51
89.999982000000003
  0
ARC
  8
LY_3
  6
CONTINUOUS
 62
               3
  5
7D
 10
111.849014
 20
-306.0
 30
0.0
 40
1.5
 50
270.00001800000001
 51
344.99998399999998
  0
LINE
  8
LY_3
  6
CONTINUOUS
 62
               3
  5
7E
 10
112.5
 20
-242.5
 30
0.0
 11
112.5
 21
-270.0
 31
0.0
  0
LINE
  8
LY_3
  6
CONTINUOUS
 62
               3
  5
7F
 10
130.0
 20
-239.75
 30
0.0
 11
130.0
 21
-300.25
 31
0.0
  0
LINE
  8
LY_3
  6
CONTINUOUS
 62
               3
  5
80
 10
112.5
 20
-242.5
 30
0.0
 11
130.0
 21
-242.5
 31
0.0
  0
LINE
  8
LY_3
  6
CONTINUOUS
 62
               3
  5
81
 10
152.0
 20
-240.59999999999999
 30
0.0
 11
153.5
 21
-240.59999999999999
 31
0.0
  0
LINE
  8
LY_3
  6
CONTINUOUS
 62
               3
  5
82
 10
152.0
 20
-239.59999999999999
 30
0.0
 11
152.0
 21
-270.0
 31
0.0
  0
LINE
  8
LY_3
  6
CONTINUOUS
 62
               3
  5
83
 10
153.5
 20
-228.40000000000001
 30
0.0
 11
153.5
 21
-270.0
 31
0.0
  0
LINE
  8
LY_3
  6
CONTINUOUS
 62
               3
  5
84
 10
153.5
 20
-228.40000000000001
 30
0.0
 11
160.0
 21
-228.40000000000001
 31
0.0
  0
LINE
  8
LY_3
  6
CONTINUOUS
 62
               3
  5
85
 10
149.0
 20
-270.0
 30
0.0
 11
149.0
 21
-318.75756799999999
 31
0.0
  0
LINE
  8
LY_3
  6
CONTINUOUS
 62
               3
  5
86
 10
149.0
 20
-221.242424
 30
0.0
 11
149.0
 21
-239.75
 31
0.0
  0
LINE
  8
LY_3
  6
CONTINUOUS
 62
               3
  5
87
 10
149.0
 20
-318.75756799999999
 30
0.0
 11
151.640772
 21
-326.01303000000001
 31
0.0
  0
LINE
  8
LY_3
  6
CONTINUOUS
 62
               3
  5
88
 10
149.0
 20
-221.242425
 30
0.0
 11
151.64077
 21
-213.98697200000001
 31
0.0
  0
LINE
  8
LY_3
  6
CONTINUOUS
 62
               3
  5
89
 10
153.05031
 20
-213.0
 30
0.0
 11
160.0
 21
-213.0
 31
0.0
  0
LINE
  8
LY_3
  6
CONTINUOUS
 62
               3
  5
8A
 10
153.05031199999999
 20
-327.0
 30
0.0
 11
160.0
 21
-327.0
 31
0.0
  0
LINE
  8
LY_3
  6
CONTINUOUS
 62
               3
  5
8B
 10
113.296992
 20
-306.391614
 30
0.0
 11
114.942632
 21
-300.25
 31
0.0
  0
LINE
  8
LY_3
  6
CONTINUOUS
 62
               3
  5
8C
 10
113.29789700000001
 20
-233.61177000000001
 30
0.0
 11
114.94263100000001
 21
-239.75
 31
0.0
  0
LINE
  8
LY_3
  6
CONTINUOUS
 62
               3
  5
8D
 10
110.0
 20
-307.5
 30
0.0
 11
111.849014
 21
-307.5
 31
0.0
  0
LINE
  8
LY_3
  6
CONTINUOUS
 62
               3
  5
8E
 10
110.0
 20
-232.5
 30
0.0
 11
111.849007
 21
-232.5
 31
0.0
  0
LINE
  8
LY_3
  6
CONTINUOUS
 62
               3
  5
8F
 10
160.0
 20
-213.0
 30
0.0
 11
160.0
 21
-327.0
 31
0.0
  0
LINE
  8
LY_3
  6
CONTINUOUS
 62
               3
  5
90
 10
110.0
 20
-232.5
 30
0.0
 11
110.0
 21
-307.5
 31
0.0
  0
LINE
  8
LY_3
  6
CENTER
 62
             110
  5
91
 10
105.0
 20
-270.0
 30
0.0
 11
165.0
 21
-270.0
 31
0.0
  0
TEXT
  8
LY_3
  6
CONTINUOUS
 62
             110
  5
92
 10
108.74999864896138
 20
-204.0
 30
0.0
 40
8.0
  1
VP9070
 41
0.9380000233650208
  7
MX_NOTE_STANDARD
 11
108.74999864896138
 21
-196.0
 31
0.0
 73
               3
  0
LINE
  8
LY_3
  6
CONTINUOUS
 62
               3
  5
93
 10
110.0
 20
-109.40000000000001
 30
0.0
 11
112.5
 21
-109.40000000000001
 31
0.0
  0
LINE
  8
LY_3
  6
CONTINUOUS
 62
               3
  5
94
 10
152.0
 20
-130.0
 30
0.0
 11
152.0
 21
-186.570908
 31
0.0
  0
LINE
  8
LY_3
  6
CONTINUOUS
 62
               3
  5
95
 10
113.0
 20
-130.0
 30
0.0
 11
113.0
 21
-156.96189000000001
 31
0.0
  0
LINE
  8
LY_3
  6
CONTINUOUS
 62
               3
  5
96
 10
114.64788799999999
 20
-151.34999999999999
 30
0.0
 11
114.64788799999999
 21
-130.0
 31
0.0
  0
LINE
  8
LY_3
  6
CONTINUOUS
 62
               3
  5
97
 10
149.0
 20
-108.5
 30
0.0
 11
152.0
 21
-108.5
 31
0.0
  0
LINE
  8
LY_3
  6
CONTINUOUS
 62
               3
  5
98
 10
130.0
 20
-151.34999999999999
 30
0.0
 11
149.0
 21
-151.34999999999999
 31
0.0
  0
LINE
  8
LY_3
  6
CONTINUOUS
 62
               3
  5
99
 10
130.0
 20
-110.65000000000001
 30
0.0
 11
152.0
 21
-110.65000000000001
 31
0.0
  0
LINE
  8
LY_3
  6
CONTINUOUS
 62
               3
  5
9A
 10
130.0
 20
-108.65000000000001
 30
0.0
 11
152.0
 21
-108.65000000000001
 31
0.0
  0
ARC
  8
LY_3
  6
CONTINUOUS
 62
               3
  5
9B
 10
153.05031199999999
 20
-185.5
 30
0.0
 40
1.5
 50
199.99999099999999
 51
270.00001800000001
  0
ARC
  8
LY_3
  6
CONTINUOUS
 62
               3
  5
9C
 10
153.05031
 20
-74.5
 30
0.0
 40
1.5
 50
89.999982000000003
 51
160.00000900000001
  0
ARC
  8
LY_3
  6
CONTINUOUS
 62
               3
  5
9D
 10
111.849007
 20
-104.0
 30
0.0
 40
1.5
 50
15.000011000000001
 51
89.999982000000003
  0
ARC
  8
LY_3
  6
CONTINUOUS
 62
               3
  5
9E
 10
111.849014
 20
-156.0
 30
0.0
 40
1.5
 50
270.00001800000001
 51
344.99998399999998
  0
LINE
  8
LY_3
  6
CONTINUOUS
 62
               3
  5
9F
 10
112.5
 20
-109.40000000000001
 30
0.0
 11
112.5
 21
-130.0
 31
0.0
  0
LINE
  8
LY_3
  6
CONTINUOUS
 62
               3
  5
A0
 10
130.0
 20
-108.65000000000001
 30
0.0
 11
130.0
 21
-151.34999999999999
 31
0.0
  0
LINE
  8
LY_3
  6
CONTINUOUS
 62
               3
  5
A1
 10
112.5
 20
-110.5
 30
0.0
 11
130.0
 21
-110.5
 31
0.0
  0
LINE
  8
LY_3
  6
CONTINUOUS
 62
               3
  5
A2
 10
152.0
 20
-109.5
 30
0.0
 11
153.5
 21
-109.5
 31
0.0
  0
LINE
  8
LY_3
  6
CONTINUOUS
 62
               3
  5
A3
 10
152.0
 20
-108.5
 30
0.0
 11
152.0
 21
-130.0
 31
0.0
  0
LINE
  8
LY_3
  6
CONTINUOUS
 62
               3
  5
A4
 10
153.5
 20
-88.400000000000006
 30
0.0
 11
153.5
 21
-130.0
 31
0.0
  0
LINE
  8
LY_3
  6
CONTINUOUS
 62
               3
  5
A5
 10
153.5
 20
-88.400000000000006
 30
0.0
 11
160.0
 21
-88.400000000000006
 31
0.0
  0
LINE
  8
LY_3
  6
CONTINUOUS
 62
               3
  5
A6
 10
149.0
 20
-130.0
 30
0.0
 11
149.0
 21
-178.75756799999999
 31
0.0
  0
LINE
  8
LY_3
  6
CONTINUOUS
 62
               3
  5
A7
 10
149.0
 20
-81.242424
 30
0.0
 11
149.0
 21
-108.65000000000001
 31
0.0
  0
LINE
  8
LY_3
  6
CONTINUOUS
 62
               3
  5
A8
 10
149.0
 20
-178.75756799999999
 30
0.0
 11
151.640772
 21
-186.01303000000001
 31
0.0
  0
LINE
  8
LY_3
  6
CONTINUOUS
 62
               3
  5
A9
 10
149.0
 20
-81.242424999999997
 30
0.0
 11
151.64077
 21
-73.986972000000009
 31
0.0
  0
LINE
  8
LY_3
  6
CONTINUOUS
 62
               3
  5
AA
 10
153.05031
 20
-73.0
 30
0.0
 11
160.0
 21
-73.0
 31
0.0
  0
LINE
  8
LY_3
  6
CONTINUOUS
 62
               3
  5
AB
 10
153.05031199999999
 20
-187.0
 30
0.0
 11
160.0
 21
-187.0
 31
0.0
  0
LINE
  8
LY_3
  6
CONTINUOUS
 62
               3
  5
AC
 10
113.296992
 20
-156.391614
 30
0.0
 11
114.64788799999999
 21
-151.34999999999999
 31
0.0
  0
LINE
  8
LY_3
  6
CONTINUOUS
 62
               3
  5
AD
 10
113.29789700000001
 20
-103.61177000000001
 30
0.0
 11
114.647887
 21
-108.65000000000001
 31
0.0
  0
LINE
  8
LY_3
  6
CONTINUOUS
 62
               3
  5
AE
 10
114.64788799999999
 20
-151.34999999999999
 30
0.0
 11
130.0
 21
-151.34999999999999
 31
0.0
  0
LINE
  8
LY_3
  6
CONTINUOUS
 62
               3
  5
AF
 10
114.647887
 20
-108.65000000000001
 30
0.0
 11
130.0
 21
-108.65000000000001
 31
0.0
  0
LINE
  8
LY_3
  6
CONTINUOUS
 62
               3
  5
B0
 10
110.0
 20
-157.5
 30
0.0
 11
111.849014
 21
-157.5
 31
0.0
  0
LINE
  8
LY_3
  6
CONTINUOUS
 62
               3
  5
B1
 10
110.0
 20
-102.5
 30
0.0
 11
111.849007
 21
-102.5
 31
0.0
  0
LINE
  8
LY_3
  6
CONTINUOUS
 62
               3
  5
B2
 10
160.0
 20
-73.0
 30
0.0
 11
160.0
 21
-187.0
 31
0.0
  0
LINE
  8
LY_3
  6
CONTINUOUS
 62
               3
  5
B3
 10
110.0
 20
-102.5
 30
0.0
 11
110.0
 21
-157.5
 31
0.0
  0
LINE
  8
LY_3
  6
CENTER
 62
             110
  5
B4
 10
105.0
 20
-130.0
 30
0.0
 11
165.0
 21
-130.0
 31
0.0
  0
TEXT
  8
LY_3
  6
CONTINUOUS
 62
             110
  5
B5
 10
108.74999864896138
 20
-64.0
 30
0.0
 40
8.0
  1
VP9060
 41
0.9380000233650208
  7
MX_NOTE_STANDARD
 11
108.74999864896138
 21
-56.0
 31
0.0
 73
               3
  0
LINE
  8
LY_3
  6
CONTINUOUS
 62
               3
  5
B6
 10
147.0
 20
-46.961883999999998
 30
0.0
 11
147.0
 21
-10.0
 31
0.0
  0
LINE
  8
LY_3
  6
CONTINUOUS
 62
               3
  5
B7
 10
114.64788799999999
 20
-31.350000000000001
 30
0.0
 11
114.64788799999999
 21
-10.0
 31
0.0
  0
LINE
  8
LY_3
  6
CONTINUOUS
 62
               3
  5
B8
 10
113.0
 20
-36.961883999999998
 30
0.0
 11
113.0
 21
-10.0
 31
0.0
  0
LINE
  8
LY_3
  6
CENTER
 62
             110
  5
B9
 10
107.0
 20
-10.0
 30
0.0
 11
153.0
 21
-10.0
 31
0.0
  0
LINE
  8
LY_3
  6
CONTINUOUS
 62
               3
  5
BA
 10
130.0
 20
11.350000000000001
 30
0.0
 11
130.0
 21
-31.350000000000001
 31
0.0
  0
LINE
  8
LY_3
  6
CONTINUOUS
 62
               3
  5
BB
 10
110.0
 20
17.5
 30
0.0
 11
110.0
 21
-37.5
 31
0.0
  0
LINE
  8
LY_3
  6
CONTINUOUS
 62
               3
  5
BC
 10
111.84901000000001
 20
17.5
 30
0.0
 11
110.0
 21
17.5
 31
0.0
  0
LINE
  8
LY_3
  6
CONTINUOUS
 62
               3
  5
BD
 10
130.0
 20
11.350000000000001
 30
0.0
 11
114.64788799999999
 21
11.350000000000001
 31
0.0
  0
LINE
  8
LY_3
  6
CONTINUOUS
 62
               3
  5
BE
 10
130.0
 20
9.5
 30
0.0
 11
112.5
 21
9.5
 31
0.0
  0
LINE
  8
LY_3
  6
CONTINUOUS
 62
               3
  5
BF
 10
113.297898
 20
16.388228999999999
 30
0.0
 11
114.64788799999999
 21
11.350000000000001
 31
0.0
  0
LINE
  8
LY_3
  6
CONTINUOUS
 62
               3
  5
C0
 10
112.5
 20
10.600000000000001
 30
0.0
 11
112.5
 21
-10.0
 31
0.0
  0
LINE
  8
LY_3
  6
CONTINUOUS
 62
               3
  5
C1
 10
112.5
 20
10.600000000000001
 30
0.0
 11
110.0
 21
10.600000000000001
 31
0.0
  0
LINE
  8
LY_3
  6
CONTINUOUS
 62
               3
  5
C2
 10
111.84901000000001
 20
-37.5
 30
0.0
 11
110.0
 21
-37.5
 31
0.0
  0
LINE
  8
LY_3
  6
CONTINUOUS
 62
               3
  5
C3
 10
130.0
 20
-31.350000000000001
 30
0.0
 11
114.64788799999999
 21
-31.350000000000001
 31
0.0
  0
LINE
  8
LY_3
  6
CONTINUOUS
 62
               3
  5
C4
 10
113.297898
 20
-36.388228999999995
 30
0.0
 11
114.64788799999999
 21
-31.350000000000001
 31
0.0
  0
LINE
  8
LY_3
  6
CONTINUOUS
 62
               3
  5
C5
 10
130.0
 20
11.350000000000001
 30
0.0
 11
146.5
 21
11.350000000000001
 31
0.0
  0
LINE
  8
LY_3
  6
CONTINUOUS
 62
               3
  5
C6
 10
130.0
 20
-31.350000000000001
 30
0.0
 11
144.0
 21
-31.350000000000001
 31
0.0
  0
LINE
  8
LY_3
  6
CONTINUOUS
 62
               3
  5
C7
 10
130.0
 20
9.3500000000000014
 30
0.0
 11
146.5
 21
9.3500000000000014
 31
0.0
  0
LINE
  8
LY_3
  6
CONTINUOUS
 62
               3
  5
C8
 10
146.5
 20
11.5
 30
0.0
 11
146.5
 21
-10.0
 31
0.0
  0
LINE
  8
LY_3
  6
CONTINUOUS
 62
               3
  5
C9
 10
150.0
 20
27.5
 30
0.0
 11
150.0
 21
-47.5
 31
0.0
  0
LINE
  8
LY_3
  6
CONTINUOUS
 62
               3
  5
CA
 10
148.15099000000001
 20
27.5
 30
0.0
 11
150.0
 21
27.5
 31
0.0
  0
LINE
  8
LY_3
  6
CONTINUOUS
 62
               3
  5
CB
 10
144.0
 20
16.303847999999999
 30
0.0
 11
144.0
 21
11.350000000000001
 31
0.0
  0
LINE
  8
LY_3
  6
CONTINUOUS
 62
               3
  5
CC
 10
146.702102
 20
26.388229000000003
 30
0.0
 11
144.0
 21
16.303847999999999
 31
0.0
  0
LINE
  8
LY_3
  6
CONTINUOUS
 62
               3
  5
CD
 10
147.5
 20
16.100000000000001
 30
0.0
 11
150.0
 21
16.100000000000001
 31
0.0
  0
LINE
  8
LY_3
  6
CONTINUOUS
 62
               3
  5
CE
 10
147.5
 20
16.100000000000001
 30
0.0
 11
147.5
 21
-10.0
 31
0.0
  0
LINE
  8
LY_3
  6
CONTINUOUS
 62
               3
  5
CF
 10
144.0
 20
11.5
 30
0.0
 11
146.5
 21
11.5
 31
0.0
  0
LINE
  8
LY_3
  6
CONTINUOUS
 62
               3
  5
D0
 10
146.5
 20
10.449999999999999
 30
0.0
 11
147.5
 21
10.449999999999999
 31
0.0
  0
LINE
  8
LY_3
  6
CONTINUOUS
 62
               3
  5
D1
 10
148.15099000000001
 20
-47.5
 30
0.0
 11
150.0
 21
-47.5
 31
0.0
  0
LINE
  8
LY_3
  6
CONTINUOUS
 62
               3
  5
D2
 10
144.0
 20
-36.303848000000002
 30
0.0
 11
144.0
 21
-31.350000000000001
 31
0.0
  0
LINE
  8
LY_3
  6
CONTINUOUS
 62
               3
  5
D3
 10
146.702102
 20
-46.388229000000003
 30
0.0
 11
144.0
 21
-36.303848000000002
 31
0.0
  0
ARC
  8
LY_3
  6
CONTINUOUS
 62
               3
  5
D4
 10
111.84901000000001
 20
-36.0
 30
0.0
 40
1.5
 50
270.0
 51
345.0
  0
ARC
  8
LY_3
  6
CONTINUOUS
 62
               3
  5
D5
 10
111.84901000000001
 20
16.0
 30
0.0
 40
1.5
 50
14.999999999999998
 51
90.0
  0
ARC
  8
LY_3
  6
CONTINUOUS
 62
               3
  5
D6
 10
148.15099000000001
 20
26.0
 30
0.0
 40
1.5
 50
90.0
 51
165.0
  0
ARC
  8
LY_3
  6
CONTINUOUS
 62
               3
  5
D7
 10
148.15099000000001
 20
-46.0
 30
0.0
 40
1.5
 50
195.0
 51
270.0
  0
TEXT
  8
LY_3
  6
CONTINUOUS
 62
             110
  5
D8
 10
-1.2500013510386148
 20
-344.0
 30
0.0
 40
8.0
  1
VP9050
 41
0.9380000233650208
  7
MX_NOTE_STANDARD
 11
-1.2500013510386148
 21
-336.0
 31
0.0
 73
               3
  0
LINE
  8
LY_3
  6
CONTINUOUS
 62
               3
  5
D9
 10
37.0
 20
-326.961884
 30
0.0
 11
37.0
 21
-290.0
 31
0.0
  0
LINE
  8
LY_3
  6
CONTINUOUS
 62
               3
  5
DA
 10
3.0
 20
-309.461884
 30
0.0
 11
3.0
 21
-290.0
 31
0.0
  0
LINE
  8
LY_3
  6
CONTINUOUS
 62
               3
  5
DB
 10
4.7148750000000001
 20
-303.60000000000002
 30
0.0
 11
4.7148750000000001
 21
-290.0
 31
0.0
  0
LINE
  8
LY_3
  6
CENTER
 62
             110
  5
DC
 10
43.0
 20
-290.0
 30
0.0
 11
-3.0
 21
-290.0
 31
0.0
  0
LINE
  8
LY_3
  6
CONTINUOUS
 62
               3
  5
DD
 10
20.0
 20
-276.39999999999998
 30
0.0
 11
20.0
 21
-303.60000000000002
 31
0.0
  0
LINE
  8
LY_3
  6
CONTINUOUS
 62
               3
  5
DE
 10
0.0
 20
-270.0
 30
0.0
 11
0.0
 21
-310.0
 31
0.0
  0
LINE
  8
LY_3
  6
CONTINUOUS
 62
               3
  5
DF
 10
20.0
 20
-276.39999999999998
 30
0.0
 11
4.7148750000000001
 21
-276.39999999999998
 31
0.0
  0
LINE
  8
LY_3
  6
CONTINUOUS
 62
               3
  5
E0
 10
20.0
 20
-278.0
 30
0.0
 11
2.5
 21
-278.0
 31
0.0
  0
LINE
  8
LY_3
  6
CONTINUOUS
 62
               3
  5
E1
 10
1.84901
 20
-270.0
 30
0.0
 11
0.0
 21
-270.0
 31
0.0
  0
LINE
  8
LY_3
  6
CONTINUOUS
 62
               3
  5
E2
 10
3.297898
 20
-271.11177099999998
 30
0.0
 11
4.7148750000000001
 21
-276.39999999999998
 31
0.0
  0
LINE
  8
LY_3
  6
CONTINUOUS
 62
               3
  5
E3
 10
2.5
 20
-276.89999999999998
 30
0.0
 11
2.5
 21
-290.0
 31
0.0
  0
LINE
  8
LY_3
  6
CONTINUOUS
 62
               3
  5
E4
 10
2.5
 20
-276.89999999999998
 30
0.0
 11
0.0
 21
-276.89999999999998
 31
0.0
  0
LINE
  8
LY_3
  6
CONTINUOUS
 62
               3
  5
E5
 10
20.0
 20
-303.60000000000002
 30
0.0
 11
4.7148750000000001
 21
-303.60000000000002
 31
0.0
  0
LINE
  8
LY_3
  6
CONTINUOUS
 62
               3
  5
E6
 10
1.84901
 20
-310.0
 30
0.0
 11
0.0
 21
-310.0
 31
0.0
  0
LINE
  8
LY_3
  6
CONTINUOUS
 62
               3
  5
E7
 10
3.297898
 20
-308.88822900000002
 30
0.0
 11
4.7148750000000001
 21
-303.60000000000002
 31
0.0
  0
LINE
  8
LY_3
  6
CONTINUOUS
 62
               3
  5
E8
 10
36.5
 20
-276.39999999999998
 30
0.0
 11
20.0
 21
-276.39999999999998
 31
0.0
  0
LINE
  8
LY_3
  6
CONTINUOUS
 62
               3
  5
E9
 10
34.0
 20
-303.60000000000002
 30
0.0
 11
20.0
 21
-303.60000000000002
 31
0.0
  0
LINE
  8
LY_3
  6
CONTINUOUS
 62
               3
  5
EA
 10
36.5
 20
-278.5
 30
0.0
 11
20.0
 21
-278.5
 31
0.0
  0
LINE
  8
LY_3
  6
CONTINUOUS
 62
               3
  5
EB
 10
36.5
 20
-276.25
 30
0.0
 11
36.5
 21
-290.0
 31
0.0
  0
LINE
  8
LY_3
  6
CONTINUOUS
 62
               3
  5
EC
 10
40.0
 20
-252.5
 30
0.0
 11
40.0
 21
-327.5
 31
0.0
  0
LINE
  8
LY_3
  6
CONTINUOUS
 62
               3
  5
ED
 10
40.0
 20
-252.5
 30
0.0
 11
38.15099
 21
-252.5
 31
0.0
  0
LINE
  8
LY_3
  6
CONTINUOUS
 62
               3
  5
EE
 10
34.0
 20
-263.69615199999998
 30
0.0
 11
34.0
 21
-276.39999999999998
 31
0.0
  0
LINE
  8
LY_3
  6
CONTINUOUS
 62
               3
  5
EF
 10
36.702101999999996
 20
-253.611771
 30
0.0
 11
34.0
 21
-263.69615199999998
 31
0.0
  0
LINE
  8
LY_3
  6
CONTINUOUS
 62
               3
  5
F0
 10
40.0
 20
-263.89999999999998
 30
0.0
 11
37.5
 21
-263.89999999999998
 31
0.0
  0
LINE
  8
LY_3
  6
CONTINUOUS
 62
               3
  5
F1
 10
37.5
 20
-263.89999999999998
 30
0.0
 11
37.5
 21
-290.0
 31
0.0
  0
LINE
  8
LY_3
  6
CONTINUOUS
 62
               3
  5
F2
 10
36.5
 20
-276.25
 30
0.0
 11
34.0
 21
-276.25
 31
0.0
  0
LINE
  8
LY_3
  6
CONTINUOUS
 62
               3
  5
F3
 10
37.5
 20
-277.19999999999999
 30
0.0
 11
36.5
 21
-277.19999999999999
 31
0.0
  0
LINE
  8
LY_3
  6
CONTINUOUS
 62
               3
  5
F4
 10
40.0
 20
-327.5
 30
0.0
 11
38.15099
 21
-327.5
 31
0.0
  0
LINE
  8
LY_3
  6
CONTINUOUS
 62
               3
  5
F5
 10
34.0
 20
-316.30384800000002
 30
0.0
 11
34.0
 21
-290.0
 31
0.0
  0
LINE
  8
LY_3
  6
CONTINUOUS
 62
               3
  5
F6
 10
36.702101999999996
 20
-326.38822900000002
 30
0.0
 11
34.0
 21
-316.30384800000002
 31
0.0
  0
ARC
  8
LY_3
  6
CONTINUOUS
 62
               3
  5
F7
 10
1.84901
 20
-308.5
 30
0.0
 40
1.5
 50
270.0
 51
345.0
  0
ARC
  8
LY_3
  6
CONTINUOUS
 62
               3
  5
F8
 10
1.84901
 20
-271.5
 30
0.0
 40
1.5
 50
14.999999999999998
 51
90.0
  0
ARC
  8
LY_3
  6
CONTINUOUS
 62
               3
  5
F9
 10
38.15099
 20
-254.0
 30
0.0
 40
1.5
 50
90.0
 51
165.0
  0
ARC
  8
LY_3
  6
CONTINUOUS
 62
               3
  5
FA
 10
38.15099
 20
-326.0
 30
0.0
 40
1.5
 50
195.0
 51
270.0
  0
TEXT
  8
LY_3
  6
CONTINUOUS
 62
             110
  5
FB
 10
-1.2500013510386148
 20
-244.0
 30
0.0
 40
8.0
  1
VP9040
 41
0.9380000233650208
  7
MX_NOTE_STANDARD
 11
-1.2500013510386148
 21
-236.0
 31
0.0
 73
               3
  0
LINE
  8
LY_3
  6
CONTINUOUS
 62
               3
  5
FC
 10
37.0
 20
-226.961884
 30
0.0
 11
37.0
 21
-200.0
 31
0.0
  0
LINE
  8
LY_3
  6
CONTINUOUS
 62
               3
  5
FD
 10
4.7148750000000001
 20
-213.59999999999999
 30
0.0
 11
4.7148750000000001
 21
-200.0
 31
0.0
  0
LINE
  8
LY_3
  6
CONTINUOUS
 62
               3
  5
FE
 10
3.0
 20
-219.461884
 30
0.0
 11
3.0
 21
-200.0
 31
0.0
  0
LINE
  8
LY_3
  6
CENTER
 62
             110
  5
FF
 10
43.0
 20
-200.0
 30
0.0
 11
-3.0
 21
-200.0
 31
0.0
  0
LINE
  8
LY_3
  6
CONTINUOUS
 62
               3
  5
100
 10
20.0
 20
-186.40000000000001
 30
0.0
 11
20.0
 21
-213.59999999999999
 31
0.0
  0
LINE
  8
LY_3
  6
CONTINUOUS
 62
               3
  5
101
 10
0.0
 20
-180.0
 30
0.0
 11
0.0
 21
-220.0
 31
0.0
  0
LINE
  8
LY_3
  6
CONTINUOUS
 62
               3
  5
102
 10
20.0
 20
-186.40000000000001
 30
0.0
 11
4.7148750000000001
 21
-186.40000000000001
 31
0.0
  0
LINE
  8
LY_3
  6
CONTINUOUS
 62
               3
  5
103
 10
20.0
 20
-188.0
 30
0.0
 11
2.5
 21
-188.0
 31
0.0
  0
LINE
  8
LY_3
  6
CONTINUOUS
 62
               3
  5
104
 10
1.84901
 20
-180.0
 30
0.0
 11
0.0
 21
-180.0
 31
0.0
  0
LINE
  8
LY_3
  6
CONTINUOUS
 62
               3
  5
105
 10
3.297898
 20
-181.111771
 30
0.0
 11
4.7148750000000001
 21
-186.40000000000001
 31
0.0
  0
LINE
  8
LY_3
  6
CONTINUOUS
 62
               3
  5
106
 10
2.5
 20
-186.90000000000001
 30
0.0
 11
2.5
 21
-200.0
 31
0.0
  0
LINE
  8
LY_3
  6
CONTINUOUS
 62
               3
  5
107
 10
2.5
 20
-186.90000000000001
 30
0.0
 11
0.0
 21
-186.90000000000001
 31
0.0
  0
LINE
  8
LY_3
  6
CONTINUOUS
 62
               3
  5
108
 10
20.0
 20
-213.59999999999999
 30
0.0
 11
4.7148750000000001
 21
-213.59999999999999
 31
0.0
  0
LINE
  8
LY_3
  6
CONTINUOUS
 62
               3
  5
109
 10
1.84901
 20
-220.0
 30
0.0
 11
0.0
 21
-220.0
 31
0.0
  0
LINE
  8
LY_3
  6
CONTINUOUS
 62
               3
  5
10A
 10
3.297898
 20
-218.888229
 30
0.0
 11
4.7148750000000001
 21
-213.59999999999999
 31
0.0
  0
LINE
  8
LY_3
  6
CONTINUOUS
 62
               3
  5
10B
 10
36.5
 20
-186.40000000000001
 30
0.0
 11
20.0
 21
-186.40000000000001
 31
0.0
  0
LINE
  8
LY_3
  6
CONTINUOUS
 62
               3
  5
10C
 10
34.0
 20
-213.59999999999999
 30
0.0
 11
20.0
 21
-213.59999999999999
 31
0.0
  0
LINE
  8
LY_3
  6
CONTINUOUS
 62
               3
  5
10D
 10
36.5
 20
-188.5
 30
0.0
 11
20.0
 21
-188.5
 31
0.0
  0
LINE
  8
LY_3
  6
CONTINUOUS
 62
               3
  5
10E
 10
36.5
 20
-186.25
 30
0.0
 11
36.5
 21
-200.0
 31
0.0
  0
LINE
  8
LY_3
  6
CONTINUOUS
 62
               3
  5
10F
 10
40.0
 20
-172.5
 30
0.0
 11
40.0
 21
-227.5
 31
0.0
  0
LINE
  8
LY_3
  6
CONTINUOUS
 62
               3
  5
110
 10
40.0
 20
-172.5
 30
0.0
 11
38.15099
 21
-172.5
 31
0.0
  0
LINE
  8
LY_3
  6
CONTINUOUS
 62
               3
  5
111
 10
34.0
 20
-183.69615200000001
 30
0.0
 11
34.0
 21
-186.40000000000001
 31
0.0
  0
LINE
  8
LY_3
  6
CONTINUOUS
 62
               3
  5
112
 10
36.702101999999996
 20
-173.611771
 30
0.0
 11
34.0
 21
-183.69615200000001
 31
0.0
  0
LINE
  8
LY_3
  6
CONTINUOUS
 62
               3
  5
113
 10
40.0
 20
-179.40000000000001
 30
0.0
 11
37.5
 21
-179.40000000000001
 31
0.0
  0
LINE
  8
LY_3
  6
CONTINUOUS
 62
               3
  5
114
 10
37.5
 20
-179.40000000000001
 30
0.0
 11
37.5
 21
-200.0
 31
0.0
  0
LINE
  8
LY_3
  6
CONTINUOUS
 62
               3
  5
115
 10
36.5
 20
-186.25
 30
0.0
 11
34.0
 21
-186.25
 31
0.0
  0
LINE
  8
LY_3
  6
CONTINUOUS
 62
               3
  5
116
 10
37.5
 20
-187.19999999999999
 30
0.0
 11
36.5
 21
-187.19999999999999
 31
0.0
  0
LINE
  8
LY_3
  6
CONTINUOUS
 62
               3
  5
117
 10
40.0
 20
-227.5
 30
0.0
 11
38.15099
 21
-227.5
 31
0.0
  0
LINE
  8
LY_3
  6
CONTINUOUS
 62
               3
  5
118
 10
34.0
 20
-216.30384799999999
 30
0.0
 11
34.0
 21
-200.0
 31
0.0
  0
LINE
  8
LY_3
  6
CONTINUOUS
 62
               3
  5
119
 10
36.702101999999996
 20
-226.388229
 30
0.0
 11
34.0
 21
-216.30384799999999
 31
0.0
  0
ARC
  8
LY_3
  6
CONTINUOUS
 62
               3
  5
11A
 10
1.84901
 20
-218.5
 30
0.0
 40
1.5
 50
270.0
 51
345.0
  0
ARC
  8
LY_3
  6
CONTINUOUS
 62
               3
  5
11B
 10
1.84901
 20
-181.5
 30
0.0
 40
1.5
 50
14.999999999999998
 51
90.0
  0
ARC
  8
LY_3
  6
CONTINUOUS
 62
               3
  5
11C
 10
38.15099
 20
-174.0
 30
0.0
 40
1.5
 50
90.0
 51
165.0
  0
ARC
  8
LY_3
  6
CONTINUOUS
 62
               3
  5
11D
 10
38.15099
 20
-226.0
 30
0.0
 40
1.5
 50
195.0
 51
270.0
  0
TEXT
  8
LY_3
  6
CONTINUOUS
 62
             110
  5
11E
 10
-1.2837851297711995
 20
-164.0
 30
0.0
 40
8.0
  1
VP9025
 41
0.9120000088150435
  7
MX_NOTE_STANDARD
 11
-1.2837851297711995
 21
-156.0
 31
0.0
 73
               3
  0
LINE
  8
LY_3
  6
CONTINUOUS
 62
               3
  5
11F
 10
34.360700000000001
 20
-120.0
 30
0.0
 11
34.360700000000001
 21
-119.84999999999999
 31
0.0
  0
LINE
  8
LY_3
  6
CONTINUOUS
 62
               3
  5
120
 10
37.0
 20
-149.461884
 30
0.0
 11
37.0
 21
-130.0
 31
0.0
  0
LINE
  8
LY_3
  6
CONTINUOUS
 62
               3
  5
121
 10
34.360700000000001
 20
-140.15000000000001
 30
0.0
 11
34.360700000000001
 21
-130.0
 31
0.0
  0
LINE
  8
LY_3
  6
CONTINUOUS
 62
               3
  5
122
 10
4.3397459999999999
 20
-140.0
 30
0.0
 11
4.3397459999999999
 21
-130.0
 31
0.0
  0
LINE
  8
LY_3
  6
CONTINUOUS
 62
               3
  5
123
 10
3.0
 20
-144.461884
 30
0.0
 11
3.0
 21
-130.0
 31
0.0
  0
LINE
  8
LY_3
  6
CENTER
 62
             110
  5
124
 10
43.0
 20
-130.0
 30
0.0
 11
-3.0
 21
-130.0
 31
0.0
  0
LINE
  8
LY_3
  6
CONTINUOUS
 62
               3
  5
125
 10
0.0
 20
-115.0
 30
0.0
 11
0.0
 21
-145.0
 31
0.0
  0
LINE
  8
LY_3
  6
CONTINUOUS
 62
               3
  5
126
 10
10.0
 20
-120.0
 30
0.0
 11
10.0
 21
-140.0
 31
0.0
  0
LINE
  8
LY_3
  6
CONTINUOUS
 62
               3
  5
127
 10
1.84901
 20
-115.0
 30
0.0
 11
0.0
 21
-115.0
 31
0.0
  0
LINE
  8
LY_3
  6
CONTINUOUS
 62
               3
  5
128
 10
10.0
 20
-120.0
 30
0.0
 11
4.3397459999999999
 21
-120.0
 31
0.0
  0
LINE
  8
LY_3
  6
CONTINUOUS
 62
               3
  5
129
 10
10.0
 20
-122.0
 30
0.0
 11
2.5
 21
-122.0
 31
0.0
  0
LINE
  8
LY_3
  6
CONTINUOUS
 62
               3
  5
12A
 10
3.297898
 20
-116.111771
 30
0.0
 11
4.3397459999999999
 21
-120.0
 31
0.0
  0
LINE
  8
LY_3
  6
CONTINUOUS
 62
               3
  5
12B
 10
2.5
 20
-121.40000000000001
 30
0.0
 11
2.5
 21
-130.0
 31
0.0
  0
LINE
  8
LY_3
  6
CONTINUOUS
 62
               3
  5
12C
 10
2.5
 20
-121.40000000000001
 30
0.0
 11
0.0
 21
-121.40000000000001
 31
0.0
  0
LINE
  8
LY_3
  6
CONTINUOUS
 62
               3
  5
12D
 10
10.0
 20
-140.0
 30
0.0
 11
4.3397459999999999
 21
-140.0
 31
0.0
  0
LINE
  8
LY_3
  6
CONTINUOUS
 62
               3
  5
12E
 10
3.297898
 20
-143.888229
 30
0.0
 11
4.3397459999999999
 21
-140.0
 31
0.0
  0
LINE
  8
LY_3
  6
CONTINUOUS
 62
               3
  5
12F
 10
1.84901
 20
-145.0
 30
0.0
 11
0.0
 21
-145.0
 31
0.0
  0
LINE
  8
LY_3
  6
CONTINUOUS
 62
               3
  5
130
 10
36.5
 20
-120.0
 30
0.0
 11
10.0
 21
-120.0
 31
0.0
  0
LINE
  8
LY_3
  6
CONTINUOUS
 62
               3
  5
131
 10
34.360700000000001
 20
-140.0
 30
0.0
 11
10.0
 21
-140.0
 31
0.0
  0
LINE
  8
LY_3
  6
CONTINUOUS
 62
               3
  5
132
 10
36.5
 20
-122.0
 30
0.0
 11
10.0
 21
-122.0
 31
0.0
  0
LINE
  8
LY_3
  6
CONTINUOUS
 62
               3
  5
133
 10
36.5
 20
-119.84999999999999
 30
0.0
 11
36.5
 21
-130.0
 31
0.0
  0
LINE
  8
LY_3
  6
CONTINUOUS
 62
               3
  5
134
 10
40.0
 20
-110.0
 30
0.0
 11
40.0
 21
-150.0
 31
0.0
  0
LINE
  8
LY_3
  6
CONTINUOUS
 62
               3
  5
135
 10
40.0
 20
-110.0
 30
0.0
 11
38.15099
 21
-110.0
 31
0.0
  0
LINE
  8
LY_3
  6
CONTINUOUS
 62
               3
  5
136
 10
36.702101999999996
 20
-111.111771
 30
0.0
 11
34.360700000000001
 21
-119.84999999999999
 31
0.0
  0
LINE
  8
LY_3
  6
CONTINUOUS
 62
               3
  5
137
 10
40.0
 20
-116.90000000000001
 30
0.0
 11
37.5
 21
-116.90000000000001
 31
0.0
  0
LINE
  8
LY_3
  6
CONTINUOUS
 62
               3
  5
138
 10
37.5
 20
-116.90000000000001
 30
0.0
 11
37.5
 21
-130.0
 31
0.0
  0
LINE
  8
LY_3
  6
CONTINUOUS
 62
               3
  5
139
 10
36.5
 20
-119.84999999999999
 30
0.0
 11
34.360700000000001
 21
-119.84999999999999
 31
0.0
  0
LINE
  8
LY_3
  6
CONTINUOUS
 62
               3
  5
13A
 10
37.5
 20
-121.0
 30
0.0
 11
36.5
 21
-121.0
 31
0.0
  0
LINE
  8
LY_3
  6
CONTINUOUS
 62
               3
  5
13B
 10
40.0
 20
-150.0
 30
0.0
 11
38.15099
 21
-150.0
 31
0.0
  0
LINE
  8
LY_3
  6
CONTINUOUS
 62
               3
  5
13C
 10
36.702101999999996
 20
-148.888229
 30
0.0
 11
34.360700000000001
 21
-140.15000000000001
 31
0.0
  0
ARC
  8
LY_3
  6
CONTINUOUS
 62
               3
  5
13D
 10
1.84901
 20
-143.5
 30
0.0
 40
1.5
 50
270.0
 51
345.0
  0
ARC
  8
LY_3
  6
CONTINUOUS
 62
               3
  5
13E
 10
1.84901
 20
-116.5
 30
0.0
 40
1.5
 50
14.999999999999998
 51
90.0
  0
ARC
  8
LY_3
  6
CONTINUOUS
 62
               3
  5
13F
 10
38.15099
 20
-111.5
 30
0.0
 40
1.5
 50
90.0
 51
165.0
  0
ARC
  8
LY_3
  6
CONTINUOUS
 62
               3
  5
140
 10
38.15099
 20
-148.5
 30
0.0
 40
1.5
 50
195.0
 51
270.0
  0
TEXT
  8
LY_3
  6
CONTINUOUS
 62
             110
  5
141
 10
-1.2142870351544861
 20
-94.0
 30
0.0
 40
8.0
  1
VP9016
 41
0.9640000141416276
  7
MX_NOTE_STANDARD
 11
-1.2142870351544861
 21
-86.0
 31
0.0
 73
               3
  0
LINE
  8
LY_3
  6
CONTINUOUS
 62
               3
  5
142
 10
37.0
 20
-79.461883999999998
 30
0.0
 11
37.0
 21
-60.0
 31
0.0
  0
LINE
  8
LY_3
  6
CONTINUOUS
 62
               3
  5
143
 10
5.170388
 20
-66.900000000000006
 30
0.0
 11
5.170388
 21
-60.0
 31
0.0
  0
LINE
  8
LY_3
  6
CONTINUOUS
 62
               3
  5
144
 10
3.0
 20
-74.461883999999998
 30
0.0
 11
3.0
 21
-60.0
 31
0.0
  0
LINE
  8
LY_3
  6
CENTER
 62
             110
  5
145
 10
43.0
 20
-60.0
 30
0.0
 11
-3.0
 21
-60.0
 31
0.0
  0
LINE
  8
LY_3
  6
CONTINUOUS
 62
               3
  5
146
 10
0.0
 20
-45.0
 30
0.0
 11
0.0
 21
-75.0
 31
0.0
  0
LINE
  8
LY_3
  6
CONTINUOUS
 62
               3
  5
147
 10
10.0
 20
-53.100000000000001
 30
0.0
 11
10.0
 21
-66.900000000000006
 31
0.0
  0
LINE
  8
LY_3
  6
CONTINUOUS
 62
               3
  5
148
 10
10.0
 20
-53.100000000000001
 30
0.0
 11
5.170388
 21
-53.100000000000001
 31
0.0
  0
LINE
  8
LY_3
  6
CONTINUOUS
 62
               3
  5
149
 10
1.84901
 20
-45.0
 30
0.0
 11
0.0
 21
-45.0
 31
0.0
  0
LINE
  8
LY_3
  6
CONTINUOUS
 62
               3
  5
14A
 10
3.297898
 20
-46.111770999999997
 30
0.0
 11
5.170388
 21
-53.100000000000001
 31
0.0
  0
LINE
  8
LY_3
  6
CONTINUOUS
 62
               3
  5
14B
 10
10.0
 20
-55.0
 30
0.0
 11
2.5
 21
-55.0
 31
0.0
  0
LINE
  8
LY_3
  6
CONTINUOUS
 62
               3
  5
14C
 10
2.5
 20
-53.899999999999999
 30
0.0
 11
0.0
 21
-53.899999999999999
 31
0.0
  0
LINE
  8
LY_3
  6
CONTINUOUS
 62
               3
  5
14D
 10
2.5
 20
-53.899999999999999
 30
0.0
 11
2.5
 21
-60.0
 31
0.0
  0
LINE
  8
LY_3
  6
CONTINUOUS
 62
               3
  5
14E
 10
10.0
 20
-66.900000000000006
 30
0.0
 11
5.170388
 21
-66.900000000000006
 31
0.0
  0
LINE
  8
LY_3
  6
CONTINUOUS
 62
               3
  5
14F
 10
3.297898
 20
-73.888228999999995
 30
0.0
 11
5.170388
 21
-66.900000000000006
 31
0.0
  0
LINE
  8
LY_3
  6
CONTINUOUS
 62
               3
  5
150
 10
1.84901
 20
-75.0
 30
0.0
 11
0.0
 21
-75.0
 31
0.0
  0
LINE
  8
LY_3
  6
CONTINUOUS
 62
               3
  5
151
 10
34.0
 20
-66.900000000000006
 30
0.0
 11
10.0
 21
-66.900000000000006
 31
0.0
  0
LINE
  8
LY_3
  6
CONTINUOUS
 62
               3
  5
152
 10
36.5
 20
-53.100000000000001
 30
0.0
 11
10.0
 21
-53.100000000000001
 31
0.0
  0
LINE
  8
LY_3
  6
CONTINUOUS
 62
               3
  5
153
 10
36.5
 20
-55.100000000000001
 30
0.0
 11
10.0
 21
-55.100000000000001
 31
0.0
  0
LINE
  8
LY_3
  6
CONTINUOUS
 62
               3
  5
154
 10
36.5
 20
-52.950000000000003
 30
0.0
 11
36.5
 21
-60.0
 31
0.0
  0
LINE
  8
LY_3
  6
CONTINUOUS
 62
               3
  5
155
 10
40.0
 20
-40.0
 30
0.0
 11
40.0
 21
-80.0
 31
0.0
  0
LINE
  8
LY_3
  6
CONTINUOUS
 62
               3
  5
156
 10
40.0
 20
-40.0
 30
0.0
 11
38.15099
 21
-40.0
 31
0.0
  0
LINE
  8
LY_3
  6
CONTINUOUS
 62
               3
  5
157
 10
34.0
 20
-51.196151999999998
 30
0.0
 11
34.0
 21
-53.100000000000001
 31
0.0
  0
LINE
  8
LY_3
  6
CONTINUOUS
 62
               3
  5
158
 10
36.702101999999996
 20
-41.111771000000005
 30
0.0
 11
34.0
 21
-51.196151999999998
 31
0.0
  0
LINE
  8
LY_3
  6
CONTINUOUS
 62
               3
  5
159
 10
40.0
 20
-46.899999999999999
 30
0.0
 11
37.5
 21
-46.899999999999999
 31
0.0
  0
LINE
  8
LY_3
  6
CONTINUOUS
 62
               3
  5
15A
 10
37.5
 20
-46.899999999999999
 30
0.0
 11
37.5
 21
-60.0
 31
0.0
  0
LINE
  8
LY_3
  6
CONTINUOUS
 62
               3
  5
15B
 10
37.5
 20
-54.049999999999997
 30
0.0
 11
36.5
 21
-54.049999999999997
 31
0.0
  0
LINE
  8
LY_3
  6
CONTINUOUS
 62
               3
  5
15C
 10
36.5
 20
-52.950000000000003
 30
0.0
 11
34.0
 21
-52.950000000000003
 31
0.0
  0
LINE
  8
LY_3
  6
CONTINUOUS
 62
               3
  5
15D
 10
40.0
 20
-80.0
 30
0.0
 11
38.15099
 21
-80.0
 31
0.0
  0
LINE
  8
LY_3
  6
CONTINUOUS
 62
               3
  5
15E
 10
34.0
 20
-68.803848000000002
 30
0.0
 11
34.0
 21
-60.0
 31
0.0
  0
LINE
  8
LY_3
  6
CONTINUOUS
 62
               3
  5
15F
 10
36.702101999999996
 20
-78.888228999999995
 30
0.0
 11
34.0
 21
-68.803848000000002
 31
0.0
  0
ARC
  8
LY_3
  6
CONTINUOUS
 62
               3
  5
160
 10
1.84901
 20
-73.5
 30
0.0
 40
1.5
 50
270.0
 51
345.0
  0
ARC
  8
LY_3
  6
CONTINUOUS
 62
               3
  5
161
 10
1.84901
 20
-46.5
 30
0.0
 40
1.5
 50
14.999999999999998
 51
90.0
  0
ARC
  8
LY_3
  6
CONTINUOUS
 62
               3
  5
162
 10
38.15099
 20
-41.5
 30
0.0
 40
1.5
 50
90.0
 51
165.0
  0
ARC
  8
LY_3
  6
CONTINUOUS
 62
               3
  5
163
 10
38.15099
 20
-78.5
 30
0.0
 40
1.5
 50
195.0
 51
270.0
  0
TEXT
  8
LY_3
  6
CONTINUOUS
 62
             110
  5
164
 10
-1.1764719392068113
 20
-24.0
 30
0.0
 40
8.0
  1
VP9010
 41
0.9929999709374764
  7
MX_NOTE_STANDARD
 11
-1.1764719392068113
 21
-16.0
 31
0.0
 73
               3
  0
ARC
  8
LY_3
  6
CONTINUOUS
 62
               3
  5
165
 10
38.15099
 20
-13.5
 30
0.0
 40
1.5
 50
195.0
 51
270.0
  0
ARC
  8
LY_3
  6
CONTINUOUS
 62
               3
  5
166
 10
38.15099
 20
13.5
 30
0.0
 40
1.5
 50
90.0
 51
165.0
  0
ARC
  8
LY_3
  6
CONTINUOUS
 62
               3
  5
167
 10
1.84901
 20
13.5
 30
0.0
 40
1.5
 50
14.999999999999998
 51
90.0
  0
ARC
  8
LY_3
  6
CONTINUOUS
 62
               3
  5
168
 10
1.84901
 20
-13.5
 30
0.0
 40
1.5
 50
270.0
 51
345.0
  0
LINE
  8
LY_3
  6
CONTINUOUS
 62
               3
  5
169
 10
36.702101999999996
 20
-13.888229000000001
 30
0.0
 11
34.869804000000002
 21
-7.0499999999999998
 31
0.0
  0
LINE
  8
LY_3
  6
CONTINUOUS
 62
               3
  5
16A
 10
40.0
 20
-15.0
 30
0.0
 11
38.15099
 21
-15.0
 31
0.0
  0
LINE
  8
LY_3
  6
CONTINUOUS
 62
               3
  5
16B
 10
37.5
 20
5.9500000000000002
 30
0.0
 11
36.5
 21
5.9500000000000002
 31
0.0
  0
LINE
  8
LY_3
  6
CONTINUOUS
 62
               3
  5
16C
 10
40.0
 20
8.5999999999999996
 30
0.0
 11
37.5
 21
8.5999999999999996
 31
0.0
  0
LINE
  8
LY_3
  6
CONTINUOUS
 62
               3
  5
16D
 10
37.5
 20
8.5999999999999996
 30
0.0
 11
37.5
 21
0.0
 31
0.0
  0
LINE
  8
LY_3
  6
CONTINUOUS
 62
               3
  5
16E
 10
36.5
 20
7.0499999999999998
 30
0.0
 11
34.869804000000002
 21
7.0499999999999998
 31
0.0
  0
LINE
  8
LY_3
  6
CONTINUOUS
 62
               3
  5
16F
 10
36.702101999999996
 20
13.888229000000001
 30
0.0
 11
34.869804000000002
 21
7.0499999999999998
 31
0.0
  0
LINE
  8
LY_3
  6
CONTINUOUS
 62
               3
  5
170
 10
40.0
 20
15.0
 30
0.0
 11
38.15099
 21
15.0
 31
0.0
  0
LINE
  8
LY_3
  6
CONTINUOUS
 62
               3
  5
171
 10
40.0
 20
15.0
 30
0.0
 11
40.0
 21
-15.0
 31
0.0
  0
LINE
  8
LY_3
  6
CONTINUOUS
 62
               3
  5
172
 10
36.5
 20
7.0499999999999998
 30
0.0
 11
36.5
 21
0.0
 31
0.0
  0
LINE
  8
LY_3
  6
CONTINUOUS
 62
               3
  5
173
 10
36.5
 20
4.9000000000000004
 30
0.0
 11
10.0
 21
4.9000000000000004
 31
0.0
  0
LINE
  8
LY_3
  6
CONTINUOUS
 62
               3
  5
174
 10
36.5
 20
6.9000000000000004
 30
0.0
 11
10.0
 21
6.9000000000000004
 31
0.0
  0
LINE
  8
LY_3
  6
CONTINUOUS
 62
               3
  5
175
 10
34.869804000000002
 20
-6.9000000000000004
 30
0.0
 11
10.0
 21
-6.9000000000000004
 31
0.0
  0
LINE
  8
LY_3
  6
CONTINUOUS
 62
               3
  5
176
 10
1.84901
 20
-15.0
 30
0.0
 11
0.0
 21
-15.0
 31
0.0
  0
LINE
  8
LY_3
  6
CONTINUOUS
 62
               3
  5
177
 10
3.297898
 20
-13.888229000000001
 30
0.0
 11
5.170388
 21
-6.9000000000000004
 31
0.0
  0
LINE
  8
LY_3
  6
CONTINUOUS
 62
               3
  5
178
 10
10.0
 20
-6.9000000000000004
 30
0.0
 11
5.170388
 21
-6.9000000000000004
 31
0.0
  0
LINE
  8
LY_3
  6
CONTINUOUS
 62
               3
  5
179
 10
2.5
 20
6.0999999999999996
 30
0.0
 11
2.5
 21
0.0
 31
0.0
  0
LINE
  8
LY_3
  6
CONTINUOUS
 62
               3
  5
17A
 10
2.5
 20
6.0999999999999996
 30
0.0
 11
0.0
 21
6.0999999999999996
 31
0.0
  0
LINE
  8
LY_3
  6
CONTINUOUS
 62
               3
  5
17B
 10
10.0
 20
5.0
 30
0.0
 11
2.5
 21
5.0
 31
0.0
  0
LINE
  8
LY_3
  6
CONTINUOUS
 62
               3
  5
17C
 10
3.297898
 20
13.888229000000001
 30
0.0
 11
5.170388
 21
6.9000000000000004
 31
0.0
  0
LINE
  8
LY_3
  6
CONTINUOUS
 62
               3
  5
17D
 10
1.84901
 20
15.0
 30
0.0
 11
0.0
 21
15.0
 31
0.0
  0
LINE
  8
LY_3
  6
CONTINUOUS
 62
               3
  5
17E
 10
10.0
 20
6.9000000000000004
 30
0.0
 11
5.170388
 21
6.9000000000000004
 31
0.0
  0
LINE
  8
LY_3
  6
CONTINUOUS
 62
               3
  5
17F
 10
10.0
 20
6.9000000000000004
 30
0.0
 11
10.0
 21
-6.9000000000000004
 31
0.0
  0
LINE
  8
LY_3
  6
CONTINUOUS
 62
               3
  5
180
 10
0.0
 20
15.0
 30
0.0
 11
0.0
 21
-15.0
 31
0.0
  0
LINE
  8
LY_3
  6
CENTER
 62
             110
  5
181
 10
43.0
 20
0.0
 30
0.0
 11
-3.0
 21
0.0
 31
0.0
  0
LINE
  8
LY_3
  6
CONTINUOUS
 62
               3
  5
182
 10
3.0
 20
-14.461884
 30
0.0
 11
3.0
 21
0.0
 31
0.0
  0
LINE
  8
LY_3
  6
CONTINUOUS
 62
               3
  5
183
 10
5.170388
 20
-6.9000000000000004
 30
0.0
 11
5.170388
 21
0.0
 31
0.0
  0
LINE
  8
LY_3
  6
CONTINUOUS
 62
               3
  5
184
 10
37.0
 20
-14.461884
 30
0.0
 11
37.0
 21
0.0
 31
0.0
  0
LINE
  8
LY_3
  6
CONTINUOUS
 62
               3
  5
185
 10
34.869804000000002
 20
-7.0499999999999998
 30
0.0
 11
34.869804000000002
 21
0.0
 31
0.0
  0
LINE
  8
LY_3
  6
CONTINUOUS
 62
               3
  5
186
 10
34.869804000000002
 20
6.9000000000000004
 30
0.0
 11
34.869804000000002
 21
7.0499999999999998
 31
0.0
  0
ENDSEC
  0
EOF
