  0
SECTION
  2
HEADER
  9
$ACADVER
  1
AC1009
  9
$DWGCODEPAGE
  3
dos932
  9
$INSBASE
 10
0.0
 20
0.0
 30
0.0
  9
$EXTMIN
 10
-43.0
 20
-676.00000047683716
 30
0.0
  9
$EXTMAX
 10
478.82200799999998
 20
55.0
 30
0.0
  9
$LIMMIN
 10
-43.0
 20
-676.00000047683716
  9
$LIMMAX
 10
478.82200799999998
 20
55.0
  9
$ORTHOMODE
 70
               0
  9
$REGENMODE
 70
               1
  9
$FILLMODE
 70
               1
  9
$QTEXTMODE
 70
               0
  9
$MIRRTEXT
 70
               1
  9
$DRAGMODE
 70
               2
  9
$LTSCALE
 40
1.0
  9
$OSMODE
 70
               0
  9
$ATTMODE
 70
               1
  9
$TEXTSIZE
 40
3.2000000476837158
  9
$TRACEWID
 40
0.05
  9
$TEXTSTYLE
  7
MX_NOTE_STANDARD
  9
$CLAYER
  8
LY_3
  9
$CELTYPE
  6
CONTINUOUS
  9
$CECOLOR
 62
             256
  9
$DIMSCALE
 40
1.0
  9
$DIMASZ
 40
2.5
  9
$DIMEXO
 40
2.0
  9
$DIMDLI
 40
3.75
  9
$DIMRND
 40
0.0
  9
$DIMDLE
 40
0.0
  9
$DIMEXE
 40
1.0
  9
$DIMTP
 40
0.0
  9
$DIMTM
 40
0.0
  9
$DIMTXT
 40
4.1655998229980469
  9
$DIMCEN
 40
2.5
  9
$DIMTSZ
 40
0.0
  9
$DIMTOL
 70
               0
  9
$DIMLIM
 70
               0
  9
$DIMTIH
 70
               0
  9
$DIMTOH
 70
               0
  9
$DIMSE1
 70
               0
  9
$DIMSE2
 70
               0
  9
$DIMTAD
 70
               1
  9
$DIMZIN
 70
               8
  9
$DIMBLK
  1

  9
$DIMASO
 70
               1
  9
$DIMSHO
 70
               1
  9
$DIMPOST
  1

  9
$DIMAPOST
  1

  9
$DIMALT
 70
               0
  9
$DIMALTD
 70
               4
  9
$DIMALTF
 40
0.03937007874016
  9
$DIMLFAC
 40
1.0
  9
$DIMTOFL
 70
               1
  9
$DIMTVP
 40
0.0
  9
$DIMTIX
 70
               0
  9
$DIMSOXD
 70
               0
  9
$DIMSAH
 70
               1
  9
$DIMBLK1
  1
_OPEN30
  9
$DIMBLK2
  1
_OPEN30
  9
$DIMSTYLE
  2
MXDIMSTYLE
  9
$DIMCLRD
 70
               0
  9
$DIMCLRE
 70
               0
  9
$DIMCLRT
 70
               0
  9
$DIMTFAC
 40
1.0
  9
$DIMGAP
 40
1.0
  9
$LUNITS
 70
               2
  9
$LUPREC
 70
               4
  9
$AXISMODE
 70
               0
  9
$AXISUNIT
 10
0.0
 20
0.0
  9
$SKETCHINC
 40
0.1
  9
$FILLETRAD
 40
0.0
  9
$AUNITS
 70
               0
  9
$AUPREC
 70
               0
  9
$MENU
  1
acad
  9
$ELEVATION
 40
0.0
  9
$PELEVATION
 40
0.0
  9
$THICKNESS
 40
0.0
  9
$LIMCHECK
 70
               0
  9
$BLIPMODE
 70
               1
  9
$CHAMFERA
 40
0.0
  9
$CHAMFERB
 40
0.0
  9
$SKPOLY
 70
               0
  9
$TDCREATE
 40
2455163.529097222
  9
$TDUPDATE
 40
2455163.529097222
  9
$TDINDWG
 40
0.0000000000
  9
$TDUSRTIMER
 40
0.0000000000
  9
$USRTIMER
 70
               1
  9
$ANGBASE
 50
0.0
  9
$ANGDIR
 70
               0
  9
$PDMODE
 70
               0
  9
$PDSIZE
 40
0.0
  9
$PLINEWID
 40
0.0
  9
$COORDS
 70
               1
  9
$SPLFRAME
 70
               0
  9
$SPLINETYPE
 70
               6
  9
$SPLINESEGS
 70
               8
  9
$ATTDIA
 70
               0
  9
$ATTREQ
 70
               1
  9
$HANDLING
 70
               1
  9
$HANDSEED
  5
2F1
  9
$SURFTAB1
 70
               6
  9
$SURFTAB2
 70
               6
  9
$SURFTYPE
 70
               6
  9
$SURFU
 70
               6
  9
$SURFV
 70
               6
  9
$UCSNAME
  2

  9
$UCSORG
 10
0.0
 20
0.0
 30
0.0
  9
$UCSXDIR
 10
1.0
 20
0.0
 30
0.0
  9
$UCSYDIR
 10
0.0
 20
1.0
 30
0.0
  9
$PUCSNAME
  2

  9
$PUCSORG
 10
0.0
 20
0.0
 30
0.0
  9
$PUCSXDIR
 10
1.0
 20
0.0
 30
0.0
  9
$PUCSYDIR
 10
0.0
 20
1.0
 30
0.0
  9
$USERI1
 70
               0
  9
$USERI2
 70
               0
  9
$USERI3
 70
               0
  9
$USERI4
 70
               0
  9
$USERI5
 70
               0
  9
$USERR1
 40
0.0
  9
$USERR2
 40
0.0
  9
$USERR3
 40
0.0
  9
$USERR4
 40
0.0
  9
$USERR5
 40
0.0
  9
$WORLDVIEW
 70
               1
  9
$SHADEDGE
 70
               3
  9
$SHADEDIF
 70
              70
  9
$TILEMODE
 70
               1
  9
$MAXACTVP
 70
              16
  9
$PINSBASE
 10
0.0
 20
0.0
 30
0.0
  9
$PLIMCHECK
 70
               0
  9
$PEXTMIN
 10
1.0000000000000000E+20
 20
1.0000000000000000E+20
 30
1.0000000000000000E+20
  9
$PEXTMAX
 10
-1.0000000000000000E+20
 20
-1.0000000000000000E+20
 30
-1.0000000000000000E+20
  9
$PLIMMIN
 10
0.0
 20
0.0
  9
$PLIMMAX
 10
12.0
 20
9.0
  9
$UNITMODE
 70
               0
  9
$VISRETAIN
 70
               0
  9
$PLINEGEN
 70
               1
  9
$PSLTSCALE
 70
               0
  9
$TREEDEPTH
 70
            3020
  0
ENDSEC
  0
SECTION
  2
TABLES
  0
TABLE
  2
VPORT
 70
               1
  0
VPORT
  2
*ACTIVE
 70
               0
 10
0.0
 20
0.0
 11
1.0
 21
1.0
 12
217.91100399999999
 22
-310.50000023841858
 13
0.0
 23
0.0
 14
1.0
 24
1.0
 15
0.0
 25
0.0
 16
0.0
 26
0.0
 36
1.0
 17
0.0
 27
0.0
 37
0.0
 40
738.31000048160558
 41
1.7320508075688772
 42
50.0
 43
0.0
 44
0.0
 50
0.0
 51
0.0
 71
               0
 72
             100
 73
               1
 74
               1
 75
               0
 76
               0
 77
               0
 78
               0
  0
ENDTAB
  0
TABLE
  2
LTYPE
 70
               2
  0
LTYPE
  2
CONTINUOUS
 70
              64
  3
Solid line
 72
              65
 73
               0
 40
0.0
  0
LTYPE
  2
CENTER
 70
              64
  3
Center ____ _ ____ _ ____ _ ____ _ ____ _ ____
 72
              65
 73
               4
 40
50.800000000000004
 49
31.75
 49
-6.3499999999999996
 49
6.3499999999999996
 49
-6.3499999999999996
  0
ENDTAB
  0
TABLE
  2
LAYER
 70
               3
  0
LAYER
  2
0
 70
               0
 62
               7
  6
CONTINUOUS
  0
LAYER
  2
DEFPOINTS
 70
               0
 62
               7
  6
CONTINUOUS
  0
LAYER
  2
LY_3
 70
               0
 62
               7
  6
CONTINUOUS
  0
ENDTAB
  0
TABLE
  2
STYLE
 70
               1
  0
STYLE
  2
MX_NOTE_STANDARD
 70
               0
 40
0.0
 41
1.0
 50
0.0
 71
               0
 42
3.2000000476837158
  3
txt.shx
  4
extfont.shx
  0
ENDTAB
  0
TABLE
  2
VIEW
 70
               0
  0
ENDTAB
  0
TABLE
  2
UCS
 70
               0
  0
ENDTAB
  0
TABLE
  2
APPID
 70
               1
  0
APPID
  2
ACAD
 70
               0
  0
ENDTAB
  0
TABLE
  2
DIMSTYLE
 70
               1
  0
DIMSTYLE
  2
MXDIMSTYLE
 70
               0
  3

  4

  5

  6
_OPEN30
  7
_OPEN30
 40
1.0
 41
2.5
 42
2.0
 43
3.75
 44
1.0
 45
0.0
 46
0.0
 47
0.0
 48
0.0
 71
               0
 72
               0
 73
               0
 74
               0
 75
               0
 76
               0
 77
               1
 78
               8
140
4.1655998229980469
141
2.5
142
0.0
143
0.03937007874016
144
1.0
145
0.0
146
1.0
147
1.0
170
               0
171
               4
172
               1
173
               1
174
               0
175
               0
176
               0
177
               0
178
               0
  0
ENDTAB
  0
ENDSEC
  0
SECTION
  2
BLOCKS
  0
BLOCK
  8
0
  6
BYBLOCK
 62
               0
  5
20
  2
_OPEN30
 70
               2
 10
0.0
 20
0.0
 30
0.0
  3
_OPEN30
  0
LINE
  8
0
  6
BYBLOCK
 62
               0
  5
21
 10
-1.0
 20
0.267949
 30
0.0
 11
0.0
 21
0.0
 31
0.0
  0
LINE
  8
0
  6
BYBLOCK
 62
               0
  5
22
 10
0.0
 20
0.0
 30
0.0
 11
-1.0
 21
-0.267949
 31
0.0
  0
LINE
  8
0
  6
BYBLOCK
 62
               0
  5
23
 10
0.0
 20
0.0
 30
0.0
 11
-1.0
 21
0.0
 31
0.0
  0
ENDBLK
  8
0
  6
BYBLOCK
 62
               0
  5
24
  0
ENDSEC
  0
SECTION
  2
ENTITIES
  0
TEXT
  8
LY_3
  6
CONTINUOUS
 62
             110
  5
25
 10
318.82352806079319
 20
-604.0
 30
0.0
 40
8.0
  1
VP8100
 41
0.9929999709374764
  7
MX_NOTE_STANDARD
 11
318.82352806079319
 21
-596.0
 31
0.0
 73
               3
  0
POLYLINE
  8
LY_3
  6
CONTINUOUS
 62
               3
  5
26
 66
               1
 10
0.0
 20
0.0
 30
0.0
  0
VERTEX
  8
LY_3
  6
CONTINUOUS
 62
               3
  5
1DC
 10
267.33641275386083
 20
-394.94999999999999
 30
0.0
  0
VERTEX
  8
LY_3
  6
CONTINUOUS
 62
               3
  5
1DD
 10
267.56581793735529
 20
-395.85301058910181
 30
0.0
  0
VERTEX
  8
LY_3
  6
CONTINUOUS
 62
               3
  5
1DE
 10
267.78175356607403
 20
-396.76110369185
 30
0.0
  0
VERTEX
  8
LY_3
  6
CONTINUOUS
 62
               3
  5
1DF
 10
267.98325035453814
 20
-397.67375283701983
 30
0.0
  0
VERTEX
  8
LY_3
  6
CONTINUOUS
 62
               3
  5
1E0
 10
268.16933901726844
 20
-398.59043155338657
 30
0.0
  0
VERTEX
  8
LY_3
  6
CONTINUOUS
 62
               3
  5
1E1
 10
268.33905026878591
 20
-399.51061336972555
 30
0.0
  0
VERTEX
  8
LY_3
  6
CONTINUOUS
 62
               3
  5
1E2
 10
268.49141482361154
 20
-400.43377181481196
 30
0.0
  0
VERTEX
  8
LY_3
  6
CONTINUOUS
 62
               3
  5
1E3
 10
268.62546339626624
 20
-401.35938041742122
 30
0.0
  0
VERTEX
  8
LY_3
  6
CONTINUOUS
 62
               3
  5
1E4
 10
268.74022670127096
 20
-402.28691270632851
 30
0.0
  0
VERTEX
  8
LY_3
  6
CONTINUOUS
 62
               3
  5
1E5
 10
268.83473545314672
 20
-403.21584221030912
 30
0.0
  0
VERTEX
  8
LY_3
  6
CONTINUOUS
 62
               3
  5
1E6
 10
268.90802036641435
 20
-404.14564245813835
 30
0.0
  0
VERTEX
  8
LY_3
  6
CONTINUOUS
 62
               3
  5
1E7
 10
268.95911215559488
 20
-405.07578697859151
 30
0.0
  0
VERTEX
  8
LY_3
  6
CONTINUOUS
 62
               3
  5
1E8
 10
268.98704153520924
 20
-406.00574930044388
 30
0.0
  0
VERTEX
  8
LY_3
  6
CONTINUOUS
 62
               3
  5
1E9
 10
268.99083921977842
 20
-406.93500295247065
 30
0.0
  0
VERTEX
  8
LY_3
  6
CONTINUOUS
 62
               3
  5
1EA
 10
268.93753706186675
 20
-408.58363613380783
 30
0.0
  0
VERTEX
  8
LY_3
  6
CONTINUOUS
 62
               3
  5
1EB
 10
268.81459060887636
 20
-410.22873962148213
 30
0.0
  0
VERTEX
  8
LY_3
  6
CONTINUOUS
 62
               3
  5
1EC
 10
268.63163491106417
 20
-411.87068481142245
 30
0.0
  0
VERTEX
  8
LY_3
  6
CONTINUOUS
 62
               3
  5
1ED
 10
268.39830501868727
 20
-413.50984309955749
 30
0.0
  0
VERTEX
  8
LY_3
  6
CONTINUOUS
 62
               3
  5
1EE
 10
268.12423598200246
 20
-415.14658588181601
 30
0.0
  0
VERTEX
  8
LY_3
  6
CONTINUOUS
 62
               3
  5
1EF
 10
267.81906285126684
 20
-416.78128455412678
 30
0.0
  0
VERTEX
  8
LY_3
  6
CONTINUOUS
 62
               3
  5
1F0
 10
267.49242067673725
 20
-418.41431051241852
 30
0.0
  0
VERTEX
  8
LY_3
  6
CONTINUOUS
 62
               3
  5
1F1
 10
267.15394450867075
 20
-420.04603515262005
 30
0.0
  0
VERTEX
  8
LY_3
  6
CONTINUOUS
 62
               3
  5
1F2
 10
266.81326939732423
 20
-421.67682987066007
 30
0.0
  0
VERTEX
  8
LY_3
  6
CONTINUOUS
 62
               3
  5
1F3
 10
266.48003039295463
 20
-423.30706606246741
 30
0.0
  0
VERTEX
  8
LY_3
  6
CONTINUOUS
 62
               3
  5
1F4
 10
266.16386254581903
 20
-424.93711512397078
 30
0.0
  0
VERTEX
  8
LY_3
  6
CONTINUOUS
 62
               3
  5
1F5
 10
265.87440090617429
 20
-426.56734845109895
 30
0.0
  0
VERTEX
  8
LY_3
  6
CONTINUOUS
 62
               3
  5
1F6
 10
265.62128052427738
 20
-428.19813743978062
 30
0.0
  0
VERTEX
  8
LY_3
  6
CONTINUOUS
 62
               3
  5
1F7
 10
265.41413645038529
 20
-429.82985348594468
 30
0.0
  0
VERTEX
  8
LY_3
  6
CONTINUOUS
 62
               3
  5
1F8
 10
265.26260373475498
 20
-431.46286798551978
 30
0.0
  0
VERTEX
  8
LY_3
  6
CONTINUOUS
 62
               3
  5
1F9
 10
265.15738949678865
 20
-433.66049032800623
 30
0.0
  0
VERTEX
  8
LY_3
  6
CONTINUOUS
 62
               3
  5
1FA
 10
265.1570889798752
 20
-435.86091656794679
 30
0.0
  0
VERTEX
  8
LY_3
  6
CONTINUOUS
 62
               3
  5
1FB
 10
265.24872259153932
 20
-438.0639333628244
 30
0.0
  0
VERTEX
  8
LY_3
  6
CONTINUOUS
 62
               3
  5
1FC
 10
265.41931073930556
 20
-440.26932737012191
 30
0.0
  0
VERTEX
  8
LY_3
  6
CONTINUOUS
 62
               3
  5
1FD
 10
265.65587383069851
 20
-442.47688524732206
 30
0.0
  0
VERTEX
  8
LY_3
  6
CONTINUOUS
 62
               3
  5
1FE
 10
265.94543227324283
 20
-444.68639365190785
 30
0.0
  0
VERTEX
  8
LY_3
  6
CONTINUOUS
 62
               3
  5
1FF
 10
266.27500647446317
 20
-446.89763924136207
 30
0.0
  0
VERTEX
  8
LY_3
  6
CONTINUOUS
 62
               3
  5
200
 10
266.63161684188407
 20
-449.11040867316757
 30
0.0
  0
VERTEX
  8
LY_3
  6
CONTINUOUS
 62
               3
  5
201
 10
267.00228378303012
 20
-451.32448860480724
 30
0.0
  0
VERTEX
  8
LY_3
  6
CONTINUOUS
 62
               3
  5
202
 10
267.37402770542604
 20
-453.53966569376388
 30
0.0
  0
VERTEX
  8
LY_3
  6
CONTINUOUS
 62
               3
  5
203
 10
267.73386901659632
 20
-455.75572659752038
 30
0.0
  0
VERTEX
  8
LY_3
  6
CONTINUOUS
 62
               3
  5
204
 10
268.0688281240657
 20
-457.97245797355964
 30
0.0
  0
VERTEX
  8
LY_3
  6
CONTINUOUS
 62
               3
  5
205
 10
268.36592543535869
 20
-460.1896464793644
 30
0.0
  0
VERTEX
  8
LY_3
  6
CONTINUOUS
 62
               3
  5
206
 10
268.61218135799993
 20
-462.40707877241766
 30
0.0
  0
VERTEX
  8
LY_3
  6
CONTINUOUS
 62
               3
  5
207
 10
268.79461629951402
 20
-464.62454151020216
 30
0.0
  0
VERTEX
  8
LY_3
  6
CONTINUOUS
 62
               3
  5
208
 10
268.91776529637764
 20
-467.31777430006326
 30
0.0
  0
VERTEX
  8
LY_3
  6
CONTINUOUS
 62
               3
  5
209
 10
268.94095668204528
 20
-470.01083600098372
 30
0.0
  0
VERTEX
  8
LY_3
  6
CONTINUOUS
 62
               3
  5
20A
 10
268.87754061367633
 20
-472.70382536237162
 30
0.0
  0
VERTEX
  8
LY_3
  6
CONTINUOUS
 62
               3
  5
20B
 10
268.74086724843016
 20
-475.39684113363495
 30
0.0
  0
VERTEX
  8
LY_3
  6
CONTINUOUS
 62
               3
  5
20C
 10
268.54428674346627
 20
-478.08998206418175
 30
0.0
  0
VERTEX
  8
LY_3
  6
CONTINUOUS
 62
               3
  5
20D
 10
268.30114925594404
 20
-480.78334690341995
 30
0.0
  0
VERTEX
  8
LY_3
  6
CONTINUOUS
 62
               3
  5
20E
 10
268.0248049430229
 20
-483.47703440075759
 30
0.0
  0
VERTEX
  8
LY_3
  6
CONTINUOUS
 62
               3
  5
20F
 10
267.72860396186223
 20
-486.1711433056027
 30
0.0
  0
VERTEX
  8
LY_3
  6
CONTINUOUS
 62
               3
  5
210
 10
267.42589646962153
 20
-488.86577236736326
 30
0.0
  0
VERTEX
  8
LY_3
  6
CONTINUOUS
 62
               3
  5
211
 10
267.13003262346012
 20
-491.56102033544732
 30
0.0
  0
VERTEX
  8
LY_3
  6
CONTINUOUS
 62
               3
  5
212
 10
266.85436258053755
 20
-494.25698595926281
 30
0.0
  0
VERTEX
  8
LY_3
  6
CONTINUOUS
 62
               3
  5
213
 10
266.61223649801309
 20
-496.95376798821786
 30
0.0
  0
VERTEX
  8
LY_3
  6
CONTINUOUS
 62
               3
  5
214
 10
266.41700453304622
 20
-499.65146517172042
 30
0.0
  0
VERTEX
  8
LY_3
  6
CONTINUOUS
 62
               3
  5
215
 10
266.28201684279639
 20
-502.35017625917845
 30
0.0
  0
VERTEX
  8
LY_3
  6
CONTINUOUS
 62
               3
  5
216
 10
266.22062358442298
 20
-505.05000000000001
 30
0.0
  0
SEQEND
  8
LY_3
  6
CONTINUOUS
 62
               3
  5
217
  0
LINE
  8
LY_3
  6
CONTINUOUS
 62
               3
  5
27
 10
404.15000199999997
 20
-507.15000199999997
 30
0.0
 11
404.15000199999997
 21
-392.84999800000003
 31
0.0
  0
LINE
  8
LY_3
  6
CONTINUOUS
 62
               3
  5
28
 10
275.84999800000003
 20
-507.15000199999997
 30
0.0
 11
275.84999800000003
 21
-392.84999800000003
 31
0.0
  0
LINE
  8
LY_3
  6
CONTINUOUS
 62
               3
  5
29
 10
282.84999800000003
 20
-514.14999799999998
 30
0.0
 11
397.15000199999997
 21
-514.14999799999998
 31
0.0
  0
LINE
  8
LY_3
  6
CONTINUOUS
 62
               3
  5
2A
 10
282.84999800000003
 20
-385.84999800000003
 30
0.0
 11
397.15000199999997
 21
-385.84999800000003
 31
0.0
  0
ARC
  8
LY_3
  6
CONTINUOUS
 62
               3
  5
2B
 10
404.15000199999997
 20
-385.84999800000003
 30
0.0
 40
7.0
 50
180.0
 51
270.0
  0
ARC
  8
LY_3
  6
CONTINUOUS
 62
               3
  5
2C
 10
404.15000199999997
 20
-514.15000199999997
 30
0.0
 40
7.0
 50
90.0
 51
180.0
  0
ARC
  8
LY_3
  6
CONTINUOUS
 62
               3
  5
2D
 10
275.84999800000003
 20
-514.14999799999998
 30
0.0
 40
7.0
 50
0.0
 51
90.0
  0
ARC
  8
LY_3
  6
CONTINUOUS
 62
               3
  5
2E
 10
275.84999800000003
 20
-385.84999800000003
 30
0.0
 40
7.0
 50
270.0
 51
0.0
  0
LINE
  8
LY_3
  6
CONTINUOUS
 62
               3
  5
2F
 10
406.57090900000003
 20
-338.00004300000001
 30
0.0
 11
273.42911500000002
 21
-338.00004300000001
 31
0.0
  0
LINE
  8
LY_3
  6
CONTINUOUS
 62
               3
  5
30
 10
451.99995699999999
 20
-516.57090900000003
 30
0.0
 11
451.99995699999999
 21
-383.42911500000002
 31
0.0
  0
LINE
  8
LY_3
  6
CONTINUOUS
 62
               3
  5
31
 10
273.42909099999997
 20
-561.99995699999999
 30
0.0
 11
406.57088499999998
 21
-561.99995699999999
 31
0.0
  0
ARC
  8
LY_3
  6
CONTINUOUS
 62
               3
  5
32
 10
274.5
 20
-563.05026799999996
 30
0.0
 40
1.5
 50
110.000001
 51
180.0
  0
ARC
  8
LY_3
  6
CONTINUOUS
 62
               3
  5
33
 10
405.5
 20
-336.94970699999999
 30
0.0
 40
1.5
 50
290.00003700000002
 51
359.99998199999999
  0
LINE
  8
LY_3
  6
CONTINUOUS
 62
               3
  5
34
 10
399.0
 20
-340.91177399999998
 30
0.0
 11
399.0
 21
-355.0
 31
0.0
  0
LINE
  8
LY_3
  6
CONTINUOUS
 62
               3
  5
35
 10
406.013035
 20
-338.35926899999998
 30
0.0
 11
398.99999600000001
 21
-340.91180600000001
 31
0.0
  0
LINE
  8
LY_3
  6
CONTINUOUS
 62
               3
  5
36
 10
407.0
 20
-330.0
 30
0.0
 11
407.0
 21
-336.94970699999999
 31
0.0
  0
LINE
  8
LY_3
  6
CONTINUOUS
 62
               3
  5
37
 10
399.0
 20
-355.0
 30
0.0
 11
281.0
 21
-355.0
 31
0.0
  0
LINE
  8
LY_3
  6
CONTINUOUS
 62
               3
  5
38
 10
397.15000199999997
 20
-355.0
 30
0.0
 11
397.15000199999997
 21
-385.84999800000003
 31
0.0
  0
LINE
  8
LY_3
  6
CONTINUOUS
 62
               3
  5
39
 10
282.84999800000003
 20
-355.0
 30
0.0
 11
282.84999800000003
 21
-385.84999800000003
 31
0.0
  0
ARC
  8
LY_3
  6
CONTINUOUS
 62
               3
  5
3A
 10
274.5
 20
-336.94970699999999
 30
0.0
 40
1.5
 50
180.00001800000001
 51
249.99999700000004
  0
LINE
  8
LY_3
  6
CONTINUOUS
 62
               3
  5
3B
 10
281.0
 20
-340.91177399999998
 30
0.0
 11
281.0
 21
-355.0
 31
0.0
  0
LINE
  8
LY_3
  6
CONTINUOUS
 62
               3
  5
3C
 10
273.98694599999999
 20
-338.35926599999999
 30
0.0
 11
280.99998099999999
 21
-340.91180199999997
 31
0.0
  0
LINE
  8
LY_3
  6
CONTINUOUS
 62
               3
  5
3D
 10
273.0
 20
-330.0
 30
0.0
 11
273.0
 21
-336.94970699999999
 31
0.0
  0
LINE
  8
LY_3
  6
CONTINUOUS
 62
               3
  5
3E
 10
407.0
 20
-330.0
 30
0.0
 11
273.0
 21
-330.0
 31
0.0
  0
ARC
  8
LY_3
  6
CONTINUOUS
 62
               3
  5
3F
 10
453.05029300000001
 20
-515.5
 30
0.0
 40
1.5
 50
200.00003699999999
 51
269.99998199999999
  0
LINE
  8
LY_3
  6
CONTINUOUS
 62
               3
  5
40
 10
449.08822599999996
 20
-509.0
 30
0.0
 11
435.0
 21
-509.0
 31
0.0
  0
LINE
  8
LY_3
  6
CONTINUOUS
 62
               3
  5
41
 10
451.64073099999996
 20
-516.01303499999995
 30
0.0
 11
449.08819399999999
 21
-508.99999600000001
 31
0.0
  0
LINE
  8
LY_3
  6
CONTINUOUS
 62
               3
  5
42
 10
460.0
 20
-517.0
 30
0.0
 11
453.05029300000001
 21
-517.0
 31
0.0
  0
LINE
  8
LY_3
  6
CONTINUOUS
 62
               3
  5
43
 10
435.0
 20
-509.0
 30
0.0
 11
435.0
 21
-391.0
 31
0.0
  0
LINE
  8
LY_3
  6
CONTINUOUS
 62
               3
  5
44
 10
435.0
 20
-507.15000199999997
 30
0.0
 11
404.15000199999997
 21
-507.15000199999997
 31
0.0
  0
LINE
  8
LY_3
  6
CONTINUOUS
 62
               3
  5
45
 10
435.0
 20
-392.84999800000003
 30
0.0
 11
404.15000199999997
 21
-392.84999800000003
 31
0.0
  0
ARC
  8
LY_3
  6
CONTINUOUS
 62
               3
  5
46
 10
453.05029300000001
 20
-384.5
 30
0.0
 40
1.5
 50
90.000017999999997
 51
159.99999700000001
  0
LINE
  8
LY_3
  6
CONTINUOUS
 62
               3
  5
47
 10
449.08822599999996
 20
-391.0
 30
0.0
 11
435.0
 21
-391.0
 31
0.0
  0
LINE
  8
LY_3
  6
CONTINUOUS
 62
               3
  5
48
 10
451.64073400000001
 20
-383.98694599999999
 30
0.0
 11
449.08819800000003
 21
-390.99998099999999
 31
0.0
  0
LINE
  8
LY_3
  6
CONTINUOUS
 62
               3
  5
49
 10
460.0
 20
-383.0
 30
0.0
 11
453.05029300000001
 21
-383.0
 31
0.0
  0
LINE
  8
LY_3
  6
CONTINUOUS
 62
               3
  5
4A
 10
460.0
 20
-517.0
 30
0.0
 11
460.0
 21
-383.0
 31
0.0
  0
LINE
  8
LY_3
  6
CONTINUOUS
 62
               3
  5
4B
 10
281.0
 20
-559.08822599999996
 30
0.0
 11
281.0
 21
-545.0
 31
0.0
  0
LINE
  8
LY_3
  6
CONTINUOUS
 62
               3
  5
4C
 10
273.98696999999999
 20
-561.64072899999996
 30
0.0
 11
281.00000399999999
 21
-559.08819400000004
 31
0.0
  0
LINE
  8
LY_3
  6
CONTINUOUS
 62
               3
  5
4D
 10
273.0
 20
-570.0
 30
0.0
 11
273.0
 21
-563.05026799999996
 31
0.0
  0
LINE
  8
LY_3
  6
CONTINUOUS
 62
               3
  5
4E
 10
282.84999800000003
 20
-545.0
 30
0.0
 11
282.84999800000003
 21
-514.14999799999998
 31
0.0
  0
LINE
  8
LY_3
  6
CONTINUOUS
 62
               3
  5
4F
 10
397.15000199999997
 20
-545.0
 30
0.0
 11
397.15000199999997
 21
-514.15000199999997
 31
0.0
  0
ARC
  8
LY_3
  6
CONTINUOUS
 62
               3
  5
50
 10
405.5
 20
-563.05029300000001
 30
0.0
 40
1.5
 50
0.000018
 51
69.999996999999993
  0
LINE
  8
LY_3
  6
CONTINUOUS
 62
               3
  5
51
 10
399.0
 20
-559.08822599999996
 30
0.0
 11
399.0
 21
-545.0
 31
0.0
  0
LINE
  8
LY_3
  6
CONTINUOUS
 62
               3
  5
52
 10
406.01305400000001
 20
-561.64073399999995
 30
0.0
 11
399.00001900000001
 21
-559.08819800000003
 31
0.0
  0
LINE
  8
LY_3
  6
CONTINUOUS
 62
               3
  5
53
 10
407.0
 20
-570.0
 30
0.0
 11
407.0
 21
-563.05029300000001
 31
0.0
  0
LINE
  8
LY_3
  6
CONTINUOUS
 62
               3
  5
54
 10
273.0
 20
-570.0
 30
0.0
 11
407.0
 21
-570.0
 31
0.0
  0
LINE
  8
LY_3
  6
CONTINUOUS
 62
               3
  5
55
 10
281.0
 20
-545.0
 30
0.0
 11
399.0
 21
-545.0
 31
0.0
  0
LINE
  8
LY_3
  6
CONTINUOUS
 62
               3
  5
56
 10
233.158399
 20
-501.10000000000002
 30
0.0
 11
233.158399
 21
-398.89999999999998
 31
0.0
  0
LINE
  8
LY_3
  6
CENTER
 62
             110
  5
58
 10
204.407386
 20
-450.0
 30
0.0
 11
478.82200799999998
 21
-450.0
 31
0.0
  0
LINE
  8
LY_3
  6
CONTINUOUS
 62
               3
  5
59
 10
220.0
 20
-383.0
 30
0.0
 11
220.0
 21
-517.0
 31
0.0
  0
LINE
  8
LY_3
  6
CONTINUOUS
 62
               3
  5
5A
 10
220.0
 20
-517.0
 30
0.0
 11
226.94970699999999
 21
-517.0
 31
0.0
  0
LINE
  8
LY_3
  6
CONTINUOUS
 62
               3
  5
5B
 10
220.0
 20
-383.0
 30
0.0
 11
226.94970699999999
 21
-383.0
 31
0.0
  0
LINE
  8
LY_3
  6
CONTINUOUS
 62
               3
  5
5C
 10
240.0
 20
-392.84999800000003
 30
0.0
 11
240.0
 21
-450.0
 31
0.0
  0
LINE
  8
LY_3
  6
CONTINUOUS
 62
               3
  5
5D
 10
245.0
 20
-391.0
 30
0.0
 11
245.0
 21
-392.84999800000003
 31
0.0
  0
LINE
  8
LY_3
  6
CONTINUOUS
 62
               3
  5
5E
 10
228.35926599999999
 20
-516.01305400000001
 30
0.0
 11
230.91180199999999
 21
-509.00001900000001
 31
0.0
  0
LINE
  8
LY_3
  6
CONTINUOUS
 62
               3
  5
5F
 10
228.35926900000001
 20
-383.986965
 30
0.0
 11
230.91180600000001
 21
-391.00000399999999
 31
0.0
  0
LINE
  8
LY_3
  6
CONTINUOUS
 62
               3
  5
60
 10
230.91177400000001
 20
-509.0
 30
0.0
 11
245.0
 21
-509.0
 31
0.0
  0
LINE
  8
LY_3
  6
CONTINUOUS
 62
               3
  5
61
 10
230.91177400000001
 20
-391.0
 30
0.0
 11
245.0
 21
-391.0
 31
0.0
  0
LINE
  8
LY_3
  6
CONTINUOUS
 62
               3
  5
62
 10
220.0
 20
-398.89999999999998
 30
0.0
 11
233.158399
 21
-398.89999999999998
 31
0.0
  0
LINE
  8
LY_3
  6
CONTINUOUS
 62
               3
  5
63
 10
240.0
 20
-507.14999799999998
 30
0.0
 11
275.84999800000003
 21
-507.14999799999998
 31
0.0
  0
LINE
  8
LY_3
  6
CONTINUOUS
 62
               3
  5
64
 10
240.0
 20
-392.84999800000003
 30
0.0
 11
275.84999800000003
 21
-392.84999800000003
 31
0.0
  0
LINE
  8
LY_3
  6
CONTINUOUS
 62
               3
  5
65
 10
245.0
 20
-507.15000199999997
 30
0.0
 11
245.0
 21
-509.0
 31
0.0
  0
LINE
  8
LY_3
  6
CONTINUOUS
 62
               3
  5
66
 10
240.0
 20
-394.94999999999999
 30
0.0
 11
267.33641299999999
 21
-394.94999999999999
 31
0.0
  0
LINE
  8
LY_3
  6
CONTINUOUS
 62
               3
  5
67
 10
240.0
 20
-507.15000199999997
 30
0.0
 11
240.0
 21
-450.0
 31
0.0
  0
LINE
  8
LY_3
  6
CONTINUOUS
 62
               3
  5
68
 10
220.0
 20
-501.10000000000002
 30
0.0
 11
233.158399
 21
-501.10000000000002
 31
0.0
  0
LINE
  8
LY_3
  6
CONTINUOUS
 62
               3
  5
69
 10
240.0
 20
-505.05000000000001
 30
0.0
 11
266.22062399999999
 21
-505.05000000000001
 31
0.0
  0
LINE
  8
LY_3
  6
CONTINUOUS
 62
               3
  5
6A
 10
233.158399
 20
-398.89999999999998
 30
0.0
 11
240.0
 21
-394.94999999999999
 31
0.0
  0
LINE
  8
LY_3
  6
CONTINUOUS
 62
               3
  5
6B
 10
233.158399
 20
-501.10000000000002
 30
0.0
 11
240.0
 21
-505.05000000000001
 31
0.0
  0
ARC
  8
LY_3
  6
CONTINUOUS
 62
               3
  5
6C
 10
226.94970699999999
 20
-515.5
 30
0.0
 40
1.5
 50
270.00001800000001
 51
339.99999700000001
  0
ARC
  8
LY_3
  6
CONTINUOUS
 62
               3
  5
6D
 10
226.94970699999999
 20
-384.5
 30
0.0
 40
1.5
 50
20.000036999999999
 51
89.999982000000003
  0
LINE
  8
LY_3
  6
CENTER
 62
             110
  5
6E
 10
340.0
 20
-309.18522100000001
 30
0.0
 11
340.0
 21
-584.04908599999999
 31
0.0
  0
TEXT
  8
LY_3
  6
CONTINUOUS
 62
             110
  5
6F
 10
318.74999864896137
 20
-244.0
 30
0.0
 40
8.0
  1
VP8080
 41
0.9380000233650208
  7
MX_NOTE_STANDARD
 11
318.74999864896137
 21
-236.0
 31
0.0
 73
               3
  0
LINE
  8
LY_3
  6
CENTER
 62
             110
  5
70
 10
220.0
 20
-100.0
 30
0.0
 11
460.0
 21
-100.0
 31
0.0
  0
LINE
  8
LY_3
  6
CONTINUOUS
 62
               3
  5
71
 10
450.0
 20
-157.00001499999999
 30
0.0
 11
450.0
 21
-43.000014999999998
 31
0.0
  0
LINE
  8
LY_3
  6
CONTINUOUS
 62
               3
  5
72
 10
450.0
 20
-43.0
 30
0.0
 11
443.05032299999999
 21
-43.0
 31
0.0
  0
LINE
  8
LY_3
  6
CONTINUOUS
 62
               3
  5
73
 10
450.0
 20
-157.00000800000001
 30
0.0
 11
443.05029300000001
 21
-157.00000800000001
 31
0.0
  0
LINE
  8
LY_3
  6
CONTINUOUS
 62
               3
  5
74
 10
442.0
 20
-156.53479999999999
 30
0.0
 11
442.0
 21
-43.463245999999998
 31
0.0
  0
LINE
  8
LY_3
  6
CONTINUOUS
 62
               3
  5
75
 10
441.64075400000002
 20
-43.986975999999999
 30
0.0
 11
439.08822099999998
 21
-50.999999000000003
 31
0.0
  0
LINE
  8
LY_3
  6
CONTINUOUS
 62
               3
  5
76
 10
441.640671
 20
-156.01308399999999
 30
0.0
 11
439.08813299999997
 21
-149.00004200000001
 31
0.0
  0
LINE
  8
LY_3
  6
CONTINUOUS
 62
               3
  5
77
 10
439.08822599999996
 20
-51.0
 30
0.0
 11
425.0
 21
-51.0
 31
0.0
  0
LINE
  8
LY_3
  6
CONTINUOUS
 62
               3
  5
78
 10
439.08822599999996
 20
-149.00000800000001
 30
0.0
 11
425.0
 21
-149.00000800000001
 31
0.0
  0
LINE
  8
LY_3
  6
CONTINUOUS
 62
               3
  5
79
 10
439.088257
 20
-149.00000800000001
 30
0.0
 11
439.088257
 21
-51.000014999999998
 31
0.0
  0
LINE
  8
LY_3
  6
CONTINUOUS
 62
               3
  5
7A
 10
425.0
 20
-149.00000800000001
 30
0.0
 11
425.0
 21
-51.000014999999998
 31
0.0
  0
LINE
  8
LY_3
  6
CONTINUOUS
 62
               3
  5
7B
 10
230.0
 20
-43.0
 30
0.0
 11
230.0
 21
-157.0
 31
0.0
  0
LINE
  8
LY_3
  6
CONTINUOUS
 62
               3
  5
7C
 10
230.0
 20
-157.0
 30
0.0
 11
236.94970699999999
 21
-157.0
 31
0.0
  0
LINE
  8
LY_3
  6
CONTINUOUS
 62
               3
  5
7D
 10
230.0
 20
-43.0
 30
0.0
 11
236.94970699999999
 21
-43.0
 31
0.0
  0
LINE
  8
LY_3
  6
CONTINUOUS
 62
               3
  5
7E
 10
250.0
 20
-55.449997000000003
 30
0.0
 11
250.0
 21
-100.0
 31
0.0
  0
LINE
  8
LY_3
  6
CONTINUOUS
 62
               3
  5
7F
 10
255.0
 20
-51.0
 30
0.0
 11
255.0
 21
-55.449997000000003
 31
0.0
  0
LINE
  8
LY_3
  6
CONTINUOUS
 62
               3
  5
80
 10
238.35926599999999
 20
-156.01305400000001
 30
0.0
 11
240.91180200000002
 21
-149.00001900000001
 31
0.0
  0
LINE
  8
LY_3
  6
CONTINUOUS
 62
               3
  5
81
 10
238.35926899999998
 20
-43.986964999999998
 30
0.0
 11
240.91180600000001
 21
-51.000003999999997
 31
0.0
  0
LINE
  8
LY_3
  6
CONTINUOUS
 62
               3
  5
82
 10
240.91177399999998
 20
-149.0
 30
0.0
 11
255.0
 21
-149.0
 31
0.0
  0
LINE
  8
LY_3
  6
CONTINUOUS
 62
               3
  5
83
 10
240.91177399999998
 20
-51.0
 30
0.0
 11
255.0
 21
-51.0
 31
0.0
  0
LINE
  8
LY_3
  6
CONTINUOUS
 62
               3
  5
84
 10
230.0
 20
-58.399999999999999
 30
0.0
 11
248.35453100000001
 21
-58.399999999999999
 31
0.0
  0
LINE
  8
LY_3
  6
CONTINUOUS
 62
               3
  5
85
 10
255.0
 20
-144.54999900000001
 30
0.0
 11
288.449997
 21
-144.54999900000001
 31
0.0
  0
LINE
  8
LY_3
  6
CONTINUOUS
 62
               3
  5
86
 10
250.0
 20
-55.449997000000003
 30
0.0
 11
288.449997
 21
-55.449997000000003
 31
0.0
  0
LINE
  8
LY_3
  6
CONTINUOUS
 62
               3
  5
87
 10
255.0
 20
-144.54999900000001
 30
0.0
 11
255.0
 21
-149.0
 31
0.0
  0
LINE
  8
LY_3
  6
CONTINUOUS
 62
               3
  5
88
 10
250.0
 20
-57.549987999999999
 30
0.0
 11
284.02966700000002
 21
-57.549987999999999
 31
0.0
  0
LINE
  8
LY_3
  6
CONTINUOUS
 62
               3
  5
89
 10
283.0
 20
-210.00000799999998
 30
0.0
 11
397.0
 21
-210.00000799999998
 31
0.0
  0
LINE
  8
LY_3
  6
CONTINUOUS
 62
               3
  5
8A
 10
397.0
 20
-210.00000799999998
 30
0.0
 11
397.0
 21
-203.05031600000001
 31
0.0
  0
LINE
  8
LY_3
  6
CONTINUOUS
 62
               3
  5
8B
 10
283.0
 20
-209.99999200000002
 30
0.0
 11
283.0
 21
-203.05030099999999
 31
0.0
  0
LINE
  8
LY_3
  6
CONTINUOUS
 62
               3
  5
8C
 10
283.55490900000001
 20
-202.00000799999998
 30
0.0
 11
396.53324599999996
 21
-202.00000799999998
 31
0.0
  0
LINE
  8
LY_3
  6
CONTINUOUS
 62
               3
  5
8D
 10
396.01302199999998
 20
-201.64076699999998
 30
0.0
 11
388.99999800000001
 21
-199.088235
 31
0.0
  0
LINE
  8
LY_3
  6
CONTINUOUS
 62
               3
  5
8E
 10
283.98700200000002
 20
-201.640773
 30
0.0
 11
291.00004100000001
 21
-199.08823599999999
 31
0.0
  0
LINE
  8
LY_3
  6
CONTINUOUS
 62
               3
  5
8F
 10
389.0
 20
-199.088234
 30
0.0
 11
389.0
 21
-185.0
 31
0.0
  0
LINE
  8
LY_3
  6
CONTINUOUS
 62
               3
  5
90
 10
291.0
 20
-199.088234
 30
0.0
 11
291.0
 21
-185.0
 31
0.0
  0
LINE
  8
LY_3
  6
CONTINUOUS
 62
               3
  5
91
 10
291.0
 20
-199.08824199999998
 30
0.0
 11
389.0
 21
-199.08824199999998
 31
0.0
  0
LINE
  8
LY_3
  6
CONTINUOUS
 62
               3
  5
92
 10
384.54998799999998
 20
-185.0
 30
0.0
 11
384.54998799999998
 21
-151.54999900000001
 31
0.0
  0
LINE
  8
LY_3
  6
CONTINUOUS
 62
               3
  5
93
 10
295.449997
 20
-185.00000799999998
 30
0.0
 11
295.449997
 21
-151.54999900000001
 31
0.0
  0
LINE
  8
LY_3
  6
CONTINUOUS
 62
               3
  5
94
 10
291.0
 20
-185.00000799999998
 30
0.0
 11
389.0
 21
-185.00000799999998
 31
0.0
  0
LINE
  8
LY_3
  6
CONTINUOUS
 62
               3
  5
95
 10
391.54998799999998
 20
-144.54999900000001
 30
0.0
 11
425.0
 21
-144.54999900000001
 31
0.0
  0
LINE
  8
LY_3
  6
CONTINUOUS
 62
               3
  5
96
 10
295.449997
 20
-151.54999900000001
 30
0.0
 11
384.54998799999998
 21
-151.54999900000001
 31
0.0
  0
LINE
  8
LY_3
  6
CONTINUOUS
 62
               3
  5
97
 10
391.54998799999998
 20
-55.449997000000003
 30
0.0
 11
425.0
 21
-55.449997000000003
 31
0.0
  0
LINE
  8
LY_3
  6
CONTINUOUS
 62
               3
  5
98
 10
295.449997
 20
-48.449997000000003
 30
0.0
 11
384.54998799999998
 21
-48.449997000000003
 31
0.0
  0
LINE
  8
LY_3
  6
CONTINUOUS
 62
               3
  5
99
 10
384.54998799999998
 20
-15.0
 30
0.0
 11
384.54998799999998
 21
-48.449997000000003
 31
0.0
  0
LINE
  8
LY_3
  6
CONTINUOUS
 62
               3
  5
9A
 10
291.0
 20
-15.0
 30
0.0
 11
389.0
 21
-15.0
 31
0.0
  0
LINE
  8
LY_3
  6
CONTINUOUS
 62
               3
  5
9B
 10
295.449997
 20
-15.0
 30
0.0
 11
295.449997
 21
-48.449997000000003
 31
0.0
  0
LINE
  8
LY_3
  6
CONTINUOUS
 62
               3
  5
9C
 10
291.0
 20
-0.9117739999999941
 30
0.0
 11
291.0
 21
-15.0
 31
0.0
  0
LINE
  8
LY_3
  6
CONTINUOUS
 62
               3
  5
9D
 10
283.98701299999999
 20
1.6407700000000034
 30
0.0
 11
291.00003300000003
 21
-0.9117719999999991
 31
0.0
  0
LINE
  8
LY_3
  6
CONTINUOUS
 62
               3
  5
9E
 10
291.0
 20
-0.9117580000000061
 30
0.0
 11
389.0
 21
-0.9117580000000061
 31
0.0
  0
LINE
  8
LY_3
  6
CONTINUOUS
 62
               3
  5
9F
 10
283.42906199999999
 20
2.0
 30
0.0
 11
396.55655000000002
 21
2.0
 31
0.0
  0
LINE
  8
LY_3
  6
CONTINUOUS
 62
               3
  5
A0
 10
283.0
 20
10.0
 30
0.0
 11
283.0
 21
3.0502929999999964
 31
0.0
  0
LINE
  8
LY_3
  6
CONTINUOUS
 62
               3
  5
A1
 10
283.0
 20
10.0
 30
0.0
 11
397.0
 21
10.0
 31
0.0
  0
LINE
  8
LY_3
  6
CONTINUOUS
 62
               3
  5
A2
 10
397.0
 20
10.0
 30
0.0
 11
397.0
 21
3.0503230000000059
 31
0.0
  0
LINE
  8
LY_3
  6
CONTINUOUS
 62
               3
  5
A3
 10
396.01302599999997
 20
1.6407549999999986
 30
0.0
 11
388.99999600000001
 21
-0.9117799999999932
 31
0.0
  0
LINE
  8
LY_3
  6
CONTINUOUS
 62
               3
  5
A4
 10
389.0
 20
-0.9117739999999941
 30
0.0
 11
389.0
 21
-15.0
 31
0.0
  0
LINE
  8
LY_3
  6
CONTINUOUS
 62
               3
  5
A5
 10
250.0
 20
-144.550003
 30
0.0
 11
250.0
 21
-100.0
 31
0.0
  0
LINE
  8
LY_3
  6
CONTINUOUS
 62
               3
  5
A6
 10
230.0
 20
-141.59999999999999
 30
0.0
 11
248.35453100000001
 21
-141.59999999999999
 31
0.0
  0
LINE
  8
LY_3
  6
CONTINUOUS
 62
               3
  5
A7
 10
250.0
 20
-142.45001200000002
 30
0.0
 11
284.756032
 21
-142.45001200000002
 31
0.0
  0
LINE
  8
LY_3
  6
CONTINUOUS
 62
               3
  5
A8
 10
250.0
 20
-144.550003
 30
0.0
 11
288.449997
 21
-144.550003
 31
0.0
  0
LINE
  8
LY_3
  6
CONTINUOUS
 62
               3
  5
A9
 10
248.35453100000001
 20
-58.5
 30
0.0
 11
250.0
 21
-57.549987999999999
 31
0.0
  0
LINE
  8
LY_3
  6
CONTINUOUS
 62
               3
  5
AA
 10
248.35453100000001
 20
-58.399999999999999
 30
0.0
 11
248.35453100000001
 21
-141.59999999999999
 31
0.0
  0
LINE
  8
LY_3
  6
CONTINUOUS
 62
               3
  5
AB
 10
248.35453100000001
 20
-141.5
 30
0.0
 11
250.0
 21
-142.45001200000002
 31
0.0
  0
ARC
  8
LY_3
  6
CONTINUOUS
 62
               3
  5
AC
 10
443.05029300000001
 20
-155.50001499999999
 30
0.0
 40
1.5
 50
200.000046
 51
269.99999100000002
  0
ARC
  8
LY_3
  6
CONTINUOUS
 62
               3
  5
AD
 10
443.05032299999999
 20
-44.500014999999998
 30
0.0
 40
1.5
 50
90.000009000000006
 51
159.99999500000004
  0
ARC
  8
LY_3
  6
CONTINUOUS
 62
               3
  5
AE
 10
236.94970699999999
 20
-155.5
 30
0.0
 40
1.5
 50
270.00001800000001
 51
339.99999700000001
  0
ARC
  8
LY_3
  6
CONTINUOUS
 62
               3
  5
AF
 10
236.94970699999999
 20
-44.5
 30
0.0
 40
1.5
 50
20.000036999999999
 51
89.999982000000003
  0
ARC
  8
LY_3
  6
CONTINUOUS
 62
               3
  5
B0
 10
395.5
 20
-203.05031600000001
 30
0.0
 40
1.5
 50
0.000014
 51
69.999993000000003
  0
ARC
  8
LY_3
  6
CONTINUOUS
 62
               3
  5
B1
 10
284.5
 20
-203.05030099999999
 30
0.0
 40
1.5
 50
110.000033
 51
179.99997800000003
  0
ARC
  8
LY_3
  6
CONTINUOUS
 62
               3
  5
B2
 10
391.54998799999998
 20
-151.54999900000001
 30
0.0
 40
7.0
 50
89.999982000000003
 51
179.99996400000001
  0
ARC
  8
LY_3
  6
CONTINUOUS
 62
               3
  5
B3
 10
288.449997
 20
-151.54999900000001
 30
0.0
 40
7.0
 50
0.0
 51
89.999982000000003
  0
ARC
  8
LY_3
  6
CONTINUOUS
 62
               3
  5
B4
 10
288.449997
 20
-48.449997000000003
 30
0.0
 40
7.0
 50
269.99996299999998
 51
359.99994500000003
  0
ARC
  8
LY_3
  6
CONTINUOUS
 62
               3
  5
B5
 10
391.54998799999998
 20
-48.449997000000003
 30
0.0
 40
7.0
 50
179.99998099999999
 51
269.99996299999998
  0
ARC
  8
LY_3
  6
CONTINUOUS
 62
               3
  5
B6
 10
284.5
 20
3.0502929999999964
 30
0.0
 40
1.5
 50
179.99995000000001
 51
249.99989500000004
  0
ARC
  8
LY_3
  6
CONTINUOUS
 62
               3
  5
B7
 10
395.5
 20
3.0503230000000059
 30
0.0
 40
1.5
 50
289.999953
 51
359.999932
  0
POLYLINE
  8
LY_3
  6
CONTINUOUS
 62
             110
  5
B8
 66
               1
 10
0.0
 20
0.0
 30
0.0
  0
VERTEX
  8
LY_3
  6
CONTINUOUS
 62
             110
  5
218
 10
283.4971544217716
 20
-55.496929862811221
 30
0.0
  0
VERTEX
  8
LY_3
  6
CONTINUOUS
 62
             110
  5
219
 10
283.55887489331928
 20
-55.738113755820081
 30
0.0
  0
VERTEX
  8
LY_3
  6
CONTINUOUS
 62
             110
  5
21A
 10
283.80494828025229
 20
-56.645480907496747
 30
0.0
  0
VERTEX
  8
LY_3
  6
CONTINUOUS
 62
             110
  5
21B
 10
284.06567100808422
 20
-57.548980906850993
 30
0.0
  0
VERTEX
  8
LY_3
  6
CONTINUOUS
 62
             110
  5
21C
 10
284.33248854484975
 20
-58.450757588767189
 30
0.0
  0
VERTEX
  8
LY_3
  6
CONTINUOUS
 62
             110
  5
21D
 10
284.59684635858355
 20
-59.352954788129736
 30
0.0
  0
VERTEX
  8
LY_3
  6
CONTINUOUS
 62
             110
  5
21E
 10
284.85018991732017
 20
-60.257716339823006
 30
0.0
  0
VERTEX
  8
LY_3
  6
CONTINUOUS
 62
             110
  5
21F
 10
285.08197145715849
 20
-61.149317212521467
 30
0.0
  0
VERTEX
  8
LY_3
  6
CONTINUOUS
 62
             110
  5
220
 10
285.30015288699786
 20
-62.04438922549145
 30
0.0
  0
VERTEX
  8
LY_3
  6
CONTINUOUS
 62
             110
  5
221
 10
285.50996557858605
 20
-62.94187272505328
 30
0.0
  0
VERTEX
  8
LY_3
  6
CONTINUOUS
 62
             110
  5
222
 10
285.71664090367079
 20
-63.840708057527287
 30
0.0
  0
VERTEX
  8
LY_3
  6
CONTINUOUS
 62
             110
  5
223
 10
285.92541023399986
 20
-64.739835569233804
 30
0.0
  0
VERTEX
  8
LY_3
  6
CONTINUOUS
 62
             110
  5
224
 10
286.14150494132099
 20
-65.638195606493156
 30
0.0
  0
VERTEX
  8
LY_3
  6
CONTINUOUS
 62
             110
  5
225
 10
286.37722269995453
 20
-66.568941491547506
 30
0.0
  0
VERTEX
  8
LY_3
  6
CONTINUOUS
 62
             110
  5
226
 10
286.62087096701993
 20
-67.498449994496738
 30
0.0
  0
VERTEX
  8
LY_3
  6
CONTINUOUS
 62
             110
  5
227
 10
286.86685467590718
 20
-68.427451834939674
 30
0.0
  0
VERTEX
  8
LY_3
  6
CONTINUOUS
 62
             110
  5
228
 10
287.10957876000612
 20
-69.356677732475106
 30
0.0
  0
VERTEX
  8
LY_3
  6
CONTINUOUS
 62
             110
  5
229
 10
287.34344815270663
 20
-70.286858406701882
 30
0.0
  0
VERTEX
  8
LY_3
  6
CONTINUOUS
 62
             110
  5
22A
 10
287.5628677873986
 20
-71.218724577218794
 30
0.0
  0
VERTEX
  8
LY_3
  6
CONTINUOUS
 62
             110
  5
22B
 10
287.76224259747192
 20
-72.153006963624662
 30
0.0
  0
VERTEX
  8
LY_3
  6
CONTINUOUS
 62
             110
  5
22C
 10
287.93597751631654
 20
-73.090436285518322
 30
0.0
  0
VERTEX
  8
LY_3
  6
CONTINUOUS
 62
             110
  5
22D
 10
288.07847747732228
 20
-74.03174326249858
 30
0.0
  0
VERTEX
  8
LY_3
  6
CONTINUOUS
 62
             110
  5
22E
 10
288.18395590719695
 20
-74.95437792303872
 30
0.0
  0
VERTEX
  8
LY_3
  6
CONTINUOUS
 62
             110
  5
22F
 10
288.26056858639009
 20
-75.880832025976147
 30
0.0
  0
VERTEX
  8
LY_3
  6
CONTINUOUS
 62
             110
  5
230
 10
288.31450955653253
 20
-76.810538140178025
 30
0.0
  0
VERTEX
  8
LY_3
  6
CONTINUOUS
 62
             110
  5
231
 10
288.35197285925523
 20
-77.742928834511531
 30
0.0
  0
VERTEX
  8
LY_3
  6
CONTINUOUS
 62
             110
  5
232
 10
288.37915253618917
 20
-78.677436677843801
 30
0.0
  0
VERTEX
  8
LY_3
  6
CONTINUOUS
 62
             110
  5
233
 10
288.40224262896527
 20
-79.613494239042026
 30
0.0
  0
VERTEX
  8
LY_3
  6
CONTINUOUS
 62
             110
  5
234
 10
288.42743717921445
 20
-80.550534086973357
 30
0.0
  0
VERTEX
  8
LY_3
  6
CONTINUOUS
 62
             110
  5
235
 10
288.46093022856769
 20
-81.487988790504971
 30
0.0
  0
VERTEX
  8
LY_3
  6
CONTINUOUS
 62
             110
  5
236
 10
288.50891581865585
 20
-82.425290918504004
 30
0.0
  0
VERTEX
  8
LY_3
  6
CONTINUOUS
 62
             110
  5
237
 10
288.58033138176773
 20
-83.420375724678237
 30
0.0
  0
VERTEX
  8
LY_3
  6
CONTINUOUS
 62
             110
  5
238
 10
288.66831268340326
 20
-84.414561829019917
 30
0.0
  0
VERTEX
  8
LY_3
  6
CONTINUOUS
 62
             110
  5
239
 10
288.76607675395684
 20
-85.407763192957333
 30
0.0
  0
VERTEX
  8
LY_3
  6
CONTINUOUS
 62
             110
  5
23A
 10
288.86684062382267
 20
-86.399893777918777
 30
0.0
  0
VERTEX
  8
LY_3
  6
CONTINUOUS
 62
             110
  5
23B
 10
288.96382132339505
 20
-87.390867545332569
 30
0.0
  0
VERTEX
  8
LY_3
  6
CONTINUOUS
 62
             110
  5
23C
 10
289.05023588306835
 20
-88.380598456626998
 30
0.0
  0
VERTEX
  8
LY_3
  6
CONTINUOUS
 62
             110
  5
23D
 10
289.11930133323682
 20
-89.369000473230358
 30
0.0
  0
VERTEX
  8
LY_3
  6
CONTINUOUS
 62
             110
  5
23E
 10
289.16423470429476
 20
-90.355987556570966
 30
0.0
  0
VERTEX
  8
LY_3
  6
CONTINUOUS
 62
             110
  5
23F
 10
289.17825302663647
 20
-91.3414736680771
 30
0.0
  0
VERTEX
  8
LY_3
  6
CONTINUOUS
 62
             110
  5
240
 10
289.15457333065626
 20
-92.325372769177079
 30
0.0
  0
VERTEX
  8
LY_3
  6
CONTINUOUS
 62
             110
  5
241
 10
289.09151284012381
 20
-93.274779225367936
 30
0.0
  0
VERTEX
  8
LY_3
  6
CONTINUOUS
 62
             110
  5
242
 10
288.99292515939044
 20
-94.222901075488963
 30
0.0
  0
VERTEX
  8
LY_3
  6
CONTINUOUS
 62
             110
  5
243
 10
288.86483357403688
 20
-95.170016538044933
 30
0.0
  0
VERTEX
  8
LY_3
  6
CONTINUOUS
 62
             110
  5
244
 10
288.7132613696441
 20
-96.116403831540637
 30
0.0
  0
VERTEX
  8
LY_3
  6
CONTINUOUS
 62
             110
  5
245
 10
288.54423183179279
 20
-97.062341174480821
 30
0.0
  0
VERTEX
  8
LY_3
  6
CONTINUOUS
 62
             110
  5
246
 10
288.36376824606384
 20
-98.008106785370288
 30
0.0
  0
VERTEX
  8
LY_3
  6
CONTINUOUS
 62
             110
  5
247
 10
288.17789389803812
 20
-98.953978882713812
 30
0.0
  0
VERTEX
  8
LY_3
  6
CONTINUOUS
 62
             110
  5
248
 10
287.99263207329648
 20
-99.900235685016185
 30
0.0
  0
VERTEX
  8
LY_3
  6
CONTINUOUS
 62
             110
  5
249
 10
287.8140060574197
 20
-100.84715541078216
 30
0.0
  0
VERTEX
  8
LY_3
  6
CONTINUOUS
 62
             110
  5
24A
 10
287.6480391359886
 20
-101.79501627851653
 30
0.0
  0
VERTEX
  8
LY_3
  6
CONTINUOUS
 62
             110
  5
24B
 10
287.5095183060364
 20
-102.67578655911842
 30
0.0
  0
VERTEX
  8
LY_3
  6
CONTINUOUS
 62
             110
  5
24C
 10
287.38547765129749
 20
-103.5575935618858
 30
0.0
  0
VERTEX
  8
LY_3
  6
CONTINUOUS
 62
             110
  5
24D
 10
287.27430436795316
 20
-104.44042365338173
 30
0.0
  0
VERTEX
  8
LY_3
  6
CONTINUOUS
 62
             110
  5
24E
 10
287.17438565218464
 20
-105.32426320016926
 30
0.0
  0
VERTEX
  8
LY_3
  6
CONTINUOUS
 62
             110
  5
24F
 10
287.08410870017309
 20
-106.20909856881146
 30
0.0
  0
VERTEX
  8
LY_3
  6
CONTINUOUS
 62
             110
  5
250
 10
287.00186070809974
 20
-107.09491612587141
 30
0.0
  0
VERTEX
  8
LY_3
  6
CONTINUOUS
 62
             110
  5
251
 10
286.92602887214588
 20
-107.98170223791216
 30
0.0
  0
VERTEX
  8
LY_3
  6
CONTINUOUS
 62
             110
  5
252
 10
286.85500038849267
 20
-108.86944327149678
 30
0.0
  0
VERTEX
  8
LY_3
  6
CONTINUOUS
 62
             110
  5
253
 10
286.7871624533214
 20
-109.75812559318834
 30
0.0
  0
VERTEX
  8
LY_3
  6
CONTINUOUS
 62
             110
  5
254
 10
286.71855976916004
 20
-110.67870785435193
 30
0.0
  0
VERTEX
  8
LY_3
  6
CONTINUOUS
 62
             110
  5
255
 10
286.64962023095876
 20
-111.59980676323561
 30
0.0
  0
VERTEX
  8
LY_3
  6
CONTINUOUS
 62
             110
  5
256
 10
286.57831724577471
 20
-112.52094546447809
 30
0.0
  0
VERTEX
  8
LY_3
  6
CONTINUOUS
 62
             110
  5
257
 10
286.50262422066504
 20
-113.44164710271809
 30
0.0
  0
VERTEX
  8
LY_3
  6
CONTINUOUS
 62
             110
  5
258
 10
286.42051456268683
 20
-114.36143482259435
 30
0.0
  0
VERTEX
  8
LY_3
  6
CONTINUOUS
 62
             110
  5
259
 10
286.32996167889729
 20
-115.27983176874557
 30
0.0
  0
VERTEX
  8
LY_3
  6
CONTINUOUS
 62
             110
  5
25A
 10
286.2289389763535
 20
-116.19636108581047
 30
0.0
  0
VERTEX
  8
LY_3
  6
CONTINUOUS
 62
             110
  5
25B
 10
286.11541986211262
 20
-117.11054591842777
 30
0.0
  0
VERTEX
  8
LY_3
  6
CONTINUOUS
 62
             110
  5
25C
 10
285.98737774323178
 20
-118.02190941123621
 30
0.0
  0
VERTEX
  8
LY_3
  6
CONTINUOUS
 62
             110
  5
25D
 10
285.84278602676807
 20
-118.92997470887448
 30
0.0
  0
VERTEX
  8
LY_3
  6
CONTINUOUS
 62
             110
  5
25E
 10
285.67961811977858
 20
-119.83426495598133
 30
0.0
  0
VERTEX
  8
LY_3
  6
CONTINUOUS
 62
             110
  5
25F
 10
285.49584742932058
 20
-120.73430329719544
 30
0.0
  0
VERTEX
  8
LY_3
  6
CONTINUOUS
 62
             110
  5
260
 10
285.29318755856826
 20
-121.61982918230893
 30
0.0
  0
VERTEX
  8
LY_3
  6
CONTINUOUS
 62
             110
  5
261
 10
285.07410092706982
 20
-122.50206407701202
 30
0.0
  0
VERTEX
  8
LY_3
  6
CONTINUOUS
 62
             110
  5
262
 10
284.84428193586848
 20
-123.38233955277403
 30
0.0
  0
VERTEX
  8
LY_3
  6
CONTINUOUS
 62
             110
  5
263
 10
284.60942498600747
 20
-124.26198718106431
 30
0.0
  0
VERTEX
  8
LY_3
  6
CONTINUOUS
 62
             110
  5
264
 10
284.37522447852996
 20
-125.14233853335222
 30
0.0
  0
VERTEX
  8
LY_3
  6
CONTINUOUS
 62
             110
  5
265
 10
284.14737481447918
 20
-126.02472518110713
 30
0.0
  0
VERTEX
  8
LY_3
  6
CONTINUOUS
 62
             110
  5
266
 10
283.93157039489836
 20
-126.91047869579836
 30
0.0
  0
VERTEX
  8
LY_3
  6
CONTINUOUS
 62
             110
  5
267
 10
283.73350562083061
 20
-127.80093064889529
 30
0.0
  0
VERTEX
  8
LY_3
  6
CONTINUOUS
 62
             110
  5
268
 10
283.55887489331928
 20
-128.69741261186726
 30
0.0
  0
VERTEX
  8
LY_3
  6
CONTINUOUS
 62
             110
  5
269
 10
283.41204328371475
 20
-129.60520240978195
 30
0.0
  0
VERTEX
  8
LY_3
  6
CONTINUOUS
 62
             110
  5
26A
 10
283.29624435684565
 20
-130.51860477429813
 30
0.0
  0
VERTEX
  8
LY_3
  6
CONTINUOUS
 62
             110
  5
26B
 10
283.21309451609727
 20
-131.4357979474606
 30
0.0
  0
VERTEX
  8
LY_3
  6
CONTINUOUS
 62
             110
  5
26C
 10
283.16421016485492
 20
-132.35496017131433
 30
0.0
  0
VERTEX
  8
LY_3
  6
CONTINUOUS
 62
             110
  5
26D
 10
283.15120770650395
 20
-133.27426968790411
 30
0.0
  0
VERTEX
  8
LY_3
  6
CONTINUOUS
 62
             110
  5
26E
 10
283.17570354442967
 20
-134.19190473927483
 30
0.0
  0
VERTEX
  8
LY_3
  6
CONTINUOUS
 62
             110
  5
26F
 10
283.23931408201742
 20
-135.1060435674714
 30
0.0
  0
VERTEX
  8
LY_3
  6
CONTINUOUS
 62
             110
  5
270
 10
283.3436557226525
 20
-136.01486441453864
 30
0.0
  0
VERTEX
  8
LY_3
  6
CONTINUOUS
 62
             110
  5
271
 10
283.50239237201475
 20
-136.99278541107017
 30
0.0
  0
VERTEX
  8
LY_3
  6
CONTINUOUS
 62
             110
  5
272
 10
283.69925604540134
 20
-137.96429334948195
 30
0.0
  0
VERTEX
  8
LY_3
  6
CONTINUOUS
 62
             110
  5
273
 10
283.92259623118531
 20
-138.93136760480456
 30
0.0
  0
VERTEX
  8
LY_3
  6
CONTINUOUS
 62
             110
  5
274
 10
284.16076241773993
 20
-139.89598755206848
 30
0.0
  0
VERTEX
  8
LY_3
  6
CONTINUOUS
 62
             110
  5
275
 10
284.40210409343825
 20
-140.86013256630426
 30
0.0
  0
VERTEX
  8
LY_3
  6
CONTINUOUS
 62
             110
  5
276
 10
284.63497074665338
 20
-141.8257820225424
 30
0.0
  0
VERTEX
  8
LY_3
  6
CONTINUOUS
 62
             110
  5
277
 10
284.8379639895349
 20
-142.73331258232628
 30
0.0
  0
VERTEX
  8
LY_3
  6
CONTINUOUS
 62
             110
  5
278
 10
285.03064741691981
 20
-143.64268534169224
 30
0.0
  0
VERTEX
  8
LY_3
  6
CONTINUOUS
 62
             110
  5
279
 10
285.22038342994819
 20
-144.55268336305909
 30
0.0
  0
SEQEND
  8
LY_3
  6
CONTINUOUS
 62
             110
  5
27A
  0
LINE
  8
LY_3
  6
CENTER
 62
             110
  5
B9
 10
340.0
 20
20.0
 30
0.0
 11
340.0
 21
-220.0
 31
0.0
  0
TEXT
  8
LY_3
  6
CONTINUOUS
 62
             110
  5
BA
 10
28.716214870228796
 20
-674.0
 30
0.0
 40
8.0
  1
VP8063
 41
0.9120000088150435
  7
MX_NOTE_STANDARD
 11
28.716214870228796
 21
-666.0
 31
0.0
 73
               3
  0
LINE
  8
LY_3
  6
CONTINUOUS
 62
               3
  5
BB
 10
11.850000000000001
 20
-474.43352800000002
 30
0.0
 11
88.150000000000006
 21
-474.43352800000002
 31
0.0
  0
LINE
  8
LY_3
  6
CONTINUOUS
 62
               3
  5
BC
 10
7.0381160000000023
 20
-473.0
 30
0.0
 11
92.961883999999998
 21
-473.0
 31
0.0
  0
LINE
  8
LY_3
  6
CONTINUOUS
 62
               3
  5
BD
 10
135.566472
 20
-521.85000000000002
 30
0.0
 11
135.566472
 21
-598.14999999999998
 31
0.0
  0
LINE
  8
LY_3
  6
CONTINUOUS
 62
               3
  5
BE
 10
137.0
 20
-517.03811599999995
 30
0.0
 11
137.0
 21
-602.96188400000005
 31
0.0
  0
LINE
  8
LY_3
  6
CONTINUOUS
 62
               3
  5
BF
 10
88.150000000000006
 20
-645.56647199999998
 30
0.0
 11
11.850000000000001
 21
-645.56647199999998
 31
0.0
  0
LINE
  8
LY_3
  6
CONTINUOUS
 62
               3
  5
C0
 10
92.961883999999998
 20
-647.0
 30
0.0
 11
7.0381160000000023
 21
-647.0
 31
0.0
  0
LINE
  8
LY_3
  6
CONTINUOUS
 62
               3
  5
C1
 10
-35.566471999999997
 20
-598.14999999999998
 30
0.0
 11
-35.566471999999997
 21
-560.0
 31
0.0
  0
LINE
  8
LY_3
  6
CONTINUOUS
 62
               3
  5
C2
 10
-37.0
 20
-602.96188400000005
 30
0.0
 11
-37.0
 21
-560.0
 31
0.0
  0
POLYLINE
  8
LY_3
  6
CONTINUOUS
 62
               3
  5
C3
 66
               1
 10
0.0
 20
0.0
 30
0.0
  0
VERTEX
  8
LY_3
  6
CONTINUOUS
 62
               3
  5
27B
 10
7.9663932372859563
 20
-521.85000000000002
 30
0.0
  0
VERTEX
  8
LY_3
  6
CONTINUOUS
 62
               3
  5
27C
 10
8.10741319018517
 20
-522.78468761335409
 30
0.0
  0
VERTEX
  8
LY_3
  6
CONTINUOUS
 62
               3
  5
27D
 10
8.2320914209254941
 20
-523.72257292574068
 30
0.0
  0
VERTEX
  8
LY_3
  6
CONTINUOUS
 62
               3
  5
27E
 10
8.3395410741738178
 20
-524.66315084535984
 30
0.0
  0
VERTEX
  8
LY_3
  6
CONTINUOUS
 62
               3
  5
27F
 10
8.4288752945970256
 20
-525.60591628041209
 30
0.0
  0
VERTEX
  8
LY_3
  6
CONTINUOUS
 62
               3
  5
280
 10
8.4992072268620085
 20
-526.55036413909772
 30
0.0
  0
VERTEX
  8
LY_3
  6
CONTINUOUS
 62
               3
  5
281
 10
8.5496500156356543
 20
-527.49598932961715
 30
0.0
  0
VERTEX
  8
LY_3
  6
CONTINUOUS
 62
               3
  5
282
 10
8.5793168055848508
 20
-528.44228676017065
 30
0.0
  0
VERTEX
  8
LY_3
  6
CONTINUOUS
 62
               3
  5
283
 10
8.5873207413764856
 20
-529.38875133895851
 30
0.0
  0
VERTEX
  8
LY_3
  6
CONTINUOUS
 62
               3
  5
284
 10
8.5727749676774465
 20
-530.33487797418115
 30
0.0
  0
VERTEX
  8
LY_3
  6
CONTINUOUS
 62
               3
  5
285
 10
8.534792629154623
 20
-531.28016157403897
 30
0.0
  0
VERTEX
  8
LY_3
  6
CONTINUOUS
 62
               3
  5
286
 10
8.4731618054009346
 20
-532.22710826896935
 30
0.0
  0
VERTEX
  8
LY_3
  6
CONTINUOUS
 62
               3
  5
287
 10
8.3915915658257596
 20
-533.17286774577485
 30
0.0
  0
VERTEX
  8
LY_3
  6
CONTINUOUS
 62
               3
  5
288
 10
8.294615633324609
 20
-534.11760921165626
 30
0.0
  0
VERTEX
  8
LY_3
  6
CONTINUOUS
 62
               3
  5
289
 10
8.1867677307929885
 20
-535.06150187381411
 30
0.0
  0
VERTEX
  8
LY_3
  6
CONTINUOUS
 62
               3
  5
28A
 10
8.0725815811264106
 20
-536.00471493944917
 30
0.0
  0
VERTEX
  8
LY_3
  6
CONTINUOUS
 62
               3
  5
28B
 10
7.9565909072203818
 20
-536.94741761576233
 30
0.0
  0
VERTEX
  8
LY_3
  6
CONTINUOUS
 62
               3
  5
28C
 10
7.843329431970413
 20
-537.88977910995402
 30
0.0
  0
VERTEX
  8
LY_3
  6
CONTINUOUS
 62
               3
  5
28D
 10
7.7373308782720116
 20
-538.83196862922512
 30
0.0
  0
VERTEX
  8
LY_3
  6
CONTINUOUS
 62
               3
  5
28E
 10
7.6431289690206867
 20
-539.77415538077639
 30
0.0
  0
VERTEX
  8
LY_3
  6
CONTINUOUS
 62
               3
  5
28F
 10
7.5652574271119493
 20
-540.71650857180839
 30
0.0
  0
VERTEX
  8
LY_3
  6
CONTINUOUS
 62
               3
  5
290
 10
7.5082499754413057
 20
-541.65919740952199
 30
0.0
  0
VERTEX
  8
LY_3
  6
CONTINUOUS
 62
               3
  5
291
 10
7.4766403369042678
 20
-542.60239110111775
 30
0.0
  0
VERTEX
  8
LY_3
  6
CONTINUOUS
 62
               3
  5
292
 10
7.4778209242614189
 20
-543.78068334661191
 30
0.0
  0
VERTEX
  8
LY_3
  6
CONTINUOUS
 62
               3
  5
293
 10
7.5231167812168529
 20
-544.95933492348308
 30
0.0
  0
VERTEX
  8
LY_3
  6
CONTINUOUS
 62
               3
  5
294
 10
7.6099937225163137
 20
-546.13765461287812
 30
0.0
  0
VERTEX
  8
LY_3
  6
CONTINUOUS
 62
               3
  5
295
 10
7.7359175629055414
 20
-547.3149511959441
 30
0.0
  0
VERTEX
  8
LY_3
  6
CONTINUOUS
 62
               3
  5
296
 10
7.8983541171302774
 20
-548.49053345382811
 30
0.0
  0
VERTEX
  8
LY_3
  6
CONTINUOUS
 62
               3
  5
297
 10
8.0947691999362661
 20
-549.6637101676771
 30
0.0
  0
VERTEX
  8
LY_3
  6
CONTINUOUS
 62
               3
  5
298
 10
8.3226286260692444
 20
-550.83379011863803
 30
0.0
  0
VERTEX
  8
LY_3
  6
CONTINUOUS
 62
               3
  5
299
 10
8.5793982102749595
 20
-552.000082087858
 30
0.0
  0
VERTEX
  8
LY_3
  6
CONTINUOUS
 62
               3
  5
29A
 10
8.8625437672991509
 20
-553.16189485648397
 30
0.0
  0
VERTEX
  8
LY_3
  6
CONTINUOUS
 62
               3
  5
29B
 10
9.169531111887558
 20
-554.31853720566312
 30
0.0
  0
VERTEX
  8
LY_3
  6
CONTINUOUS
 62
               3
  5
29C
 10
9.4978260587859253
 20
-555.46931791654231
 30
0.0
  0
VERTEX
  8
LY_3
  6
CONTINUOUS
 62
               3
  5
29D
 10
9.8448944227399942
 20
-556.6135457702685
 30
0.0
  0
VERTEX
  8
LY_3
  6
CONTINUOUS
 62
               3
  5
29E
 10
10.208202018495506
 20
-557.75052954798889
 30
0.0
  0
VERTEX
  8
LY_3
  6
CONTINUOUS
 62
               3
  5
29F
 10
10.585214660798203
 20
-558.87957803085033
 30
0.0
  0
VERTEX
  8
LY_3
  6
CONTINUOUS
 62
               3
  5
2A0
 10
10.973398164393824
 20
-560.0
 30
0.0
  0
SEQEND
  8
LY_3
  6
CONTINUOUS
 62
               3
  5
2A1
  0
LINE
  8
LY_3
  6
CONTINUOUS
 62
               3
  5
C4
 10
88.150000000000006
 20
-630.0
 30
0.0
 11
11.850000000000001
 21
-630.0
 31
0.0
  0
LINE
  8
LY_3
  6
CONTINUOUS
 62
               3
  5
C5
 10
93.5
 20
-650.0
 30
0.0
 11
6.5
 21
-650.0
 31
0.0
  0
LINE
  8
LY_3
  6
CONTINUOUS
 62
               3
  5
C6
 10
93.5
 20
-648.15098999999998
 30
0.0
 11
93.5
 21
-650.0
 31
0.0
  0
LINE
  8
LY_3
  6
CONTINUOUS
 62
               3
  5
C7
 10
88.150000000000006
 20
-630.0
 30
0.0
 11
88.150000000000006
 21
-645.56647199999998
 31
0.0
  0
LINE
  8
LY_3
  6
CONTINUOUS
 62
               3
  5
C8
 10
92.388228999999995
 20
-646.70210199999997
 30
0.0
 11
88.150000000000006
 21
-645.56647199999998
 31
0.0
  0
LINE
  8
LY_3
  6
CONTINUOUS
 62
               3
  5
C9
 10
6.5
 20
-648.15098999999998
 30
0.0
 11
6.5
 21
-650.0
 31
0.0
  0
LINE
  8
LY_3
  6
CONTINUOUS
 62
               3
  5
CA
 10
11.850000000000001
 20
-630.0
 30
0.0
 11
11.850000000000001
 21
-645.56647199999998
 31
0.0
  0
LINE
  8
LY_3
  6
CONTINUOUS
 62
               3
  5
CB
 10
7.6117709999999974
 20
-646.70210199999997
 30
0.0
 11
11.850000000000001
 21
-645.56647199999998
 31
0.0
  0
LINE
  8
LY_3
  6
CENTER
 62
             110
  5
CC
 10
50.0
 20
-653.0
 30
0.0
 11
50.0
 21
-467.0
 31
0.0
  0
LINE
  8
LY_3
  6
CONTINUOUS
 62
               3
  5
CD
 10
-20.0
 20
-521.85000000000002
 30
0.0
 11
-20.0
 21
-598.14999999999998
 31
0.0
  0
LINE
  8
LY_3
  6
CONTINUOUS
 62
               3
  5
CE
 10
-40.0
 20
-516.5
 30
0.0
 11
-40.0
 21
-603.5
 31
0.0
  0
LINE
  8
LY_3
  6
CONTINUOUS
 62
               3
  5
CF
 10
-38.15099
 20
-516.5
 30
0.0
 11
-40.0
 21
-516.5
 31
0.0
  0
LINE
  8
LY_3
  6
CONTINUOUS
 62
               3
  5
D0
 10
-20.0
 20
-521.85000000000002
 30
0.0
 11
-35.566471999999997
 21
-521.85000000000002
 31
0.0
  0
LINE
  8
LY_3
  6
CONTINUOUS
 62
               3
  5
D1
 10
-20.0
 20
-524.89999999999998
 30
0.0
 11
-40.0
 21
-524.89999999999998
 31
0.0
  0
LINE
  8
LY_3
  6
CONTINUOUS
 62
               3
  5
D2
 10
-36.702101999999996
 20
-517.61177099999998
 30
0.0
 11
-35.566471999999997
 21
-521.85000000000002
 31
0.0
  0
LINE
  8
LY_3
  6
CONTINUOUS
 62
               3
  5
D3
 10
-38.15099
 20
-603.5
 30
0.0
 11
-40.0
 21
-603.5
 31
0.0
  0
LINE
  8
LY_3
  6
CONTINUOUS
 62
               3
  5
D4
 10
-20.0
 20
-598.14999999999998
 30
0.0
 11
-35.566471999999997
 21
-598.14999999999998
 31
0.0
  0
LINE
  8
LY_3
  6
CONTINUOUS
 62
               3
  5
D5
 10
-36.702101999999996
 20
-602.38822900000002
 30
0.0
 11
-35.566471999999997
 21
-598.14999999999998
 31
0.0
  0
LINE
  8
LY_3
  6
CONTINUOUS
 62
               3
  5
D6
 10
11.850000000000001
 20
-630.0
 30
0.0
 11
11.850000000000001
 21
-600.0
 31
0.0
  0
LINE
  8
LY_3
  6
CONTINUOUS
 62
               3
  5
D7
 10
88.150000000000006
 20
-630.0
 30
0.0
 11
88.150000000000006
 21
-600.0
 31
0.0
  0
LINE
  8
LY_3
  6
CONTINUOUS
 62
               3
  5
D8
 10
120.0
 20
-521.85000000000002
 30
0.0
 11
120.0
 21
-598.14999999999998
 31
0.0
  0
LINE
  8
LY_3
  6
CONTINUOUS
 62
               3
  5
D9
 10
140.0
 20
-516.5
 30
0.0
 11
140.0
 21
-603.5
 31
0.0
  0
LINE
  8
LY_3
  6
CONTINUOUS
 62
               3
  5
DA
 10
138.15099000000001
 20
-516.5
 30
0.0
 11
140.0
 21
-516.5
 31
0.0
  0
LINE
  8
LY_3
  6
CONTINUOUS
 62
               3
  5
DB
 10
120.0
 20
-521.85000000000002
 30
0.0
 11
135.566472
 21
-521.85000000000002
 31
0.0
  0
LINE
  8
LY_3
  6
CONTINUOUS
 62
               3
  5
DC
 10
136.702102
 20
-517.61177099999998
 30
0.0
 11
135.566472
 21
-521.85000000000002
 31
0.0
  0
LINE
  8
LY_3
  6
CONTINUOUS
 62
               3
  5
DD
 10
138.15099000000001
 20
-603.5
 30
0.0
 11
140.0
 21
-603.5
 31
0.0
  0
LINE
  8
LY_3
  6
CONTINUOUS
 62
               3
  5
DE
 10
120.0
 20
-598.14999999999998
 30
0.0
 11
135.566472
 21
-598.14999999999998
 31
0.0
  0
LINE
  8
LY_3
  6
CONTINUOUS
 62
               3
  5
DF
 10
136.702102
 20
-602.38822900000002
 30
0.0
 11
135.566472
 21
-598.14999999999998
 31
0.0
  0
LINE
  8
LY_3
  6
CENTER
 62
             110
  5
E0
 10
143.0
 20
-560.0
 30
0.0
 11
-43.0
 21
-560.0
 31
0.0
  0
LINE
  8
LY_3
  6
CONTINUOUS
 62
               3
  5
E1
 10
120.0
 20
-598.14999999999998
 30
0.0
 11
90.0
 21
-598.14999999999998
 31
0.0
  0
LINE
  8
LY_3
  6
CONTINUOUS
 62
               3
  5
E2
 10
88.150000000000006
 20
-600.0
 30
0.0
 11
11.850000000000001
 21
-600.0
 31
0.0
  0
LINE
  8
LY_3
  6
CONTINUOUS
 62
               3
  5
E3
 10
10.0
 20
-598.14999999999998
 30
0.0
 11
-20.0
 21
-598.14999999999998
 31
0.0
  0
LINE
  8
LY_3
  6
CONTINUOUS
 62
               3
  5
E4
 10
88.150000000000006
 20
-490.0
 30
0.0
 11
11.850000000000001
 21
-490.0
 31
0.0
  0
LINE
  8
LY_3
  6
CONTINUOUS
 62
               3
  5
E5
 10
93.5
 20
-470.0
 30
0.0
 11
6.5
 21
-470.0
 31
0.0
  0
LINE
  8
LY_3
  6
CONTINUOUS
 62
               3
  5
E6
 10
93.5
 20
-471.84901000000002
 30
0.0
 11
93.5
 21
-470.0
 31
0.0
  0
LINE
  8
LY_3
  6
CONTINUOUS
 62
               3
  5
E7
 10
88.150000000000006
 20
-490.0
 30
0.0
 11
88.150000000000006
 21
-474.43352800000002
 31
0.0
  0
LINE
  8
LY_3
  6
CONTINUOUS
 62
               3
  5
E8
 10
92.388228999999995
 20
-473.29789800000003
 30
0.0
 11
88.150000000000006
 21
-474.43352800000002
 31
0.0
  0
LINE
  8
LY_3
  6
CONTINUOUS
 62
               3
  5
E9
 10
6.5
 20
-471.84901000000002
 30
0.0
 11
6.5
 21
-470.0
 31
0.0
  0
LINE
  8
LY_3
  6
CONTINUOUS
 62
               3
  5
EA
 10
11.850000000000001
 20
-490.0
 30
0.0
 11
11.850000000000001
 21
-474.43352800000002
 31
0.0
  0
LINE
  8
LY_3
  6
CONTINUOUS
 62
               3
  5
EB
 10
7.6117709999999974
 20
-473.29789800000003
 30
0.0
 11
11.850000000000001
 21
-474.43352800000002
 31
0.0
  0
LINE
  8
LY_3
  6
CONTINUOUS
 62
               3
  5
EC
 10
11.850000000000001
 20
-490.0
 30
0.0
 11
11.850000000000001
 21
-520.0
 31
0.0
  0
LINE
  8
LY_3
  6
CONTINUOUS
 62
               3
  5
ED
 10
88.150000000000006
 20
-490.0
 30
0.0
 11
88.150000000000006
 21
-520.0
 31
0.0
  0
LINE
  8
LY_3
  6
CONTINUOUS
 62
               3
  5
EE
 10
120.0
 20
-521.85000000000002
 30
0.0
 11
90.0
 21
-521.85000000000002
 31
0.0
  0
LINE
  8
LY_3
  6
CONTINUOUS
 62
               3
  5
EF
 10
88.150000000000006
 20
-520.0
 30
0.0
 11
11.850000000000001
 21
-520.0
 31
0.0
  0
LINE
  8
LY_3
  6
CONTINUOUS
 62
               3
  5
F0
 10
10.0
 20
-521.85000000000002
 30
0.0
 11
-20.0
 21
-521.85000000000002
 31
0.0
  0
LINE
  8
LY_3
  6
CONTINUOUS
 62
               3
  5
F1
 10
8.2598160000000007
 20
-523.95000000000005
 30
0.0
 11
-20.0
 21
-523.95000000000005
 31
0.0
  0
ARC
  8
LY_3
  6
CONTINUOUS
 62
               3
  5
F2
 10
92.0
 20
-648.15098999999998
 30
0.0
 40
1.5
 50
0.0
 51
75.0
  0
ARC
  8
LY_3
  6
CONTINUOUS
 62
               3
  5
F3
 10
8.0
 20
-648.15098999999998
 30
0.0
 40
1.5
 50
105.00000000000001
 51
180.0
  0
ARC
  8
LY_3
  6
CONTINUOUS
 62
               3
  5
F4
 10
-38.15099
 20
-602.0
 30
0.0
 40
1.5
 50
270.0
 51
345.0
  0
ARC
  8
LY_3
  6
CONTINUOUS
 62
               3
  5
F5
 10
-38.15099
 20
-518.0
 30
0.0
 40
1.5
 50
14.999999999999998
 51
90.0
  0
ARC
  8
LY_3
  6
CONTINUOUS
 62
               3
  5
F6
 10
138.15099000000001
 20
-602.0
 30
0.0
 40
1.5
 50
195.0
 51
270.0
  0
ARC
  8
LY_3
  6
CONTINUOUS
 62
               3
  5
F7
 10
138.15099000000001
 20
-518.0
 30
0.0
 40
1.5
 50
90.0
 51
165.0
  0
ARC
  8
LY_3
  6
CONTINUOUS
 62
               3
  5
F8
 10
90.0
 20
-600.0
 30
0.0
 40
1.8500000000000001
 50
90.0
 51
180.0
  0
ARC
  8
LY_3
  6
CONTINUOUS
 62
               3
  5
F9
 10
10.0
 20
-600.0
 30
0.0
 40
1.8500000000000001
 50
0.0
 51
90.0
  0
ARC
  8
LY_3
  6
CONTINUOUS
 62
               3
  5
FA
 10
10.0
 20
-520.0
 30
0.0
 40
1.8500000000000001
 50
270.0
 51
0.0
  0
ARC
  8
LY_3
  6
CONTINUOUS
 62
               3
  5
FB
 10
92.0
 20
-471.84901000000002
 30
0.0
 40
1.5
 50
285.0
 51
0.0
  0
ARC
  8
LY_3
  6
CONTINUOUS
 62
               3
  5
FC
 10
8.0
 20
-471.84901000000002
 30
0.0
 40
1.5
 50
180.0
 51
255.00000000000003
  0
ARC
  8
LY_3
  6
CONTINUOUS
 62
               3
  5
FD
 10
90.0
 20
-520.0
 30
0.0
 40
1.8500000000000001
 50
180.0
 51
270.0
  0
TEXT
  8
LY_3
  6
CONTINUOUS
 62
             110
  5
FE
 10
28.749998648961384
 20
-444.0
 30
0.0
 40
8.0
  1
VP8050
 41
0.9380000233650208
  7
MX_NOTE_STANDARD
 11
28.749998648961384
 21
-436.0
 31
0.0
 73
               3
  0
LINE
  8
LY_3
  6
CONTINUOUS
 62
               3
  5
FF
 10
19.75
 20
-264.942632
 30
0.0
 11
80.25
 21
-264.942632
 31
0.0
  0
LINE
  8
LY_3
  6
CONTINUOUS
 62
               3
  5
100
 10
13.038116000000002
 20
-263.0
 30
0.0
 11
86.961883999999998
 21
-263.0
 31
0.0
  0
LINE
  8
LY_3
  6
CONTINUOUS
 62
               3
  5
101
 10
125.057368
 20
-309.75
 30
0.0
 11
125.057368
 21
-370.25
 31
0.0
  0
LINE
  8
LY_3
  6
CONTINUOUS
 62
               3
  5
102
 10
127.0
 20
-303.038116
 30
0.0
 11
127.0
 21
-376.961884
 31
0.0
  0
LINE
  8
LY_3
  6
CONTINUOUS
 62
               3
  5
103
 10
80.25
 20
-415.057368
 30
0.0
 11
19.75
 21
-415.057368
 31
0.0
  0
LINE
  8
LY_3
  6
CONTINUOUS
 62
               3
  5
104
 10
86.961883999999998
 20
-417.0
 30
0.0
 11
13.038116000000002
 21
-417.0
 31
0.0
  0
LINE
  8
LY_3
  6
CONTINUOUS
 62
               3
  5
105
 10
-25.057368
 20
-370.25
 30
0.0
 11
-25.057368
 21
-340.0
 31
0.0
  0
LINE
  8
LY_3
  6
CONTINUOUS
 62
               3
  5
106
 10
-27.0
 20
-376.961884
 30
0.0
 11
-27.0
 21
-340.0
 31
0.0
  0
POLYLINE
  8
LY_3
  6
CONTINUOUS
 62
               3
  5
107
 66
               1
 10
0.0
 20
0.0
 30
0.0
  0
VERTEX
  8
LY_3
  6
CONTINUOUS
 62
               3
  5
2A2
 10
13.919828545758968
 20
-309.9799703113041
 30
0.0
  0
VERTEX
  8
LY_3
  6
CONTINUOUS
 62
               3
  5
2A3
 10
14.10078068184688
 20
-310.86749426459721
 30
0.0
  0
VERTEX
  8
LY_3
  6
CONTINUOUS
 62
               3
  5
2A4
 10
14.245930408258578
 20
-311.7636710533551
 30
0.0
  0
VERTEX
  8
LY_3
  6
CONTINUOUS
 62
               3
  5
2A5
 10
14.349734265457396
 20
-312.6664167383509
 30
0.0
  0
VERTEX
  8
LY_3
  6
CONTINUOUS
 62
               3
  5
2A6
 10
14.406648793906664
 20
-313.57364738035778
 30
0.0
  0
VERTEX
  8
LY_3
  6
CONTINUOUS
 62
               3
  5
2A7
 10
14.411130534069715
 20
-314.48327904014883
 30
0.0
  0
VERTEX
  8
LY_3
  6
CONTINUOUS
 62
               3
  5
2A8
 10
14.357636026409882
 20
-315.39322777849725
 30
0.0
  0
VERTEX
  8
LY_3
  6
CONTINUOUS
 62
               3
  5
2A9
 10
14.240621811390497
 20
-316.30140965617619
 30
0.0
  0
VERTEX
  8
LY_3
  6
CONTINUOUS
 62
               3
  5
2AA
 10
14.047211836741997
 20
-317.25536972451266
 30
0.0
  0
VERTEX
  8
LY_3
  6
CONTINUOUS
 62
               3
  5
2AB
 10
13.800082330656881
 20
-318.20483103111906
 30
0.0
  0
VERTEX
  8
LY_3
  6
CONTINUOUS
 62
               3
  5
2AC
 10
13.522329847373793
 20
-319.14957789869442
 30
0.0
  0
VERTEX
  8
LY_3
  6
CONTINUOUS
 62
               3
  5
2AD
 10
13.237050941131388
 20
-320.08939464993767
 30
0.0
  0
VERTEX
  8
LY_3
  6
CONTINUOUS
 62
               3
  5
2AE
 10
12.967342166168315
 20
-321.02406560754793
 30
0.0
  0
VERTEX
  8
LY_3
  6
CONTINUOUS
 62
               3
  5
2AF
 10
12.736300076723222
 20
-321.95337509422416
 30
0.0
  0
VERTEX
  8
LY_3
  6
CONTINUOUS
 62
               3
  5
2B0
 10
12.567021227034761
 20
-322.87710743266541
 30
0.0
  0
VERTEX
  8
LY_3
  6
CONTINUOUS
 62
               3
  5
2B1
 10
12.482602171341581
 20
-323.79504694557068
 30
0.0
  0
VERTEX
  8
LY_3
  6
CONTINUOUS
 62
               3
  5
2B2
 10
12.506139463882334
 20
-324.70697795563899
 30
0.0
  0
VERTEX
  8
LY_3
  6
CONTINUOUS
 62
               3
  5
2B3
 10
12.645631497423427
 20
-325.58163317038623
 30
0.0
  0
VERTEX
  8
LY_3
  6
CONTINUOUS
 62
               3
  5
2B4
 10
12.884292232040561
 20
-326.45187105643726
 30
0.0
  0
VERTEX
  8
LY_3
  6
CONTINUOUS
 62
               3
  5
2B5
 10
13.199172760635584
 20
-327.31907409553077
 30
0.0
  0
VERTEX
  8
LY_3
  6
CONTINUOUS
 62
               3
  5
2B6
 10
13.567324176110331
 20
-328.18462476940545
 30
0.0
  0
VERTEX
  8
LY_3
  6
CONTINUOUS
 62
               3
  5
2B7
 10
13.965797571366647
 20
-329.04990555980004
 30
0.0
  0
VERTEX
  8
LY_3
  6
CONTINUOUS
 62
               3
  5
2B8
 10
14.37164403930637
 20
-329.91629894845329
 30
0.0
  0
VERTEX
  8
LY_3
  6
CONTINUOUS
 62
               3
  5
2B9
 10
14.761914672831342
 20
-330.78518741710383
 30
0.0
  0
VERTEX
  8
LY_3
  6
CONTINUOUS
 62
               3
  5
2BA
 10
15.113660564843403
 20
-331.6579534474904
 30
0.0
  0
VERTEX
  8
LY_3
  6
CONTINUOUS
 62
               3
  5
2BB
 10
15.403932808244395
 20
-332.53597952135175
 30
0.0
  0
VERTEX
  8
LY_3
  6
CONTINUOUS
 62
               3
  5
2BC
 10
15.609782495936157
 20
-333.42064812042656
 30
0.0
  0
VERTEX
  8
LY_3
  6
CONTINUOUS
 62
               3
  5
2BD
 10
15.708260720820533
 20
-334.31334172645359
 30
0.0
  0
VERTEX
  8
LY_3
  6
CONTINUOUS
 62
               3
  5
2BE
 10
15.678161091075992
 20
-335.27307904643652
 30
0.0
  0
VERTEX
  8
LY_3
  6
CONTINUOUS
 62
               3
  5
2BF
 10
15.525754623198109
 20
-336.23686347648101
 30
0.0
  0
VERTEX
  8
LY_3
  6
CONTINUOUS
 62
               3
  5
2C0
 10
15.276554249570111
 20
-337.19807140172333
 30
0.0
  0
VERTEX
  8
LY_3
  6
CONTINUOUS
 62
               3
  5
2C1
 10
14.956072902575229
 20
-338.15007920729977
 30
0.0
  0
VERTEX
  8
LY_3
  6
CONTINUOUS
 62
               3
  5
2C2
 10
14.58982351459669
 20
-339.08626327834656
 30
0.0
  0
VERTEX
  8
LY_3
  6
CONTINUOUS
 62
               3
  5
2C3
 10
14.203319018017723
 20
-339.99999999999994
 30
0.0
  0
SEQEND
  8
LY_3
  6
CONTINUOUS
 62
               3
  5
2C4
  0
LINE
  8
LY_3
  6
CONTINUOUS
 62
               3
  5
108
 10
80.25
 20
-400.0
 30
0.0
 11
19.75
 21
-400.0
 31
0.0
  0
LINE
  8
LY_3
  6
CONTINUOUS
 62
               3
  5
109
 10
87.5
 20
-420.0
 30
0.0
 11
12.5
 21
-420.0
 31
0.0
  0
LINE
  8
LY_3
  6
CONTINUOUS
 62
               3
  5
10A
 10
87.5
 20
-418.15098999999998
 30
0.0
 11
87.5
 21
-420.0
 31
0.0
  0
LINE
  8
LY_3
  6
CONTINUOUS
 62
               3
  5
10B
 10
80.25
 20
-400.0
 30
0.0
 11
80.25
 21
-415.057368
 31
0.0
  0
LINE
  8
LY_3
  6
CONTINUOUS
 62
               3
  5
10C
 10
86.388228999999995
 20
-416.70210199999997
 30
0.0
 11
80.25
 21
-415.057368
 31
0.0
  0
LINE
  8
LY_3
  6
CONTINUOUS
 62
               3
  5
10D
 10
12.5
 20
-418.15098999999998
 30
0.0
 11
12.5
 21
-420.0
 31
0.0
  0
LINE
  8
LY_3
  6
CONTINUOUS
 62
               3
  5
10E
 10
19.75
 20
-400.0
 30
0.0
 11
19.75
 21
-415.057368
 31
0.0
  0
LINE
  8
LY_3
  6
CONTINUOUS
 62
               3
  5
10F
 10
13.611770999999997
 20
-416.70210199999997
 30
0.0
 11
19.75
 21
-415.057368
 31
0.0
  0
LINE
  8
LY_3
  6
CENTER
 62
             110
  5
110
 10
50.0
 20
-423.0
 30
0.0
 11
50.0
 21
-257.0
 31
0.0
  0
LINE
  8
LY_3
  6
CONTINUOUS
 62
               3
  5
111
 10
-10.0
 20
-309.75
 30
0.0
 11
-10.0
 21
-370.25
 31
0.0
  0
LINE
  8
LY_3
  6
CONTINUOUS
 62
               3
  5
112
 10
-30.0
 20
-302.5
 30
0.0
 11
-30.0
 21
-377.5
 31
0.0
  0
LINE
  8
LY_3
  6
CONTINUOUS
 62
               3
  5
113
 10
-28.15099
 20
-302.5
 30
0.0
 11
-30.0
 21
-302.5
 31
0.0
  0
LINE
  8
LY_3
  6
CONTINUOUS
 62
               3
  5
114
 10
-10.0
 20
-309.75
 30
0.0
 11
-25.057368
 21
-309.75
 31
0.0
  0
LINE
  8
LY_3
  6
CONTINUOUS
 62
               3
  5
115
 10
-10.0
 20
-312.5
 30
0.0
 11
-27.5
 21
-312.5
 31
0.0
  0
LINE
  8
LY_3
  6
CONTINUOUS
 62
               3
  5
116
 10
-26.702102
 20
-303.61177099999998
 30
0.0
 11
-25.057368
 21
-309.75
 31
0.0
  0
LINE
  8
LY_3
  6
CONTINUOUS
 62
               3
  5
117
 10
-27.5
 20
-312.5
 30
0.0
 11
-27.5
 21
-340.0
 31
0.0
  0
LINE
  8
LY_3
  6
CONTINUOUS
 62
               3
  5
118
 10
-27.5
 20
-313.89999999999998
 30
0.0
 11
-30.0
 21
-313.89999999999998
 31
0.0
  0
LINE
  8
LY_3
  6
CONTINUOUS
 62
               3
  5
119
 10
-28.15099
 20
-377.5
 30
0.0
 11
-30.0
 21
-377.5
 31
0.0
  0
LINE
  8
LY_3
  6
CONTINUOUS
 62
               3
  5
11A
 10
-10.0
 20
-370.25
 30
0.0
 11
-25.057368
 21
-370.25
 31
0.0
  0
LINE
  8
LY_3
  6
CONTINUOUS
 62
               3
  5
11B
 10
-26.702102
 20
-376.38822900000002
 30
0.0
 11
-25.057368
 21
-370.25
 31
0.0
  0
LINE
  8
LY_3
  6
CONTINUOUS
 62
               3
  5
11C
 10
19.75
 20
-400.0
 30
0.0
 11
19.75
 21
-375.05000000000001
 31
0.0
  0
LINE
  8
LY_3
  6
CONTINUOUS
 62
               3
  5
11D
 10
80.25
 20
-400.0
 30
0.0
 11
80.25
 21
-375.05000000000001
 31
0.0
  0
LINE
  8
LY_3
  6
CONTINUOUS
 62
               3
  5
11E
 10
110.0
 20
-309.75
 30
0.0
 11
110.0
 21
-370.25
 31
0.0
  0
LINE
  8
LY_3
  6
CONTINUOUS
 62
               3
  5
11F
 10
130.0
 20
-302.5
 30
0.0
 11
130.0
 21
-377.5
 31
0.0
  0
LINE
  8
LY_3
  6
CONTINUOUS
 62
               3
  5
120
 10
128.15099000000001
 20
-302.5
 30
0.0
 11
130.0
 21
-302.5
 31
0.0
  0
LINE
  8
LY_3
  6
CONTINUOUS
 62
               3
  5
121
 10
110.0
 20
-309.75
 30
0.0
 11
125.057368
 21
-309.75
 31
0.0
  0
LINE
  8
LY_3
  6
CONTINUOUS
 62
               3
  5
122
 10
126.702102
 20
-303.61177099999998
 30
0.0
 11
125.057368
 21
-309.75
 31
0.0
  0
LINE
  8
LY_3
  6
CONTINUOUS
 62
               3
  5
123
 10
128.15099000000001
 20
-377.5
 30
0.0
 11
130.0
 21
-377.5
 31
0.0
  0
LINE
  8
LY_3
  6
CONTINUOUS
 62
               3
  5
124
 10
110.0
 20
-370.25
 30
0.0
 11
125.057368
 21
-370.25
 31
0.0
  0
LINE
  8
LY_3
  6
CONTINUOUS
 62
               3
  5
125
 10
126.702102
 20
-376.38822900000002
 30
0.0
 11
125.057368
 21
-370.25
 31
0.0
  0
LINE
  8
LY_3
  6
CENTER
 62
             110
  5
126
 10
133.0
 20
-340.0
 30
0.0
 11
-33.0
 21
-340.0
 31
0.0
  0
LINE
  8
LY_3
  6
CONTINUOUS
 62
               3
  5
127
 10
110.0
 20
-370.25
 30
0.0
 11
85.049999999999997
 21
-370.25
 31
0.0
  0
LINE
  8
LY_3
  6
CONTINUOUS
 62
               3
  5
128
 10
80.25
 20
-375.05000000000001
 30
0.0
 11
19.75
 21
-375.05000000000001
 31
0.0
  0
LINE
  8
LY_3
  6
CONTINUOUS
 62
               3
  5
129
 10
14.950000000000003
 20
-370.25
 30
0.0
 11
-10.0
 21
-370.25
 31
0.0
  0
LINE
  8
LY_3
  6
CONTINUOUS
 62
               3
  5
12A
 10
80.25
 20
-280.0
 30
0.0
 11
19.75
 21
-280.0
 31
0.0
  0
LINE
  8
LY_3
  6
CONTINUOUS
 62
               3
  5
12B
 10
87.5
 20
-260.0
 30
0.0
 11
12.5
 21
-260.0
 31
0.0
  0
LINE
  8
LY_3
  6
CONTINUOUS
 62
               3
  5
12C
 10
87.5
 20
-261.84901000000002
 30
0.0
 11
87.5
 21
-260.0
 31
0.0
  0
LINE
  8
LY_3
  6
CONTINUOUS
 62
               3
  5
12D
 10
80.25
 20
-280.0
 30
0.0
 11
80.25
 21
-264.942632
 31
0.0
  0
LINE
  8
LY_3
  6
CONTINUOUS
 62
               3
  5
12E
 10
86.388228999999995
 20
-263.29789800000003
 30
0.0
 11
80.25
 21
-264.942632
 31
0.0
  0
LINE
  8
LY_3
  6
CONTINUOUS
 62
               3
  5
12F
 10
12.5
 20
-261.84901000000002
 30
0.0
 11
12.5
 21
-260.0
 31
0.0
  0
LINE
  8
LY_3
  6
CONTINUOUS
 62
               3
  5
130
 10
19.75
 20
-280.0
 30
0.0
 11
19.75
 21
-264.942632
 31
0.0
  0
LINE
  8
LY_3
  6
CONTINUOUS
 62
               3
  5
131
 10
13.611770999999997
 20
-263.29789800000003
 30
0.0
 11
19.75
 21
-264.942632
 31
0.0
  0
LINE
  8
LY_3
  6
CONTINUOUS
 62
               3
  5
132
 10
19.75
 20
-280.0
 30
0.0
 11
19.75
 21
-304.94999999999999
 31
0.0
  0
LINE
  8
LY_3
  6
CONTINUOUS
 62
               3
  5
133
 10
80.25
 20
-280.0
 30
0.0
 11
80.25
 21
-304.94999999999999
 31
0.0
  0
LINE
  8
LY_3
  6
CONTINUOUS
 62
               3
  5
134
 10
110.0
 20
-309.75
 30
0.0
 11
85.049999999999997
 21
-309.75
 31
0.0
  0
LINE
  8
LY_3
  6
CONTINUOUS
 62
               3
  5
135
 10
80.25
 20
-304.94999999999999
 30
0.0
 11
19.75
 21
-304.94999999999999
 31
0.0
  0
LINE
  8
LY_3
  6
CONTINUOUS
 62
               3
  5
136
 10
14.950000000000003
 20
-309.75
 30
0.0
 11
-10.0
 21
-309.75
 31
0.0
  0
LINE
  8
LY_3
  6
CONTINUOUS
 62
               3
  5
137
 10
14.244633
 20
-311.75
 30
0.0
 11
-10.0
 21
-311.75
 31
0.0
  0
ARC
  8
LY_3
  6
CONTINUOUS
 62
               3
  5
138
 10
86.0
 20
-418.15098999999998
 30
0.0
 40
1.5
 50
0.0
 51
75.0
  0
ARC
  8
LY_3
  6
CONTINUOUS
 62
               3
  5
139
 10
14.0
 20
-418.15098999999998
 30
0.0
 40
1.5
 50
105.00000000000001
 51
180.0
  0
ARC
  8
LY_3
  6
CONTINUOUS
 62
               3
  5
13A
 10
-28.15099
 20
-376.0
 30
0.0
 40
1.5
 50
270.0
 51
345.0
  0
ARC
  8
LY_3
  6
CONTINUOUS
 62
               3
  5
13B
 10
-28.15099
 20
-304.0
 30
0.0
 40
1.5
 50
14.999999999999998
 51
90.0
  0
ARC
  8
LY_3
  6
CONTINUOUS
 62
               3
  5
13C
 10
128.15099000000001
 20
-376.0
 30
0.0
 40
1.5
 50
195.0
 51
270.0
  0
ARC
  8
LY_3
  6
CONTINUOUS
 62
               3
  5
13D
 10
128.15099000000001
 20
-304.0
 30
0.0
 40
1.5
 50
90.0
 51
165.0
  0
ARC
  8
LY_3
  6
CONTINUOUS
 62
               3
  5
13E
 10
85.049999999999997
 20
-375.05000000000001
 30
0.0
 40
4.7999999999999998
 50
90.0
 51
180.0
  0
ARC
  8
LY_3
  6
CONTINUOUS
 62
               3
  5
13F
 10
14.950000000000003
 20
-375.05000000000001
 30
0.0
 40
4.7999999999999998
 50
0.0
 51
90.0
  0
ARC
  8
LY_3
  6
CONTINUOUS
 62
               3
  5
140
 10
14.950000000000003
 20
-304.94999999999999
 30
0.0
 40
4.7999999999999998
 50
270.0
 51
0.0
  0
ARC
  8
LY_3
  6
CONTINUOUS
 62
               3
  5
141
 10
86.0
 20
-261.84901000000002
 30
0.0
 40
1.5
 50
285.0
 51
0.0
  0
ARC
  8
LY_3
  6
CONTINUOUS
 62
               3
  5
142
 10
14.0
 20
-261.84901000000002
 30
0.0
 40
1.5
 50
180.0
 51
255.00000000000003
  0
ARC
  8
LY_3
  6
CONTINUOUS
 62
               3
  5
143
 10
85.049999999999997
 20
-304.94999999999999
 30
0.0
 40
4.7999999999999998
 50
180.0
 51
270.0
  0
TEXT
  8
LY_3
  6
CONTINUOUS
 62
             110
  5
144
 10
28.749998648961384
 20
-234.0
 30
0.0
 40
8.0
  1
VP8040
 41
0.9380000233650208
  7
MX_NOTE_STANDARD
 11
28.749998648961384
 21
-226.0
 31
0.0
 73
               3
  0
LINE
  8
LY_3
  6
CENTER
 62
             110
  5
145
 10
22.786602999999999
 20
-150.0
 30
0.0
 11
118.0
 21
-150.0
 31
0.0
  0
LINE
  8
LY_3
  6
CONTINUOUS
 62
               3
  5
146
 10
28.649999999999999
 20
-89.647887999999995
 30
0.0
 11
71.349999999999994
 21
-89.647887999999995
 31
0.0
  0
LINE
  8
LY_3
  6
CONTINUOUS
 62
               3
  5
147
 10
23.038116000000002
 20
-88.0
 30
0.0
 11
76.961883999999998
 21
-88.0
 31
0.0
  0
LINE
  8
LY_3
  6
CONTINUOUS
 62
               3
  5
148
 10
110.35211200000001
 20
-128.65000000000001
 30
0.0
 11
110.35211200000001
 21
-171.34999999999999
 31
0.0
  0
LINE
  8
LY_3
  6
CONTINUOUS
 62
               3
  5
149
 10
112.0
 20
-123.038116
 30
0.0
 11
112.0
 21
-176.961884
 31
0.0
  0
LINE
  8
LY_3
  6
CONTINUOUS
 62
               3
  5
14A
 10
71.349999999999994
 20
-210.35211200000001
 30
0.0
 11
28.649999999999999
 21
-210.35211200000001
 31
0.0
  0
LINE
  8
LY_3
  6
CONTINUOUS
 62
               3
  5
14B
 10
76.961883999999998
 20
-212.0
 30
0.0
 11
23.038116000000002
 21
-212.0
 31
0.0
  0
LINE
  8
LY_3
  6
CONTINUOUS
 62
               3
  5
14C
 10
-10.352112
 20
-171.34999999999999
 30
0.0
 11
-10.352112
 21
-150.0
 31
0.0
  0
POLYLINE
  8
LY_3
  6
CONTINUOUS
 62
               3
  5
14D
 66
               1
 10
0.0
 20
0.0
 30
0.0
  0
VERTEX
  8
LY_3
  6
CONTINUOUS
 62
               3
  5
2C5
 10
24.415616976056555
 20
-128.8846564931514
 30
0.0
  0
VERTEX
  8
LY_3
  6
CONTINUOUS
 62
               3
  5
2C6
 10
24.764467957125667
 20
-129.72988106466084
 30
0.0
  0
VERTEX
  8
LY_3
  6
CONTINUOUS
 62
               3
  5
2C7
 10
25.078324145641414
 20
-130.60265904724901
 30
0.0
  0
VERTEX
  8
LY_3
  6
CONTINUOUS
 62
               3
  5
2C8
 10
25.350861861666051
 20
-131.49710104610082
 30
0.0
  0
VERTEX
  8
LY_3
  6
CONTINUOUS
 62
               3
  5
2C9
 10
25.575757425261827
 20
-132.40731766640127
 30
0.0
  0
VERTEX
  8
LY_3
  6
CONTINUOUS
 62
               3
  5
2CA
 10
25.746687156490996
 20
-133.32741951333526
 30
0.0
  0
VERTEX
  8
LY_3
  6
CONTINUOUS
 62
               3
  5
2CB
 10
25.857327375415807
 20
-134.25151719208776
 30
0.0
  0
VERTEX
  8
LY_3
  6
CONTINUOUS
 62
               3
  5
2CC
 10
25.901354402098516
 20
-135.17372130784369
 30
0.0
  0
VERTEX
  8
LY_3
  6
CONTINUOUS
 62
               3
  5
2CD
 10
25.872444556601369
 20
-136.08814246578805
 30
0.0
  0
VERTEX
  8
LY_3
  6
CONTINUOUS
 62
               3
  5
2CE
 10
25.764274158986623
 20
-136.98889127110573
 30
0.0
  0
VERTEX
  8
LY_3
  6
CONTINUOUS
 62
               3
  5
2CF
 10
25.570519529316527
 20
-137.87007832898172
 30
0.0
  0
VERTEX
  8
LY_3
  6
CONTINUOUS
 62
               3
  5
2D0
 10
25.285088625411461
 20
-138.7444268212609
 30
0.0
  0
VERTEX
  8
LY_3
  6
CONTINUOUS
 62
               3
  5
2D1
 10
24.937231307653246
 20
-139.60150102087101
 30
0.0
  0
VERTEX
  8
LY_3
  6
CONTINUOUS
 62
               3
  5
2D2
 10
24.559971070135898
 20
-140.45045862704521
 30
0.0
  0
VERTEX
  8
LY_3
  6
CONTINUOUS
 62
               3
  5
2D3
 10
24.186331406953439
 20
-141.30045733901676
 30
0.0
  0
VERTEX
  8
LY_3
  6
CONTINUOUS
 62
               3
  5
2D4
 10
23.84933581219989
 20
-142.16065485601882
 30
0.0
  0
VERTEX
  8
LY_3
  6
CONTINUOUS
 62
               3
  5
2D5
 10
23.582007779969274
 20
-143.04020887728461
 30
0.0
  0
VERTEX
  8
LY_3
  6
CONTINUOUS
 62
               3
  5
2D6
 10
23.400756504751428
 20
-144.02071067438837
 30
0.0
  0
VERTEX
  8
LY_3
  6
CONTINUOUS
 62
               3
  5
2D7
 10
23.329593961308078
 20
-145.02380228738065
 30
0.0
  0
VERTEX
  8
LY_3
  6
CONTINUOUS
 62
               3
  5
2D8
 10
23.358347722848222
 20
-146.03868064224233
 30
0.0
  0
VERTEX
  8
LY_3
  6
CONTINUOUS
 62
               3
  5
2D9
 10
23.476845362580864
 20
-147.05454266495425
 30
0.0
  0
VERTEX
  8
LY_3
  6
CONTINUOUS
 62
               3
  5
2DA
 10
23.674914453715012
 20
-148.06058528149728
 30
0.0
  0
VERTEX
  8
LY_3
  6
CONTINUOUS
 62
               3
  5
2DB
 10
23.94238256945966
 20
-149.04600541785226
 30
0.0
  0
VERTEX
  8
LY_3
  6
CONTINUOUS
 62
               3
  5
2DC
 10
24.269077283023819
 20
-150.0
 30
0.0
  0
SEQEND
  8
LY_3
  6
CONTINUOUS
 62
               3
  5
2DD
  0
ARC
  8
LY_3
  6
CONTINUOUS
 62
               3
  5
14E
 10
-13.15099
 20
-176.0
 30
0.0
 40
1.5
 50
270.0
 51
345.0
  0
LINE
  8
LY_3
  6
CONTINUOUS
 62
               3
  5
14F
 10
-12.0
 20
-176.961884
 30
0.0
 11
-12.0
 21
-150.0
 31
0.0
  0
LINE
  8
LY_3
  6
CENTER
 62
             110
  5
150
 10
50.0
 20
-82.0
 30
0.0
 11
50.0
 21
-218.0
 31
0.0
  0
LINE
  8
LY_3
  6
CONTINUOUS
 62
               3
  5
151
 10
71.349999999999994
 20
-195.0
 30
0.0
 11
28.649999999999999
 21
-195.0
 31
0.0
  0
LINE
  8
LY_3
  6
CONTINUOUS
 62
               3
  5
152
 10
77.5
 20
-215.0
 30
0.0
 11
22.5
 21
-215.0
 31
0.0
  0
LINE
  8
LY_3
  6
CONTINUOUS
 62
               3
  5
153
 10
77.5
 20
-213.15099000000001
 30
0.0
 11
77.5
 21
-215.0
 31
0.0
  0
LINE
  8
LY_3
  6
CONTINUOUS
 62
               3
  5
154
 10
71.349999999999994
 20
-195.0
 30
0.0
 11
71.349999999999994
 21
-210.35211200000001
 31
0.0
  0
LINE
  8
LY_3
  6
CONTINUOUS
 62
               3
  5
155
 10
76.388228999999995
 20
-211.702102
 30
0.0
 11
71.349999999999994
 21
-210.35211200000001
 31
0.0
  0
LINE
  8
LY_3
  6
CONTINUOUS
 62
               3
  5
156
 10
22.5
 20
-213.15099000000001
 30
0.0
 11
22.5
 21
-215.0
 31
0.0
  0
LINE
  8
LY_3
  6
CONTINUOUS
 62
               3
  5
157
 10
28.649999999999999
 20
-195.0
 30
0.0
 11
28.649999999999999
 21
-210.35211200000001
 31
0.0
  0
LINE
  8
LY_3
  6
CONTINUOUS
 62
               3
  5
158
 10
23.611770999999997
 20
-211.702102
 30
0.0
 11
28.649999999999999
 21
-210.35211200000001
 31
0.0
  0
LINE
  8
LY_3
  6
CONTINUOUS
 62
               3
  5
159
 10
5.0
 20
-128.65000000000001
 30
0.0
 11
5.0
 21
-171.34999999999999
 31
0.0
  0
LINE
  8
LY_3
  6
CONTINUOUS
 62
               3
  5
15A
 10
-15.0
 20
-122.5
 30
0.0
 11
-15.0
 21
-177.5
 31
0.0
  0
LINE
  8
LY_3
  6
CONTINUOUS
 62
               3
  5
15B
 10
-13.15099
 20
-122.5
 30
0.0
 11
-15.0
 21
-122.5
 31
0.0
  0
LINE
  8
LY_3
  6
CONTINUOUS
 62
               3
  5
15C
 10
5.0
 20
-128.65000000000001
 30
0.0
 11
-10.352112
 21
-128.65000000000001
 31
0.0
  0
LINE
  8
LY_3
  6
CONTINUOUS
 62
               3
  5
15D
 10
5.0
 20
-130.5
 30
0.0
 11
-12.5
 21
-130.5
 31
0.0
  0
LINE
  8
LY_3
  6
CONTINUOUS
 62
               3
  5
15E
 10
-11.702102
 20
-123.611771
 30
0.0
 11
-10.352112
 21
-128.65000000000001
 31
0.0
  0
LINE
  8
LY_3
  6
CONTINUOUS
 62
               3
  5
15F
 10
-12.5
 20
-129.40000000000001
 30
0.0
 11
-12.5
 21
-150.0
 31
0.0
  0
LINE
  8
LY_3
  6
CONTINUOUS
 62
               3
  5
160
 10
-12.5
 20
-129.40000000000001
 30
0.0
 11
-15.0
 21
-129.40000000000001
 31
0.0
  0
LINE
  8
LY_3
  6
CONTINUOUS
 62
               3
  5
161
 10
-13.15099
 20
-177.5
 30
0.0
 11
-15.0
 21
-177.5
 31
0.0
  0
LINE
  8
LY_3
  6
CONTINUOUS
 62
               3
  5
162
 10
5.0
 20
-171.34999999999999
 30
0.0
 11
-10.352112
 21
-171.34999999999999
 31
0.0
  0
LINE
  8
LY_3
  6
CONTINUOUS
 62
               3
  5
163
 10
-11.702102
 20
-176.388229
 30
0.0
 11
-10.352112
 21
-171.34999999999999
 31
0.0
  0
LINE
  8
LY_3
  6
CONTINUOUS
 62
               3
  5
164
 10
71.349999999999994
 20
-175.05000000000001
 30
0.0
 11
71.349999999999994
 21
-195.0
 31
0.0
  0
LINE
  8
LY_3
  6
CONTINUOUS
 62
               3
  5
165
 10
28.649999999999999
 20
-175.05000000000001
 30
0.0
 11
28.649999999999999
 21
-195.0
 31
0.0
  0
LINE
  8
LY_3
  6
CENTER
 62
             110
  5
166
 10
-18.0
 20
-150.0
 30
0.0
 11
9.0658719999999988
 21
-150.0
 31
0.0
  0
LINE
  8
LY_3
  6
CONTINUOUS
 62
               3
  5
167
 10
95.0
 20
-128.65000000000001
 30
0.0
 11
95.0
 21
-171.34999999999999
 31
0.0
  0
LINE
  8
LY_3
  6
CONTINUOUS
 62
               3
  5
168
 10
115.0
 20
-122.5
 30
0.0
 11
115.0
 21
-177.5
 31
0.0
  0
LINE
  8
LY_3
  6
CONTINUOUS
 62
               3
  5
169
 10
113.15099000000001
 20
-122.5
 30
0.0
 11
115.0
 21
-122.5
 31
0.0
  0
LINE
  8
LY_3
  6
CONTINUOUS
 62
               3
  5
16A
 10
95.0
 20
-128.65000000000001
 30
0.0
 11
110.35211200000001
 21
-128.65000000000001
 31
0.0
  0
LINE
  8
LY_3
  6
CONTINUOUS
 62
               3
  5
16B
 10
111.702102
 20
-123.611771
 30
0.0
 11
110.35211200000001
 21
-128.65000000000001
 31
0.0
  0
LINE
  8
LY_3
  6
CONTINUOUS
 62
               3
  5
16C
 10
113.15099000000001
 20
-177.5
 30
0.0
 11
115.0
 21
-177.5
 31
0.0
  0
LINE
  8
LY_3
  6
CONTINUOUS
 62
               3
  5
16D
 10
95.0
 20
-171.34999999999999
 30
0.0
 11
110.35211200000001
 21
-171.34999999999999
 31
0.0
  0
LINE
  8
LY_3
  6
CONTINUOUS
 62
               3
  5
16E
 10
111.702102
 20
-176.388229
 30
0.0
 11
110.35211200000001
 21
-171.34999999999999
 31
0.0
  0
LINE
  8
LY_3
  6
CONTINUOUS
 62
               3
  5
16F
 10
5.0
 20
-171.34999999999999
 30
0.0
 11
24.950000000000003
 21
-171.34999999999999
 31
0.0
  0
LINE
  8
LY_3
  6
CONTINUOUS
 62
               3
  5
170
 10
28.649999999999999
 20
-175.05000000000001
 30
0.0
 11
71.349999999999994
 21
-175.05000000000001
 31
0.0
  0
LINE
  8
LY_3
  6
CONTINUOUS
 62
               3
  5
171
 10
75.049999999999997
 20
-171.34999999999999
 30
0.0
 11
95.0
 21
-171.34999999999999
 31
0.0
  0
LINE
  8
LY_3
  6
CONTINUOUS
 62
               3
  5
172
 10
71.349999999999994
 20
-105.0
 30
0.0
 11
28.649999999999999
 21
-105.0
 31
0.0
  0
LINE
  8
LY_3
  6
CONTINUOUS
 62
               3
  5
173
 10
77.5
 20
-85.0
 30
0.0
 11
22.5
 21
-85.0
 31
0.0
  0
LINE
  8
LY_3
  6
CONTINUOUS
 62
               3
  5
174
 10
77.5
 20
-86.849009999999993
 30
0.0
 11
77.5
 21
-85.0
 31
0.0
  0
LINE
  8
LY_3
  6
CONTINUOUS
 62
               3
  5
175
 10
71.349999999999994
 20
-105.0
 30
0.0
 11
71.349999999999994
 21
-89.647887999999995
 31
0.0
  0
LINE
  8
LY_3
  6
CONTINUOUS
 62
               3
  5
176
 10
76.388228999999995
 20
-88.297898000000004
 30
0.0
 11
71.349999999999994
 21
-89.647887999999995
 31
0.0
  0
LINE
  8
LY_3
  6
CONTINUOUS
 62
               3
  5
177
 10
22.5
 20
-86.849009999999993
 30
0.0
 11
22.5
 21
-85.0
 31
0.0
  0
LINE
  8
LY_3
  6
CONTINUOUS
 62
               3
  5
178
 10
28.649999999999999
 20
-105.0
 30
0.0
 11
28.649999999999999
 21
-89.647887999999995
 31
0.0
  0
LINE
  8
LY_3
  6
CONTINUOUS
 62
               3
  5
179
 10
23.611770999999997
 20
-88.297898000000004
 30
0.0
 11
28.649999999999999
 21
-89.647887999999995
 31
0.0
  0
LINE
  8
LY_3
  6
CONTINUOUS
 62
               3
  5
17A
 10
71.349999999999994
 20
-124.94999999999999
 30
0.0
 11
71.349999999999994
 21
-105.0
 31
0.0
  0
LINE
  8
LY_3
  6
CONTINUOUS
 62
               3
  5
17B
 10
28.649999999999999
 20
-124.94999999999999
 30
0.0
 11
28.649999999999999
 21
-105.0
 31
0.0
  0
LINE
  8
LY_3
  6
CONTINUOUS
 62
               3
  5
17C
 10
5.0
 20
-128.65000000000001
 30
0.0
 11
24.950000000000003
 21
-128.65000000000001
 31
0.0
  0
LINE
  8
LY_3
  6
CONTINUOUS
 62
               3
  5
17D
 10
5.0
 20
-130.65000000000001
 30
0.0
 11
24.950000000000003
 21
-130.65000000000001
 31
0.0
  0
LINE
  8
LY_3
  6
CONTINUOUS
 62
               3
  5
17E
 10
28.649999999999999
 20
-124.94999999999999
 30
0.0
 11
71.349999999999994
 21
-124.94999999999999
 31
0.0
  0
LINE
  8
LY_3
  6
CONTINUOUS
 62
               3
  5
17F
 10
75.049999999999997
 20
-128.65000000000001
 30
0.0
 11
95.0
 21
-128.65000000000001
 31
0.0
  0
ARC
  8
LY_3
  6
CONTINUOUS
 62
               3
  5
180
 10
76.0
 20
-213.15099000000001
 30
0.0
 40
1.5
 50
0.0
 51
75.0
  0
ARC
  8
LY_3
  6
CONTINUOUS
 62
               3
  5
181
 10
24.0
 20
-213.15099000000001
 30
0.0
 40
1.5
 50
105.00000000000001
 51
180.0
  0
ARC
  8
LY_3
  6
CONTINUOUS
 62
               3
  5
182
 10
-13.15099
 20
-124.0
 30
0.0
 40
1.5
 50
14.999999999999998
 51
90.0
  0
ARC
  8
LY_3
  6
CONTINUOUS
 62
               3
  5
183
 10
113.15099000000001
 20
-124.0
 30
0.0
 40
1.5
 50
90.0
 51
165.0
  0
ARC
  8
LY_3
  6
CONTINUOUS
 62
               3
  5
184
 10
113.15099000000001
 20
-176.0
 30
0.0
 40
1.5
 50
195.0
 51
270.0
  0
ARC
  8
LY_3
  6
CONTINUOUS
 62
               3
  5
185
 10
75.049999999999997
 20
-175.05000000000001
 30
0.0
 40
3.7000000000000002
 50
90.0
 51
180.0
  0
ARC
  8
LY_3
  6
CONTINUOUS
 62
               3
  5
186
 10
24.950000000000003
 20
-175.05000000000001
 30
0.0
 40
3.7000000000000002
 50
0.0
 51
90.0
  0
ARC
  8
LY_3
  6
CONTINUOUS
 62
               3
  5
187
 10
24.950000000000003
 20
-124.94999999999999
 30
0.0
 40
3.7000000000000002
 50
270.0
 51
0.0
  0
ARC
  8
LY_3
  6
CONTINUOUS
 62
               3
  5
188
 10
76.0
 20
-86.849009999999993
 30
0.0
 40
1.5
 50
285.0
 51
0.0
  0
ARC
  8
LY_3
  6
CONTINUOUS
 62
               3
  5
189
 10
24.0
 20
-86.849009999999993
 30
0.0
 40
1.5
 50
180.0
 51
255.00000000000003
  0
ARC
  8
LY_3
  6
CONTINUOUS
 62
               3
  5
18A
 10
75.049999999999997
 20
-124.94999999999999
 30
0.0
 40
3.7000000000000002
 50
180.0
 51
270.0
  0
ARC
  8
LY_3
  6
CONTINUOUS
 62
               3
  5
18B
 10
24.950000000000003
 20
-124.94999999999999
 30
0.0
 40
5.7000000000000002
 50
270.0
 51
271.48181099999999
  0
TEXT
  8
LY_3
  6
CONTINUOUS
 62
             110
  5
18C
 10
28.716214870228796
 20
-64.0
 30
0.0
 40
8.0
  1
VP8025
 41
0.9120000088150435
  7
MX_NOTE_STANDARD
 11
28.716214870228796
 21
-56.0
 31
0.0
 73
               3
  0
LINE
  8
LY_3
  6
CENTER
 62
             110
  5
18D
 10
-5.0
 20
0.0
 30
0.0
 11
105.0
 21
0.0
 31
0.0
  0
LINE
  8
LY_3
  6
CENTER
 62
             110
  5
18E
 10
50.0
 20
55.0
 30
0.0
 11
50.0
 21
-55.0
 31
0.0
  0
LINE
  8
LY_3
  6
CONTINUOUS
 62
               3
  5
18F
 10
0.0
 20
13.1
 30
0.0
 11
2.5
 21
13.1
 31
0.0
  0
LINE
  8
LY_3
  6
CONTINUOUS
 62
               3
  5
190
 10
2.5
 20
13.099997999999999
 30
0.0
 11
2.5
 21
0.0
 31
0.0
  0
LINE
  8
LY_3
  6
CONTINUOUS
 62
               3
  5
191
 10
2.5
 20
12.0
 30
0.0
 11
20.0
 21
12.0
 31
0.0
  0
LINE
  8
LY_3
  6
CONTINUOUS
 62
               3
  5
192
 10
0.0
 20
-20.0
 30
0.0
 11
1.84901
 21
-20.0
 31
0.0
  0
LINE
  8
LY_3
  6
CONTINUOUS
 62
               3
  5
193
 10
3.0
 20
0.0
 30
0.0
 11
3.0
 21
-19.461884000000001
 31
0.0
  0
LINE
  8
LY_3
  6
CONTINUOUS
 62
               3
  5
194
 10
0.0
 20
20.0
 30
0.0
 11
0.0
 21
-20.0
 31
0.0
  0
LINE
  8
LY_3
  6
CONTINUOUS
 62
               3
  5
195
 10
20.0
 20
13.599997999999999
 30
0.0
 11
20.0
 21
-13.599997999999999
 31
0.0
  0
POLYLINE
  8
LY_3
  6
CONTINUOUS
 62
             110
  5
196
 66
               1
 10
0.0
 20
0.0
 30
0.0
  0
VERTEX
  8
LY_3
  6
CONTINUOUS
 62
             110
  5
2DE
 10
35.536261215515161
 20
13.779465092816041
 30
0.0
  0
VERTEX
  8
LY_3
  6
CONTINUOUS
 62
             110
  5
2DF
 10
35.287910067114488
 20
12.824092987779794
 30
0.0
  0
VERTEX
  8
LY_3
  6
CONTINUOUS
 62
             110
  5
2E0
 10
35.174624453955985
 20
11.828866197716104
 30
0.0
  0
VERTEX
  8
LY_3
  6
CONTINUOUS
 62
             110
  5
2E1
 10
35.224758711521524
 20
10.839072963468098
 30
0.0
  0
VERTEX
  8
LY_3
  6
CONTINUOUS
 62
             110
  5
2E2
 10
35.466667175292969
 20
9.9000015258789062
 30
0.0
  0
VERTEX
  8
LY_3
  6
CONTINUOUS
 62
             110
  5
2E3
 10
35.884643574778174
 20
9.0817418431070145
 30
0.0
  0
VERTEX
  8
LY_3
  6
CONTINUOUS
 62
             110
  5
2E4
 10
36.424775351225861
 20
8.3183216021289148
 30
0.0
  0
VERTEX
  8
LY_3
  6
CONTINUOUS
 62
             110
  5
2E5
 10
37.009252210401655
 20
7.5773643324195739
 30
0.0
  0
VERTEX
  8
LY_3
  6
CONTINUOUS
 62
             110
  5
2E6
 10
37.56026385807116
 20
6.8264935634539565
 30
0.0
  0
VERTEX
  8
LY_3
  6
CONTINUOUS
 62
             110
  5
2E7
 10
38.0
 20
6.0333328247070313
 30
0.0
  0
VERTEX
  8
LY_3
  6
CONTINUOUS
 62
             110
  5
2E8
 10
38.255900430355524
 20
5.2317996424693876
 30
0.0
  0
VERTEX
  8
LY_3
  6
CONTINUOUS
 62
             110
  5
2E9
 10
38.3681231368816
 20
4.3818704581201384
 30
0.0
  0
VERTEX
  8
LY_3
  6
CONTINUOUS
 62
             110
  5
2EA
 10
38.35839221069552
 20
3.5004633478333642
 30
0.0
  0
VERTEX
  8
LY_3
  6
CONTINUOUS
 62
             110
  5
2EB
 10
38.24843174291459
 20
2.6044963877831422
 30
0.0
  0
VERTEX
  8
LY_3
  6
CONTINUOUS
 62
             110
  5
2EC
 10
38.059965824656111
 20
1.7108876541435523
 30
0.0
  0
VERTEX
  8
LY_3
  6
CONTINUOUS
 62
             110
  5
2ED
 10
37.814718547037359
 20
0.8365552230886735
 30
0.0
  0
VERTEX
  8
LY_3
  6
CONTINUOUS
 62
             110
  5
2EE
 10
37.534414001175648
 20
-0.0015828292074165
 30
0.0
  0
SEQEND
  8
LY_3
  6
CONTINUOUS
 62
             110
  5
2EF
  0
LINE
  8
LY_3
  6
CONTINUOUS
 62
               3
  5
197
 10
20.0
 20
11.5
 30
0.0
 11
35.148482000000001
 21
11.5
 31
0.0
  0
LINE
  8
LY_3
  6
CONTINUOUS
 62
               3
  5
198
 10
4.7148750000000001
 20
-13.6
 30
0.0
 11
20.0
 21
-13.6
 31
0.0
  0
LINE
  8
LY_3
  6
CONTINUOUS
 62
               3
  5
199
 10
3.297898
 20
-18.888228999999999
 30
0.0
 11
4.7148750000000001
 21
-13.6
 31
0.0
  0
ARC
  8
LY_3
  6
CONTINUOUS
 62
               3
  5
19A
 10
1.84901
 20
-18.5
 30
0.0
 40
1.5
 50
270.0
 51
345.0
  0
LINE
  8
LY_3
  6
CONTINUOUS
 62
               3
  5
19B
 10
4.7148750000000001
 20
-13.6
 30
0.0
 11
4.7148750000000001
 21
0.0
 31
0.0
  0
LINE
  8
LY_3
  6
CONTINUOUS
 62
               3
  5
19C
 10
20.0
 20
-13.6
 30
0.0
 11
34.799999999999997
 21
-13.6
 31
0.0
  0
LINE
  8
LY_3
  6
CONTINUOUS
 62
               3
  5
19D
 10
20.0
 20
13.6
 30
0.0
 11
34.799999999999997
 21
13.6
 31
0.0
  0
LINE
  8
LY_3
  6
CONTINUOUS
 62
               3
  5
19E
 10
4.7148750000000001
 20
13.6
 30
0.0
 11
20.0
 21
13.6
 31
0.0
  0
LINE
  8
LY_3
  6
CONTINUOUS
 62
               3
  5
19F
 10
20.0
 20
-13.6
 30
0.0
 11
20.0
 21
13.6
 31
0.0
  0
LINE
  8
LY_3
  6
CONTINUOUS
 62
               3
  5
1A0
 10
0.0
 20
-20.0
 30
0.0
 11
0.0
 21
20.0
 31
0.0
  0
ARC
  8
LY_3
  6
CONTINUOUS
 62
               3
  5
1A1
 10
1.84901
 20
18.5
 30
0.0
 40
1.5
 50
14.999999999999998
 51
90.0
  0
LINE
  8
LY_3
  6
CONTINUOUS
 62
               3
  5
1A2
 10
3.297898
 20
18.888228999999999
 30
0.0
 11
4.7148750000000001
 21
13.6
 31
0.0
  0
LINE
  8
LY_3
  6
CONTINUOUS
 62
               3
  5
1A3
 10
0.0
 20
20.0
 30
0.0
 11
1.84901
 21
20.0
 31
0.0
  0
LINE
  8
LY_3
  6
CONTINUOUS
 62
               3
  5
1A4
 10
30.538115999999999
 20
-47.0
 30
0.0
 11
69.461883999999998
 21
-47.0
 31
0.0
  0
LINE
  8
LY_3
  6
CONTINUOUS
 62
               3
  5
1A5
 10
30.0
 20
-50.0
 30
0.0
 11
70.0
 21
-50.0
 31
0.0
  0
LINE
  8
LY_3
  6
CONTINUOUS
 62
               3
  5
1A6
 10
63.600000000000001
 20
-45.285125000000001
 30
0.0
 11
63.600000000000001
 21
-30.0
 31
0.0
  0
LINE
  8
LY_3
  6
CONTINUOUS
 62
               3
  5
1A7
 10
63.600000000000001
 20
-45.285125000000001
 30
0.0
 11
36.399999999999999
 21
-45.285125000000001
 31
0.0
  0
LINE
  8
LY_3
  6
CONTINUOUS
 62
               3
  5
1A8
 10
70.0
 20
-50.0
 30
0.0
 11
30.0
 21
-50.0
 31
0.0
  0
ARC
  8
LY_3
  6
CONTINUOUS
 62
               3
  5
1A9
 10
68.5
 20
-48.15099
 30
0.0
 40
1.5
 50
0.0
 51
75.0
  0
LINE
  8
LY_3
  6
CONTINUOUS
 62
               3
  5
1AA
 10
68.888228999999995
 20
-46.702101999999996
 30
0.0
 11
63.600000000000001
 21
-45.285125000000001
 31
0.0
  0
LINE
  8
LY_3
  6
CONTINUOUS
 62
               3
  5
1AB
 10
70.0
 20
-50.0
 30
0.0
 11
70.0
 21
-48.15099
 31
0.0
  0
LINE
  8
LY_3
  6
CONTINUOUS
 62
               3
  5
1AC
 10
36.399999999999999
 20
-45.285125000000001
 30
0.0
 11
36.399999999999999
 21
-30.0
 31
0.0
  0
LINE
  8
LY_3
  6
CONTINUOUS
 62
               3
  5
1AD
 10
31.111771000000001
 20
-46.702101999999996
 30
0.0
 11
36.399999999999999
 21
-45.285125000000001
 31
0.0
  0
LINE
  8
LY_3
  6
CONTINUOUS
 62
               3
  5
1AE
 10
30.0
 20
-50.0
 30
0.0
 11
30.0
 21
-48.15099
 31
0.0
  0
ARC
  8
LY_3
  6
CONTINUOUS
 62
               3
  5
1AF
 10
31.5
 20
-48.15099
 30
0.0
 40
1.5
 50
105.00000000000001
 51
180.0
  0
LINE
  8
LY_3
  6
CONTINUOUS
 62
               3
  5
1B0
 10
36.399999999999999
 20
-30.0
 30
0.0
 11
36.399999999999999
 21
-15.199999999999999
 31
0.0
  0
LINE
  8
LY_3
  6
CONTINUOUS
 62
               3
  5
1B1
 10
63.600000000000001
 20
-30.0
 30
0.0
 11
63.600000000000001
 21
-15.199999999999999
 31
0.0
  0
LINE
  8
LY_3
  6
CONTINUOUS
 62
               3
  5
1B2
 10
36.400002000000001
 20
-30.0
 30
0.0
 11
63.599997999999999
 21
-30.0
 31
0.0
  0
LINE
  8
LY_3
  6
CONTINUOUS
 62
               3
  5
1B3
 10
63.600000000000001
 20
-30.0
 30
0.0
 11
36.399999999999999
 21
-30.0
 31
0.0
  0
LINE
  8
LY_3
  6
CONTINUOUS
 62
               3
  5
1B4
 10
97.0
 20
-19.461884000000001
 30
0.0
 11
97.0
 21
19.461884000000001
 31
0.0
  0
LINE
  8
LY_3
  6
CONTINUOUS
 62
               3
  5
1B5
 10
100.0
 20
-20.0
 30
0.0
 11
100.0
 21
20.0
 31
0.0
  0
LINE
  8
LY_3
  6
CONTINUOUS
 62
               3
  5
1B6
 10
95.285124999999994
 20
13.6
 30
0.0
 11
80.0
 21
13.6
 31
0.0
  0
LINE
  8
LY_3
  6
CONTINUOUS
 62
               3
  5
1B7
 10
95.285124999999994
 20
13.6
 30
0.0
 11
95.285124999999994
 21
-13.6
 31
0.0
  0
LINE
  8
LY_3
  6
CONTINUOUS
 62
               3
  5
1B8
 10
100.0
 20
20.0
 30
0.0
 11
100.0
 21
-20.0
 31
0.0
  0
ARC
  8
LY_3
  6
CONTINUOUS
 62
               3
  5
1B9
 10
98.150989999999993
 20
18.5
 30
0.0
 40
1.5
 50
90.0
 51
165.0
  0
LINE
  8
LY_3
  6
CONTINUOUS
 62
               3
  5
1BA
 10
96.702101999999996
 20
18.888228999999999
 30
0.0
 11
95.285124999999994
 21
13.6
 31
0.0
  0
LINE
  8
LY_3
  6
CONTINUOUS
 62
               3
  5
1BB
 10
100.0
 20
20.0
 30
0.0
 11
98.150989999999993
 21
20.0
 31
0.0
  0
LINE
  8
LY_3
  6
CONTINUOUS
 62
               3
  5
1BC
 10
95.285124999999994
 20
-13.6
 30
0.0
 11
80.0
 21
-13.6
 31
0.0
  0
LINE
  8
LY_3
  6
CONTINUOUS
 62
               3
  5
1BD
 10
96.702101999999996
 20
-18.888228999999999
 30
0.0
 11
95.285124999999994
 21
-13.6
 31
0.0
  0
LINE
  8
LY_3
  6
CONTINUOUS
 62
               3
  5
1BE
 10
100.0
 20
-20.0
 30
0.0
 11
98.150989999999993
 21
-20.0
 31
0.0
  0
ARC
  8
LY_3
  6
CONTINUOUS
 62
               3
  5
1BF
 10
98.150989999999993
 20
-18.5
 30
0.0
 40
1.5
 50
195.0
 51
270.0
  0
LINE
  8
LY_3
  6
CONTINUOUS
 62
               3
  5
1C0
 10
80.0
 20
-13.6
 30
0.0
 11
65.200000000000003
 21
-13.6
 31
0.0
  0
LINE
  8
LY_3
  6
CONTINUOUS
 62
               3
  5
1C1
 10
80.0
 20
13.6
 30
0.0
 11
65.200000000000003
 21
13.6
 31
0.0
  0
LINE
  8
LY_3
  6
CONTINUOUS
 62
               3
  5
1C2
 10
80.0
 20
-13.599997999999999
 30
0.0
 11
80.0
 21
13.599997999999999
 31
0.0
  0
LINE
  8
LY_3
  6
CONTINUOUS
 62
               3
  5
1C3
 10
80.0
 20
13.6
 30
0.0
 11
80.0
 21
-13.6
 31
0.0
  0
LINE
  8
LY_3
  6
CONTINUOUS
 62
               3
  5
1C4
 10
69.461883999999998
 20
47.0
 30
0.0
 11
30.538115999999999
 21
47.0
 31
0.0
  0
LINE
  8
LY_3
  6
CONTINUOUS
 62
               3
  5
1C5
 10
70.0
 20
50.0
 30
0.0
 11
30.0
 21
50.0
 31
0.0
  0
LINE
  8
LY_3
  6
CONTINUOUS
 62
               3
  5
1C6
 10
36.399999999999999
 20
45.285125000000001
 30
0.0
 11
36.399999999999999
 21
30.0
 31
0.0
  0
LINE
  8
LY_3
  6
CONTINUOUS
 62
               3
  5
1C7
 10
36.399999999999999
 20
45.285125000000001
 30
0.0
 11
63.600000000000001
 21
45.285125000000001
 31
0.0
  0
LINE
  8
LY_3
  6
CONTINUOUS
 62
               3
  5
1C8
 10
30.0
 20
50.0
 30
0.0
 11
70.0
 21
50.0
 31
0.0
  0
ARC
  8
LY_3
  6
CONTINUOUS
 62
               3
  5
1C9
 10
31.5
 20
48.15099
 30
0.0
 40
1.5
 50
180.0
 51
255.00000000000003
  0
LINE
  8
LY_3
  6
CONTINUOUS
 62
               3
  5
1CA
 10
31.111771000000001
 20
46.702101999999996
 30
0.0
 11
36.399999999999999
 21
45.285125000000001
 31
0.0
  0
LINE
  8
LY_3
  6
CONTINUOUS
 62
               3
  5
1CB
 10
30.0
 20
50.0
 30
0.0
 11
30.0
 21
48.15099
 31
0.0
  0
LINE
  8
LY_3
  6
CONTINUOUS
 62
               3
  5
1CC
 10
63.600000000000001
 20
45.285125000000001
 30
0.0
 11
63.600000000000001
 21
30.0
 31
0.0
  0
LINE
  8
LY_3
  6
CONTINUOUS
 62
               3
  5
1CD
 10
68.888228999999995
 20
46.702101999999996
 30
0.0
 11
63.600000000000001
 21
45.285125000000001
 31
0.0
  0
LINE
  8
LY_3
  6
CONTINUOUS
 62
               3
  5
1CE
 10
70.0
 20
50.0
 30
0.0
 11
70.0
 21
48.15099
 31
0.0
  0
ARC
  8
LY_3
  6
CONTINUOUS
 62
               3
  5
1CF
 10
68.5
 20
48.15099
 30
0.0
 40
1.5
 50
285.0
 51
0.0
  0
LINE
  8
LY_3
  6
CONTINUOUS
 62
               3
  5
1D0
 10
63.600000000000001
 20
30.0
 30
0.0
 11
63.600000000000001
 21
15.199999999999999
 31
0.0
  0
LINE
  8
LY_3
  6
CONTINUOUS
 62
               3
  5
1D1
 10
36.399999999999999
 20
30.0
 30
0.0
 11
36.399999999999999
 21
15.199999999999999
 31
0.0
  0
LINE
  8
LY_3
  6
CONTINUOUS
 62
               3
  5
1D2
 10
63.599997999999999
 20
30.0
 30
0.0
 11
36.400002000000001
 21
30.0
 31
0.0
  0
LINE
  8
LY_3
  6
CONTINUOUS
 62
               3
  5
1D3
 10
36.399999999999999
 20
30.0
 30
0.0
 11
63.600000000000001
 21
30.0
 31
0.0
  0
ARC
  8
LY_3
  6
CONTINUOUS
 62
               3
  5
1D4
 10
34.799999999999997
 20
15.199999999999999
 30
0.0
 40
1.6000000000000001
 50
270.0
 51
0.0
  0
ARC
  8
LY_3
  6
CONTINUOUS
 62
               3
  5
1D5
 10
65.200000000000003
 20
15.199999999999999
 30
0.0
 40
1.6000000000000001
 50
180.0
 51
270.0
  0
ARC
  8
LY_3
  6
CONTINUOUS
 62
               3
  5
1D6
 10
65.200000000000003
 20
-15.199999999999999
 30
0.0
 40
1.6000000000000001
 50
90.0
 51
180.0
  0
ARC
  8
LY_3
  6
CONTINUOUS
 62
               3
  5
1D7
 10
34.799999999999997
 20
-15.199999999999999
 30
0.0
 40
1.6000000000000001
 50
0.0
 51
90.0
  0
LINE
  8
LY_3
  6
CONTINUOUS
 62
               3
  5
1D8
 10
36.399999999999999
 20
-15.199999999999999
 30
0.0
 11
63.600000000000001
 21
-15.199999999999999
 31
0.0
  0
LINE
  8
LY_3
  6
CONTINUOUS
 62
               3
  5
1D9
 10
65.200000000000003
 20
-13.6
 30
0.0
 11
65.200000000000003
 21
13.6
 31
0.0
  0
LINE
  8
LY_3
  6
CONTINUOUS
 62
               3
  5
1DA
 10
36.399999999999999
 20
15.199999999999999
 30
0.0
 11
63.600000000000001
 21
15.199999999999999
 31
0.0
  0
ENDSEC
  0
EOF
