  0
SECTION
  2
HEADER
  9
$ACADVER
  1
AC1009
  9
$DWGCODEPAGE
  3
dos932
  9
$INSBASE
 10
0.0
 20
0.0
 30
0.0
  9
$EXTMIN
 10
-46.752943000000002
 20
-546.00000047683716
 30
0.0
  9
$EXTMAX
 10
435.83602999999999
 20
20.0
 30
0.0
  9
$LIMMIN
 10
-46.752943000000002
 20
-546.00000047683716
  9
$LIMMAX
 10
435.83602999999999
 20
20.0
  9
$ORTHOMODE
 70
               0
  9
$REGENMODE
 70
               1
  9
$FILLMODE
 70
               1
  9
$QTEXTMODE
 70
               0
  9
$MIRRTEXT
 70
               1
  9
$DRAGMODE
 70
               2
  9
$LTSCALE
 40
1.0
  9
$OSMODE
 70
               0
  9
$ATTMODE
 70
               1
  9
$TEXTSIZE
 40
3.2000000476837158
  9
$TRACEWID
 40
0.05
  9
$TEXTSTYLE
  7
MX_NOTE_STANDARD
  9
$CLAYER
  8
LY_3
  9
$CELTYPE
  6
CONTINUOUS
  9
$CECOLOR
 62
             256
  9
$DIMSCALE
 40
1.0
  9
$DIMASZ
 40
2.5
  9
$DIMEXO
 40
2.0
  9
$DIMDLI
 40
3.75
  9
$DIMRND
 40
0.0
  9
$DIMDLE
 40
0.0
  9
$DIMEXE
 40
1.0
  9
$DIMTP
 40
0.0
  9
$DIMTM
 40
0.0
  9
$DIMTXT
 40
4.1655998229980469
  9
$DIMCEN
 40
2.5
  9
$DIMTSZ
 40
0.0
  9
$DIMTOL
 70
               0
  9
$DIMLIM
 70
               0
  9
$DIMTIH
 70
               0
  9
$DIMTOH
 70
               0
  9
$DIMSE1
 70
               0
  9
$DIMSE2
 70
               0
  9
$DIMTAD
 70
               1
  9
$DIMZIN
 70
               8
  9
$DIMBLK
  1

  9
$DIMASO
 70
               1
  9
$DIMSHO
 70
               1
  9
$DIMPOST
  1

  9
$DIMAPOST
  1

  9
$DIMALT
 70
               0
  9
$DIMALTD
 70
               4
  9
$DIMALTF
 40
0.03937007874016
  9
$DIMLFAC
 40
1.0
  9
$DIMTOFL
 70
               1
  9
$DIMTVP
 40
0.0
  9
$DIMTIX
 70
               0
  9
$DIMSOXD
 70
               0
  9
$DIMSAH
 70
               1
  9
$DIMBLK1
  1
_OPEN30
  9
$DIMBLK2
  1
_OPEN30
  9
$DIMSTYLE
  2
MXDIMSTYLE
  9
$DIMCLRD
 70
               0
  9
$DIMCLRE
 70
               0
  9
$DIMCLRT
 70
               0
  9
$DIMTFAC
 40
1.0
  9
$DIMGAP
 40
1.0
  9
$LUNITS
 70
               2
  9
$LUPREC
 70
               4
  9
$AXISMODE
 70
               0
  9
$AXISUNIT
 10
0.0
 20
0.0
  9
$SKETCHINC
 40
0.1
  9
$FILLETRAD
 40
0.0
  9
$AUNITS
 70
               0
  9
$AUPREC
 70
               0
  9
$MENU
  1
acad
  9
$ELEVATION
 40
0.0
  9
$PELEVATION
 40
0.0
  9
$THICKNESS
 40
0.0
  9
$LIMCHECK
 70
               0
  9
$BLIPMODE
 70
               1
  9
$CHAMFERA
 40
0.0
  9
$CHAMFERB
 40
0.0
  9
$SKPOLY
 70
               0
  9
$TDCREATE
 40
2455163.528576389
  9
$TDUPDATE
 40
2455163.528576389
  9
$TDINDWG
 40
0.0000000000
  9
$TDUSRTIMER
 40
0.0000000000
  9
$USRTIMER
 70
               1
  9
$ANGBASE
 50
0.0
  9
$ANGDIR
 70
               0
  9
$PDMODE
 70
               0
  9
$PDSIZE
 40
0.0
  9
$PLINEWID
 40
0.0
  9
$COORDS
 70
               1
  9
$SPLFRAME
 70
               0
  9
$SPLINETYPE
 70
               6
  9
$SPLINESEGS
 70
               8
  9
$ATTDIA
 70
               0
  9
$ATTREQ
 70
               1
  9
$HANDLING
 70
               1
  9
$HANDSEED
  5
27C
  9
$SURFTAB1
 70
               6
  9
$SURFTAB2
 70
               6
  9
$SURFTYPE
 70
               6
  9
$SURFU
 70
               6
  9
$SURFV
 70
               6
  9
$UCSNAME
  2

  9
$UCSORG
 10
0.0
 20
0.0
 30
0.0
  9
$UCSXDIR
 10
1.0
 20
0.0
 30
0.0
  9
$UCSYDIR
 10
0.0
 20
1.0
 30
0.0
  9
$PUCSNAME
  2

  9
$PUCSORG
 10
0.0
 20
0.0
 30
0.0
  9
$PUCSXDIR
 10
1.0
 20
0.0
 30
0.0
  9
$PUCSYDIR
 10
0.0
 20
1.0
 30
0.0
  9
$USERI1
 70
               0
  9
$USERI2
 70
               0
  9
$USERI3
 70
               0
  9
$USERI4
 70
               0
  9
$USERI5
 70
               0
  9
$USERR1
 40
0.0
  9
$USERR2
 40
0.0
  9
$USERR3
 40
0.0
  9
$USERR4
 40
0.0
  9
$USERR5
 40
0.0
  9
$WORLDVIEW
 70
               1
  9
$SHADEDGE
 70
               3
  9
$SHADEDIF
 70
              70
  9
$TILEMODE
 70
               1
  9
$MAXACTVP
 70
              16
  9
$PINSBASE
 10
0.0
 20
0.0
 30
0.0
  9
$PLIMCHECK
 70
               0
  9
$PEXTMIN
 10
1.0000000000000000E+20
 20
1.0000000000000000E+20
 30
1.0000000000000000E+20
  9
$PEXTMAX
 10
-1.0000000000000000E+20
 20
-1.0000000000000000E+20
 30
-1.0000000000000000E+20
  9
$PLIMMIN
 10
0.0
 20
0.0
  9
$PLIMMAX
 10
12.0
 20
9.0
  9
$UNITMODE
 70
               0
  9
$VISRETAIN
 70
               0
  9
$PLINEGEN
 70
               1
  9
$PSLTSCALE
 70
               0
  9
$TREEDEPTH
 70
            3020
  0
ENDSEC
  0
SECTION
  2
TABLES
  0
TABLE
  2
VPORT
 70
               1
  0
VPORT
  2
*ACTIVE
 70
               0
 10
0.0
 20
0.0
 11
1.0
 21
1.0
 12
194.54154349999999
 22
-263.00000023841858
 13
0.0
 23
0.0
 14
1.0
 24
1.0
 15
0.0
 25
0.0
 16
0.0
 26
0.0
 36
1.0
 17
0.0
 27
0.0
 37
0.0
 40
571.66000048160549
 41
1.7320508075688772
 42
50.0
 43
0.0
 44
0.0
 50
0.0
 51
0.0
 71
               0
 72
             100
 73
               1
 74
               1
 75
               0
 76
               0
 77
               0
 78
               0
  0
ENDTAB
  0
TABLE
  2
LTYPE
 70
               2
  0
LTYPE
  2
CONTINUOUS
 70
              64
  3
Solid line
 72
              65
 73
               0
 40
0.0
  0
LTYPE
  2
CENTER
 70
              64
  3
Center ____ _ ____ _ ____ _ ____ _ ____ _ ____
 72
              65
 73
               4
 40
50.800000000000004
 49
31.75
 49
-6.3499999999999996
 49
6.3499999999999996
 49
-6.3499999999999996
  0
ENDTAB
  0
TABLE
  2
LAYER
 70
               3
  0
LAYER
  2
0
 70
               0
 62
               7
  6
CONTINUOUS
  0
LAYER
  2
DEFPOINTS
 70
               0
 62
               7
  6
CONTINUOUS
  0
LAYER
  2
LY_3
 70
               0
 62
               7
  6
CONTINUOUS
  0
ENDTAB
  0
TABLE
  2
STYLE
 70
               1
  0
STYLE
  2
MX_NOTE_STANDARD
 70
               0
 40
0.0
 41
1.0
 50
0.0
 71
               0
 42
3.2000000476837158
  3
txt.shx
  4
extfont.shx
  0
ENDTAB
  0
TABLE
  2
VIEW
 70
               0
  0
ENDTAB
  0
TABLE
  2
UCS
 70
               0
  0
ENDTAB
  0
TABLE
  2
APPID
 70
               1
  0
APPID
  2
ACAD
 70
               0
  0
ENDTAB
  0
TABLE
  2
DIMSTYLE
 70
               1
  0
DIMSTYLE
  2
MXDIMSTYLE
 70
               0
  3

  4

  5

  6
_OPEN30
  7
_OPEN30
 40
1.0
 41
2.5
 42
2.0
 43
3.75
 44
1.0
 45
0.0
 46
0.0
 47
0.0
 48
0.0
 71
               0
 72
               0
 73
               0
 74
               0
 75
               0
 76
               0
 77
               1
 78
               8
140
4.1655998229980469
141
2.5
142
0.0
143
0.03937007874016
144
1.0
145
0.0
146
1.0
147
1.0
170
               0
171
               4
172
               1
173
               1
174
               0
175
               0
176
               0
177
               0
178
               0
  0
ENDTAB
  0
ENDSEC
  0
SECTION
  2
BLOCKS
  0
BLOCK
  8
0
  6
BYBLOCK
 62
               0
  5
20
  2
_OPEN30
 70
               2
 10
0.0
 20
0.0
 30
0.0
  3
_OPEN30
  0
LINE
  8
0
  6
BYBLOCK
 62
               0
  5
21
 10
-1.0
 20
0.267949
 30
0.0
 11
0.0
 21
0.0
 31
0.0
  0
LINE
  8
0
  6
BYBLOCK
 62
               0
  5
22
 10
0.0
 20
0.0
 30
0.0
 11
-1.0
 21
-0.267949
 31
0.0
  0
LINE
  8
0
  6
BYBLOCK
 62
               0
  5
23
 10
0.0
 20
0.0
 30
0.0
 11
-1.0
 21
0.0
 31
0.0
  0
ENDBLK
  8
0
  6
BYBLOCK
 62
               0
  5
24
  0
ENDSEC
  0
SECTION
  2
ENTITIES
  0
LINE
  8
LY_3
  6
CONTINUOUS
 62
               3
  5
25
 10
190.0
 20
-33.0
 30
0.0
 11
190.0
 21
-147.0
 31
0.0
  0
TEXT
  8
LY_3
  6
CONTINUOUS
 62
             110
  5
26
 10
278.82352806079319
 20
-514.0
 30
0.0
 40
8.0
  1
VP7100
 41
0.9929999709374764
  7
MX_NOTE_STANDARD
 11
278.82352806079319
 21
-506.0
 31
0.0
 73
               3
  0
ARC
  8
LY_3
  6
CONTINUOUS
 62
               3
  5
27
 10
413.05031099999997
 20
-294.5
 30
0.0
 40
1.5
 50
90.0
 51
160.0
  0
ARC
  8
LY_3
  6
CONTINUOUS
 62
               3
  5
28
 10
413.05031099999997
 20
-425.5
 30
0.0
 40
1.5
 50
200.0
 51
270.0
  0
ARC
  8
LY_3
  6
CONTINUOUS
 62
               3
  5
29
 10
365.5
 20
-473.05031099999997
 30
0.0
 40
1.5
 50
0.0
 51
70.0
  0
ARC
  8
LY_3
  6
CONTINUOUS
 62
               3
  5
2A
 10
234.5
 20
-473.05031099999997
 30
0.0
 40
1.5
 50
110.0
 51
180.0
  0
ARC
  8
LY_3
  6
CONTINUOUS
 62
               3
  5
2B
 10
186.94968900000001
 20
-425.5
 30
0.0
 40
1.5
 50
270.0
 51
340.0
  0
ARC
  8
LY_3
  6
CONTINUOUS
 62
               3
  5
2C
 10
186.94968900000001
 20
-294.5
 30
0.0
 40
1.5
 50
20.0
 51
90.0
  0
LINE
  8
LY_3
  6
CONTINUOUS
 62
               3
  5
2D
 10
409.08823799999999
 20
-301.0
 30
0.0
 11
411.64077199999997
 21
-293.98696999999999
 31
0.0
  0
LINE
  8
LY_3
  6
CONTINUOUS
 62
               3
  5
2E
 10
411.64077199999997
 20
-426.01303000000001
 30
0.0
 11
409.08823799999999
 21
-419.0
 31
0.0
  0
LINE
  8
LY_3
  6
CONTINUOUS
 62
               3
  5
2F
 10
233.98696999999999
 20
-471.64077199999997
 30
0.0
 11
241.0
 21
-469.08823799999999
 31
0.0
  0
LINE
  8
LY_3
  6
CONTINUOUS
 62
               3
  5
30
 10
359.0
 20
-469.08823799999999
 30
0.0
 11
366.01302999999996
 21
-471.64077199999997
 31
0.0
  0
LINE
  8
LY_3
  6
CONTINUOUS
 62
               3
  5
31
 10
188.359228
 20
-426.01303000000001
 30
0.0
 11
190.91176200000001
 21
-419.0
 31
0.0
  0
LINE
  8
LY_3
  6
CONTINUOUS
 62
               3
  5
32
 10
190.91176200000001
 20
-301.0
 30
0.0
 11
188.359228
 21
-293.98696999999999
 31
0.0
  0
LINE
  8
LY_3
  6
CONTINUOUS
 62
               3
  5
33
 10
233.429091
 20
-472.0
 30
0.0
 11
366.57090900000003
 21
-472.0
 31
0.0
  0
LINE
  8
LY_3
  6
CONTINUOUS
 62
               3
  5
34
 10
412.0
 20
-427.0
 30
0.0
 11
412.0
 21
-293.0
 31
0.0
  0
POLYLINE
  8
LY_3
  6
CONTINUOUS
 62
               3
  5
35
 66
               1
 10
0.0
 20
0.0
 30
0.0
  0
VERTEX
  8
LY_3
  6
CONTINUOUS
 62
               3
  5
161
 10
241.85039963835357
 20
-304.94999999999999
 30
0.0
  0
VERTEX
  8
LY_3
  6
CONTINUOUS
 62
               3
  5
162
 10
242.04963383823807
 20
-306.42961788681424
 30
0.0
  0
VERTEX
  8
LY_3
  6
CONTINUOUS
 62
               3
  5
163
 10
242.23158475438811
 20
-307.9131801826461
 30
0.0
  0
VERTEX
  8
LY_3
  6
CONTINUOUS
 62
               3
  5
164
 10
242.39375338012934
 20
-309.40018192514111
 30
0.0
  0
VERTEX
  8
LY_3
  6
CONTINUOUS
 62
               3
  5
165
 10
242.53364070878732
 20
-310.89011815194488
 30
0.0
  0
VERTEX
  8
LY_3
  6
CONTINUOUS
 62
               3
  5
166
 10
242.64874773368763
 20
-312.38248390070305
 30
0.0
  0
VERTEX
  8
LY_3
  6
CONTINUOUS
 62
               3
  5
167
 10
242.73657544815592
 20
-313.87677420906113
 30
0.0
  0
VERTEX
  8
LY_3
  6
CONTINUOUS
 62
               3
  5
168
 10
242.79462484551772
 20
-315.3724841146647
 30
0.0
  0
VERTEX
  8
LY_3
  6
CONTINUOUS
 62
               3
  5
169
 10
242.8203969190987
 20
-316.86910865515944
 30
0.0
  0
VERTEX
  8
LY_3
  6
CONTINUOUS
 62
               3
  5
16A
 10
242.81139266222436
 20
-318.36614286819082
 30
0.0
  0
VERTEX
  8
LY_3
  6
CONTINUOUS
 62
               3
  5
16B
 10
242.76511306822039
 20
-319.86308179140451
 30
0.0
  0
VERTEX
  8
LY_3
  6
CONTINUOUS
 62
               3
  5
16C
 10
242.67905913041236
 20
-321.35942046244611
 30
0.0
  0
VERTEX
  8
LY_3
  6
CONTINUOUS
 62
               3
  5
16D
 10
242.5507318421258
 20
-322.85465391896116
 30
0.0
  0
VERTEX
  8
LY_3
  6
CONTINUOUS
 62
               3
  5
16E
 10
242.37763219668639
 20
-324.34827719859521
 30
0.0
  0
VERTEX
  8
LY_3
  6
CONTINUOUS
 62
               3
  5
16F
 10
242.15726118741969
 20
-325.83978533899392
 30
0.0
  0
VERTEX
  8
LY_3
  6
CONTINUOUS
 62
               3
  5
170
 10
241.88711980765129
 20
-327.32867337780289
 30
0.0
  0
VERTEX
  8
LY_3
  6
CONTINUOUS
 62
               3
  5
171
 10
241.46825748735705
 20
-329.22994794120012
 30
0.0
  0
VERTEX
  8
LY_3
  6
CONTINUOUS
 62
               3
  5
172
 10
240.97965326805291
 20
-331.12600335894149
 30
0.0
  0
VERTEX
  8
LY_3
  6
CONTINUOUS
 62
               3
  5
173
 10
240.43720040159675
 20
-333.01674041097169
 30
0.0
  0
VERTEX
  8
LY_3
  6
CONTINUOUS
 62
               3
  5
174
 10
239.85679213984645
 20
-334.90205987723544
 30
0.0
  0
VERTEX
  8
LY_3
  6
CONTINUOUS
 62
               3
  5
175
 10
239.2543217346599
 20
-336.7818625376774
 30
0.0
  0
VERTEX
  8
LY_3
  6
CONTINUOUS
 62
               3
  5
176
 10
238.64568243789495
 20
-338.65604917224243
 30
0.0
  0
VERTEX
  8
LY_3
  6
CONTINUOUS
 62
               3
  5
177
 10
238.04676750140953
 20
-340.52452056087509
 30
0.0
  0
VERTEX
  8
LY_3
  6
CONTINUOUS
 62
               3
  5
178
 10
237.47347017706153
 20
-342.38717748352025
 30
0.0
  0
VERTEX
  8
LY_3
  6
CONTINUOUS
 62
               3
  5
179
 10
236.94168371670881
 20
-344.2439207201225
 30
0.0
  0
VERTEX
  8
LY_3
  6
CONTINUOUS
 62
               3
  5
17A
 10
236.46730137220925
 20
-346.09465105062662
 30
0.0
  0
VERTEX
  8
LY_3
  6
CONTINUOUS
 62
               3
  5
17B
 10
236.06621639542075
 20
-347.93926925497738
 30
0.0
  0
VERTEX
  8
LY_3
  6
CONTINUOUS
 62
               3
  5
17C
 10
235.75432203820122
 20
-349.77767611311941
 30
0.0
  0
VERTEX
  8
LY_3
  6
CONTINUOUS
 62
               3
  5
17D
 10
235.54751155240851
 20
-351.6097724049975
 30
0.0
  0
VERTEX
  8
LY_3
  6
CONTINUOUS
 62
               3
  5
17E
 10
235.46167818990051
 20
-353.43545891055635
 30
0.0
  0
VERTEX
  8
LY_3
  6
CONTINUOUS
 62
               3
  5
17F
 10
235.51271520253511
 20
-355.25463640974067
 30
0.0
  0
VERTEX
  8
LY_3
  6
CONTINUOUS
 62
               3
  5
180
 10
235.78268791651874
 20
-357.51957925678721
 30
0.0
  0
VERTEX
  8
LY_3
  6
CONTINUOUS
 62
               3
  5
181
 10
236.25940813212404
 20
-359.77617389781051
 30
0.0
  0
VERTEX
  8
LY_3
  6
CONTINUOUS
 62
               3
  5
182
 10
236.91094841077521
 20
-362.02639669212346
 30
0.0
  0
VERTEX
  8
LY_3
  6
CONTINUOUS
 62
               3
  5
183
 10
237.70538131389654
 20
-364.27222399903894
 30
0.0
  0
VERTEX
  8
LY_3
  6
CONTINUOUS
 62
               3
  5
184
 10
238.61077940291227
 20
-366.51563217786992
 30
0.0
  0
VERTEX
  8
LY_3
  6
CONTINUOUS
 62
               3
  5
185
 10
239.59521523924664
 20
-368.75859758792916
 30
0.0
  0
VERTEX
  8
LY_3
  6
CONTINUOUS
 62
               3
  5
186
 10
240.62676138432394
 20
-371.00309658852956
 30
0.0
  0
VERTEX
  8
LY_3
  6
CONTINUOUS
 62
               3
  5
187
 10
241.67349039956838
 20
-373.25110553898401
 30
0.0
  0
VERTEX
  8
LY_3
  6
CONTINUOUS
 62
               3
  5
188
 10
242.70347484640425
 20
-375.5046007986054
 30
0.0
  0
VERTEX
  8
LY_3
  6
CONTINUOUS
 62
               3
  5
189
 10
243.68478728625576
 20
-377.76555872670662
 30
0.0
  0
VERTEX
  8
LY_3
  6
CONTINUOUS
 62
               3
  5
18A
 10
244.58550028054719
 20
-380.0359556826005
 30
0.0
  0
VERTEX
  8
LY_3
  6
CONTINUOUS
 62
               3
  5
18B
 10
245.37368639070277
 20
-382.3177680256
 30
0.0
  0
VERTEX
  8
LY_3
  6
CONTINUOUS
 62
               3
  5
18C
 10
246.01741817814678
 20
-384.6129721150179
 30
0.0
  0
VERTEX
  8
LY_3
  6
CONTINUOUS
 62
               3
  5
18D
 10
246.48476820430346
 20
-386.92354431016713
 30
0.0
  0
VERTEX
  8
LY_3
  6
CONTINUOUS
 62
               3
  5
18E
 10
246.74380903059705
 20
-389.25146097036054
 30
0.0
  0
VERTEX
  8
LY_3
  6
CONTINUOUS
 62
               3
  5
18F
 10
246.78495857009801
 20
-391.06088156483429
 30
0.0
  0
VERTEX
  8
LY_3
  6
CONTINUOUS
 62
               3
  5
190
 10
246.69122006558248
 20
-392.87736488219304
 30
0.0
  0
VERTEX
  8
LY_3
  6
CONTINUOUS
 62
               3
  5
191
 10
246.47089056180056
 20
-394.69645810810567
 30
0.0
  0
VERTEX
  8
LY_3
  6
CONTINUOUS
 62
               3
  5
192
 10
246.13226710350233
 20
-396.51370842824116
 30
0.0
  0
VERTEX
  8
LY_3
  6
CONTINUOUS
 62
               3
  5
193
 10
245.68364673543786
 20
-398.32466302826845
 30
0.0
  0
VERTEX
  8
LY_3
  6
CONTINUOUS
 62
               3
  5
194
 10
245.13332650235725
 20
-400.12486909385638
 30
0.0
  0
VERTEX
  8
LY_3
  6
CONTINUOUS
 62
               3
  5
195
 10
244.48960344901056
 20
-401.9098738106739
 30
0.0
  0
VERTEX
  8
LY_3
  6
CONTINUOUS
 62
               3
  5
196
 10
243.76077462014786
 20
-403.67522436438992
 30
0.0
  0
VERTEX
  8
LY_3
  6
CONTINUOUS
 62
               3
  5
197
 10
242.95513706051923
 20
-405.41646794067339
 30
0.0
  0
VERTEX
  8
LY_3
  6
CONTINUOUS
 62
               3
  5
198
 10
242.08098781487476
 20
-407.1291517251932
 30
0.0
  0
VERTEX
  8
LY_3
  6
CONTINUOUS
 62
               3
  5
199
 10
241.14662392796455
 20
-408.80882290361825
 30
0.0
  0
VERTEX
  8
LY_3
  6
CONTINUOUS
 62
               3
  5
19A
 10
240.16034244453863
 20
-410.45102866161744
 30
0.0
  0
VERTEX
  8
LY_3
  6
CONTINUOUS
 62
               3
  5
19B
 10
239.13044040934713
 20
-412.05131618485979
 30
0.0
  0
VERTEX
  8
LY_3
  6
CONTINUOUS
 62
               3
  5
19C
 10
238.0652148671401
 20
-413.60523265901412
 30
0.0
  0
VERTEX
  8
LY_3
  6
CONTINUOUS
 62
               3
  5
19D
 10
236.9729628626676
 20
-415.10832526974934
 30
0.0
  0
SEQEND
  8
LY_3
  6
CONTINUOUS
 62
               3
  5
19E
  0
ARC
  8
LY_3
  6
CONTINUOUS
 62
               3
  5
36
 10
364.14999999999998
 20
-424.14999999999998
 30
0.0
 40
7.0
 50
90.0
 51
180.0
  0
LINE
  8
LY_3
  6
CONTINUOUS
 62
               3
  5
37
 10
242.84999999999999
 20
-424.14999999999998
 30
0.0
 11
357.14999999999998
 21
-424.14999999999998
 31
0.0
  0
ARC
  8
LY_3
  6
CONTINUOUS
 62
               3
  5
38
 10
235.94999999999999
 20
-424.05000000000001
 30
0.0
 40
9.0
 50
83.473511999999999
 51
90.0
  0
LINE
  8
LY_3
  6
CONTINUOUS
 62
               3
  5
39
 10
193.158399
 20
-411.10000000000002
 30
0.0
 11
193.158399
 21
-308.89999999999998
 31
0.0
  0
LINE
  8
LY_3
  6
CONTINUOUS
 62
               3
  5
3A
 10
193.158399
 20
-411.10000000000002
 30
0.0
 11
200.0
 21
-415.05000000000001
 31
0.0
  0
LINE
  8
LY_3
  6
CONTINUOUS
 62
               3
  5
3B
 10
180.0
 20
-411.10000000000002
 30
0.0
 11
193.158399
 21
-411.10000000000002
 31
0.0
  0
LINE
  8
LY_3
  6
CONTINUOUS
 62
               3
  5
3C
 10
193.158399
 20
-308.89999999999998
 30
0.0
 11
200.0
 21
-304.94999999999999
 31
0.0
  0
ARC
  8
LY_3
  6
CONTINUOUS
 62
               3
  5
3D
 10
235.84999999999999
 20
-424.14999999999998
 30
0.0
 40
7.0
 50
0.0
 51
90.0
  0
LINE
  8
LY_3
  6
CONTINUOUS
 62
               3
  5
3E
 10
364.14999999999998
 20
-417.14999999999998
 30
0.0
 11
395.0
 21
-417.14999999999998
 31
0.0
  0
LINE
  8
LY_3
  6
CONTINUOUS
 62
               3
  5
3F
 10
359.0
 20
-455.0
 30
0.0
 11
241.0
 21
-455.0
 31
0.0
  0
LINE
  8
LY_3
  6
CONTINUOUS
 62
               3
  5
40
 10
357.14999999999998
 20
-455.0
 30
0.0
 11
357.14999999999998
 21
-424.14999999999998
 31
0.0
  0
LINE
  8
LY_3
  6
CONTINUOUS
 62
               3
  5
41
 10
367.0
 20
-480.0
 30
0.0
 11
367.0
 21
-473.05031099999997
 31
0.0
  0
LINE
  8
LY_3
  6
CONTINUOUS
 62
               3
  5
42
 10
359.0
 20
-469.08823799999999
 30
0.0
 11
359.0
 21
-455.0
 31
0.0
  0
LINE
  8
LY_3
  6
CONTINUOUS
 62
               3
  5
43
 10
241.0
 20
-469.08823799999999
 30
0.0
 11
241.0
 21
-455.0
 31
0.0
  0
LINE
  8
LY_3
  6
CONTINUOUS
 62
               3
  5
44
 10
233.0
 20
-480.0
 30
0.0
 11
233.0
 21
-473.05031099999997
 31
0.0
  0
LINE
  8
LY_3
  6
CONTINUOUS
 62
               3
  5
45
 10
242.84999999999999
 20
-455.0
 30
0.0
 11
242.84999999999999
 21
-424.14999999999998
 31
0.0
  0
LINE
  8
LY_3
  6
CONTINUOUS
 62
               3
  5
46
 10
233.0
 20
-480.0
 30
0.0
 11
367.0
 21
-480.0
 31
0.0
  0
LINE
  8
LY_3
  6
CONTINUOUS
 62
               3
  5
47
 10
395.0
 20
-419.0
 30
0.0
 11
395.0
 21
-301.0
 31
0.0
  0
LINE
  8
LY_3
  6
CONTINUOUS
 62
               3
  5
48
 10
420.0
 20
-427.0
 30
0.0
 11
413.05031099999997
 21
-427.0
 31
0.0
  0
LINE
  8
LY_3
  6
CONTINUOUS
 62
               3
  5
49
 10
409.08822599999996
 20
-419.0
 30
0.0
 11
395.0
 21
-419.0
 31
0.0
  0
LINE
  8
LY_3
  6
CONTINUOUS
 62
               3
  5
4A
 10
420.0
 20
-427.0
 30
0.0
 11
420.0
 21
-293.0
 31
0.0
  0
LINE
  8
LY_3
  6
CONTINUOUS
 62
               3
  5
4B
 10
409.08823799999999
 20
-301.0
 30
0.0
 11
395.0
 21
-301.0
 31
0.0
  0
LINE
  8
LY_3
  6
CONTINUOUS
 62
               3
  5
4C
 10
420.0
 20
-293.0
 30
0.0
 11
413.05031099999997
 21
-293.0
 31
0.0
  0
LINE
  8
LY_3
  6
CONTINUOUS
 62
               3
  5
4D
 10
200.0
 20
-417.14999999999998
 30
0.0
 11
235.84999999999999
 21
-417.14999999999998
 31
0.0
  0
LINE
  8
LY_3
  6
CONTINUOUS
 62
               3
  5
4E
 10
200.0
 20
-302.85000000000002
 30
0.0
 11
395.0
 21
-302.85000000000002
 31
0.0
  0
LINE
  8
LY_3
  6
CENTER
 62
             110
  5
50
 10
300.0
 20
-298.25943699999999
 30
0.0
 11
300.0
 21
-491.52447599999999
 31
0.0
  0
LINE
  8
LY_3
  6
CENTER
 62
             110
  5
51
 10
168.429697
 20
-360.0
 30
0.0
 11
435.83602999999999
 21
-360.0
 31
0.0
  0
LINE
  8
LY_3
  6
CONTINUOUS
 62
               3
  5
52
 10
200.0
 20
-304.94999999999999
 30
0.0
 11
241.85040000000001
 21
-304.94999999999999
 31
0.0
  0
LINE
  8
LY_3
  6
CONTINUOUS
 62
               3
  5
53
 10
180.0
 20
-427.0
 30
0.0
 11
180.0
 21
-293.0
 31
0.0
  0
LINE
  8
LY_3
  6
CONTINUOUS
 62
               3
  5
54
 10
180.0
 20
-293.0
 30
0.0
 11
186.94968900000001
 21
-293.0
 31
0.0
  0
LINE
  8
LY_3
  6
CONTINUOUS
 62
               3
  5
55
 10
180.0
 20
-308.89999999999998
 30
0.0
 11
193.158399
 21
-308.89999999999998
 31
0.0
  0
LINE
  8
LY_3
  6
CONTINUOUS
 62
               3
  5
56
 10
190.91176200000001
 20
-301.0
 30
0.0
 11
205.0
 21
-301.0
 31
0.0
  0
LINE
  8
LY_3
  6
CONTINUOUS
 62
               3
  5
57
 10
200.0
 20
-302.75
 30
0.0
 11
205.0
 21
-302.75
 31
0.0
  0
LINE
  8
LY_3
  6
CONTINUOUS
 62
               3
  5
58
 10
205.0
 20
-301.0
 30
0.0
 11
205.0
 21
-302.75
 31
0.0
  0
LINE
  8
LY_3
  6
CONTINUOUS
 62
               3
  5
59
 10
200.0
 20
-302.75
 30
0.0
 11
200.0
 21
-360.0
 31
0.0
  0
LINE
  8
LY_3
  6
CONTINUOUS
 62
               3
  5
5A
 10
180.0
 20
-427.0
 30
0.0
 11
186.94968900000001
 21
-427.0
 31
0.0
  0
LINE
  8
LY_3
  6
CONTINUOUS
 62
               3
  5
5B
 10
190.91176200000001
 20
-419.0
 30
0.0
 11
205.0
 21
-419.0
 31
0.0
  0
LINE
  8
LY_3
  6
CONTINUOUS
 62
               3
  5
5C
 10
200.0
 20
-417.25
 30
0.0
 11
205.0
 21
-417.25
 31
0.0
  0
LINE
  8
LY_3
  6
CONTINUOUS
 62
               3
  5
5D
 10
200.0
 20
-415.05000000000001
 30
0.0
 11
235.94999999999999
 21
-415.05000000000001
 31
0.0
  0
LINE
  8
LY_3
  6
CONTINUOUS
 62
               3
  5
5E
 10
200.0
 20
-417.25
 30
0.0
 11
200.0
 21
-360.0
 31
0.0
  0
LINE
  8
LY_3
  6
CONTINUOUS
 62
               3
  5
5F
 10
205.0
 20
-419.0
 30
0.0
 11
205.0
 21
-417.25
 31
0.0
  0
TEXT
  8
LY_3
  6
CONTINUOUS
 62
             110
  5
60
 10
28.716214870228796
 20
-544.0
 30
0.0
 40
8.0
  1
VP7063
 41
0.9120000088150435
  7
MX_NOTE_STANDARD
 11
28.716214870228796
 21
-536.0
 31
0.0
 73
               3
  0
ARC
  8
LY_3
  6
CONTINUOUS
 62
               3
  5
61
 10
138.15099000000001
 20
-472.0
 30
0.0
 40
1.5
 50
195.00000199999999
 51
270.0
  0
ARC
  8
LY_3
  6
CONTINUOUS
 62
               3
  5
62
 10
92.0
 20
-518.15098999999998
 30
0.0
 40
1.5
 50
0.0
 51
74.999998000000005
  0
ARC
  8
LY_3
  6
CONTINUOUS
 62
               3
  5
63
 10
-38.15099
 20
-472.0
 30
0.0
 40
1.5
 50
270.0
 51
344.99999800000001
  0
POLYLINE
  8
LY_3
  6
CONTINUOUS
 62
               3
  5
64
 66
               1
 10
0.0
 20
0.0
 30
0.0
  0
VERTEX
  8
LY_3
  6
CONTINUOUS
 62
               3
  5
19F
 10
26.336141496034372
 20
-391.85000381469729
 30
0.0
  0
VERTEX
  8
LY_3
  6
CONTINUOUS
 62
               3
  5
1A0
 10
26.483795278965179
 20
-392.81892080407613
 30
0.0
  0
VERTEX
  8
LY_3
  6
CONTINUOUS
 62
               3
  5
1A1
 10
26.600663914563373
 20
-393.79726498898759
 30
0.0
  0
VERTEX
  8
LY_3
  6
CONTINUOUS
 62
               3
  5
1A2
 10
26.685347882502999
 20
-394.7827280388226
 30
0.0
  0
VERTEX
  8
LY_3
  6
CONTINUOUS
 62
               3
  5
1A3
 10
26.736447662458104
 20
-395.773001622972
 30
0.0
  0
VERTEX
  8
LY_3
  6
CONTINUOUS
 62
               3
  5
1A4
 10
26.752563734102736
 20
-396.76577741082679
 30
0.0
  0
VERTEX
  8
LY_3
  6
CONTINUOUS
 62
               3
  5
1A5
 10
26.73229657711094
 20
-397.75874707177775
 30
0.0
  0
VERTEX
  8
LY_3
  6
CONTINUOUS
 62
               3
  5
1A6
 10
26.674246671156759
 20
-398.74960227521581
 30
0.0
  0
VERTEX
  8
LY_3
  6
CONTINUOUS
 62
               3
  5
1A7
 10
26.577014495914241
 20
-399.73603469053194
 30
0.0
  0
VERTEX
  8
LY_3
  6
CONTINUOUS
 62
               3
  5
1A8
 10
26.439200531057434
 20
-400.71573598711689
 30
0.0
  0
VERTEX
  8
LY_3
  6
CONTINUOUS
 62
               3
  5
1A9
 10
26.259405256260379
 20
-401.68639783436163
 30
0.0
  0
VERTEX
  8
LY_3
  6
CONTINUOUS
 62
               3
  5
1AA
 10
26.036229151197126
 20
-402.64571190165702
 30
0.0
  0
VERTEX
  8
LY_3
  6
CONTINUOUS
 62
               3
  5
1AB
 10
25.768272695541722
 20
-403.59136985839399
 30
0.0
  0
VERTEX
  8
LY_3
  6
CONTINUOUS
 62
               3
  5
1AC
 10
25.454136368968207
 20
-404.52106337396344
 30
0.0
  0
VERTEX
  8
LY_3
  6
CONTINUOUS
 62
               3
  5
1AD
 10
25.106799124616074
 20
-405.42689284242476
 30
0.0
  0
VERTEX
  8
LY_3
  6
CONTINUOUS
 62
               3
  5
1AE
 10
24.774800933952662
 20
-406.33262453400488
 30
0.0
  0
VERTEX
  8
LY_3
  6
CONTINUOUS
 62
               3
  5
1AF
 10
24.509955038595429
 20
-407.24814868731653
 30
0.0
  0
VERTEX
  8
LY_3
  6
CONTINUOUS
 62
               3
  5
1B0
 10
24.315901264844911
 20
-408.17913286774001
 30
0.0
  0
VERTEX
  8
LY_3
  6
CONTINUOUS
 62
               3
  5
1B1
 10
24.186877412079514
 20
-409.12349548784874
 30
0.0
  0
VERTEX
  8
LY_3
  6
CONTINUOUS
 62
               3
  5
1B2
 10
24.117121279677637
 20
-410.0791549602161
 30
0.0
  0
VERTEX
  8
LY_3
  6
CONTINUOUS
 62
               3
  5
1B3
 10
24.100870667017688
 20
-411.04402969741545
 30
0.0
  0
VERTEX
  8
LY_3
  6
CONTINUOUS
 62
               3
  5
1B4
 10
24.132363373478068
 20
-412.01603811202011
 30
0.0
  0
VERTEX
  8
LY_3
  6
CONTINUOUS
 62
               3
  5
1B5
 10
24.20583719843718
 20
-412.99309861660356
 30
0.0
  0
VERTEX
  8
LY_3
  6
CONTINUOUS
 62
               3
  5
1B6
 10
24.315529941273425
 20
-413.97312962373906
 30
0.0
  0
VERTEX
  8
LY_3
  6
CONTINUOUS
 62
               3
  5
1B7
 10
24.455679401365209
 20
-414.95404954599996
 30
0.0
  0
VERTEX
  8
LY_3
  6
CONTINUOUS
 62
               3
  5
1B8
 10
24.62052337809094
 20
-415.93377679595977
 30
0.0
  0
VERTEX
  8
LY_3
  6
CONTINUOUS
 62
               3
  5
1B9
 10
24.804299670829014
 20
-416.91022978619174
 30
0.0
  0
VERTEX
  8
LY_3
  6
CONTINUOUS
 62
               3
  5
1BA
 10
25.001246078957834
 20
-417.88132692926928
 30
0.0
  0
VERTEX
  8
LY_3
  6
CONTINUOUS
 62
               3
  5
1BB
 10
25.202058336374112
 20
-418.82734373032872
 30
0.0
  0
VERTEX
  8
LY_3
  6
CONTINUOUS
 62
               3
  5
1BC
 10
25.406697478154847
 20
-419.76724253031796
 30
0.0
  0
VERTEX
  8
LY_3
  6
CONTINUOUS
 62
               3
  5
1BD
 10
25.611860036519722
 20
-420.7020640940637
 30
0.0
  0
VERTEX
  8
LY_3
  6
CONTINUOUS
 62
               3
  5
1BE
 10
25.814242543688419
 20
-421.63284918639255
 30
0.0
  0
VERTEX
  8
LY_3
  6
CONTINUOUS
 62
               3
  5
1BF
 10
26.010541531880623
 20
-422.56063857213132
 30
0.0
  0
VERTEX
  8
LY_3
  6
CONTINUOUS
 62
               3
  5
1C0
 10
26.197453533316018
 20
-423.48647301610663
 30
0.0
  0
VERTEX
  8
LY_3
  6
CONTINUOUS
 62
               3
  5
1C1
 10
26.371675080214288
 20
-424.41139328314517
 30
0.0
  0
VERTEX
  8
LY_3
  6
CONTINUOUS
 62
               3
  5
1C2
 10
26.52990270479512
 20
-425.33644013807373
 30
0.0
  0
VERTEX
  8
LY_3
  6
CONTINUOUS
 62
               3
  5
1C3
 10
26.668832939278193
 20
-426.26265434571889
 30
0.0
  0
VERTEX
  8
LY_3
  6
CONTINUOUS
 62
               3
  5
1C4
 10
26.785162315883195
 20
-427.19107667090736
 30
0.0
  0
VERTEX
  8
LY_3
  6
CONTINUOUS
 62
               3
  5
1C5
 10
26.875587366829809
 20
-428.12274787846593
 30
0.0
  0
VERTEX
  8
LY_3
  6
CONTINUOUS
 62
               3
  5
1C6
 10
26.936804624337714
 20
-429.05870873322124
 30
0.0
  0
VERTEX
  8
LY_3
  6
CONTINUOUS
 62
               3
  5
1C7
 10
26.965510620626603
 20
-430.0
 30
0.0
  0
SEQEND
  8
LY_3
  6
CONTINUOUS
 62
               3
  5
1C8
  0
LINE
  8
LY_3
  6
CONTINUOUS
 62
               3
  5
65
 10
11.850003999999998
 20
-469.75000399999999
 30
0.0
 11
88.150003999999996
 21
-469.75000399999999
 31
0.0
  0
ARC
  8
LY_3
  6
CONTINUOUS
 62
               3
  5
66
 10
89.75000399999999
 20
-469.75000399999999
 30
0.0
 40
1.6000000000000001
 50
90.0
 51
180.0
  0
ARC
  8
LY_3
  6
CONTINUOUS
 62
               3
  5
67
 10
10.250003999999997
 20
-469.75000399999999
 30
0.0
 40
1.6000000000000001
 50
0.0
 51
90.0
  0
LINE
  8
LY_3
  6
CONTINUOUS
 62
               3
  5
68
 10
11.850003999999998
 20
-500.0
 30
0.0
 11
11.850003999999998
 21
-469.75000399999999
 31
0.0
  0
LINE
  8
LY_3
  6
CONTINUOUS
 62
               3
  5
69
 10
88.150003999999996
 20
-500.0
 30
0.0
 11
88.150003999999996
 21
-469.75000399999999
 31
0.0
  0
LINE
  8
LY_3
  6
CONTINUOUS
 62
               3
  5
6A
 10
11.850000000000001
 20
-500.0
 30
0.0
 11
88.150000000000006
 21
-500.0
 31
0.0
  0
LINE
  8
LY_3
  6
CONTINUOUS
 62
               3
  5
6B
 10
93.5
 20
-520.0
 30
0.0
 11
93.5
 21
-518.15098999999998
 31
0.0
  0
LINE
  8
LY_3
  6
CONTINUOUS
 62
               3
  5
6C
 10
92.388228999999995
 20
-516.70210099999997
 30
0.0
 11
88.150000000000006
 21
-515.56647099999998
 31
0.0
  0
LINE
  8
LY_3
  6
CONTINUOUS
 62
               3
  5
6D
 10
88.150000000000006
 20
-515.56647099999998
 30
0.0
 11
11.850000000000001
 21
-515.56647099999998
 31
0.0
  0
LINE
  8
LY_3
  6
CONTINUOUS
 62
               3
  5
6E
 10
88.150000000000006
 20
-515.56647099999998
 30
0.0
 11
88.150000000000006
 21
-500.0
 31
0.0
  0
LINE
  8
LY_3
  6
CONTINUOUS
 62
               3
  5
6F
 10
7.0381100000000032
 20
-517.0
 30
0.0
 11
92.961884999999995
 21
-517.0
 31
0.0
  0
LINE
  8
LY_3
  6
CONTINUOUS
 62
               3
  5
70
 10
6.5
 20
-520.0
 30
0.0
 11
6.5
 21
-518.15098599999999
 31
0.0
  0
LINE
  8
LY_3
  6
CONTINUOUS
 62
               3
  5
71
 10
7.6117729999999995
 20
-516.70209999999997
 30
0.0
 11
11.850000000000001
 21
-515.56647099999998
 31
0.0
  0
ARC
  8
LY_3
  6
CONTINUOUS
 62
               3
  5
72
 10
8.0
 20
-518.15098599999999
 30
0.0
 40
1.5
 50
105.000052
 51
179.99998200000002
  0
LINE
  8
LY_3
  6
CONTINUOUS
 62
               3
  5
73
 10
11.850000000000001
 20
-515.56647099999998
 30
0.0
 11
11.850000000000001
 21
-500.0
 31
0.0
  0
LINE
  8
LY_3
  6
CONTINUOUS
 62
               3
  5
74
 10
6.5
 20
-520.0
 30
0.0
 11
93.5
 21
-520.0
 31
0.0
  0
LINE
  8
LY_3
  6
CONTINUOUS
 62
               3
  5
75
 10
120.0
 20
-391.85000000000002
 30
0.0
 11
120.0
 21
-468.14999999999998
 31
0.0
  0
LINE
  8
LY_3
  6
CONTINUOUS
 62
               3
  5
76
 10
140.0
 20
-473.5
 30
0.0
 11
138.15099000000001
 21
-473.5
 31
0.0
  0
LINE
  8
LY_3
  6
CONTINUOUS
 62
               3
  5
77
 10
136.702101
 20
-472.38822900000002
 30
0.0
 11
135.56647100000001
 21
-468.14999999999998
 31
0.0
  0
LINE
  8
LY_3
  6
CONTINUOUS
 62
               3
  5
78
 10
135.56647100000001
 20
-468.14999999999998
 30
0.0
 11
135.56647100000001
 21
-391.85000000000002
 31
0.0
  0
LINE
  8
LY_3
  6
CONTINUOUS
 62
               3
  5
79
 10
135.56647100000001
 20
-468.14999999999998
 30
0.0
 11
120.0
 21
-468.14999999999998
 31
0.0
  0
LINE
  8
LY_3
  6
CONTINUOUS
 62
               3
  5
7A
 10
137.0
 20
-387.03811000000002
 30
0.0
 11
137.0
 21
-472.961885
 31
0.0
  0
LINE
  8
LY_3
  6
CONTINUOUS
 62
               3
  5
7B
 10
140.0
 20
-386.5
 30
0.0
 11
138.15098599999999
 21
-386.5
 31
0.0
  0
LINE
  8
LY_3
  6
CONTINUOUS
 62
               3
  5
7C
 10
136.7021
 20
-387.61177299999997
 30
0.0
 11
135.56647100000001
 21
-391.85000000000002
 31
0.0
  0
ARC
  8
LY_3
  6
CONTINUOUS
 62
               3
  5
7D
 10
138.15098599999999
 20
-388.0
 30
0.0
 40
1.5
 50
90.000017999999997
 51
164.99994799999999
  0
LINE
  8
LY_3
  6
CONTINUOUS
 62
               3
  5
7E
 10
135.56647100000001
 20
-391.85000000000002
 30
0.0
 11
120.0
 21
-391.85000000000002
 31
0.0
  0
LINE
  8
LY_3
  6
CONTINUOUS
 62
               3
  5
7F
 10
140.0
 20
-386.5
 30
0.0
 11
140.0
 21
-473.5
 31
0.0
  0
LINE
  8
LY_3
  6
CONTINUOUS
 62
               3
  5
80
 10
-35.566471
 20
-468.14999999999998
 30
0.0
 11
-35.566471
 21
-430.0
 31
0.0
  0
LINE
  8
LY_3
  6
CONTINUOUS
 62
               3
  5
81
 10
-35.566471
 20
-468.14999999999998
 30
0.0
 11
-20.0
 21
-468.14999999999998
 31
0.0
  0
LINE
  8
LY_3
  6
CONTINUOUS
 62
               3
  5
82
 10
-35.566471
 20
-391.85000000000002
 30
0.0
 11
-20.0
 21
-391.85000000000002
 31
0.0
  0
LINE
  8
LY_3
  6
CONTINUOUS
 62
               3
  5
83
 10
-40.0
 20
-394.89999999999998
 30
0.0
 11
-20.0
 21
-394.89999999999998
 31
0.0
  0
LINE
  8
LY_3
  6
CONTINUOUS
 62
               3
  5
84
 10
89.75000399999999
 20
-468.15000400000002
 30
0.0
 11
120.0
 21
-468.15000400000002
 31
0.0
  0
LINE
  8
LY_3
  6
CONTINUOUS
 62
               3
  5
85
 10
-36.702100999999999
 20
-472.38822900000002
 30
0.0
 11
-35.566471
 21
-468.14999999999998
 31
0.0
  0
LINE
  8
LY_3
  6
CONTINUOUS
 62
               3
  5
86
 10
-20.0
 20
-468.15000400000002
 30
0.0
 11
10.250003999999997
 21
-468.15000400000002
 31
0.0
  0
LINE
  8
LY_3
  6
CONTINUOUS
 62
               3
  5
87
 10
-20.0
 20
-391.85000400000001
 30
0.0
 11
120.0
 21
-391.85000400000001
 31
0.0
  0
LINE
  8
LY_3
  6
CONTINUOUS
 62
               3
  5
88
 10
-20.0
 20
-393.94999999999999
 30
0.0
 11
26.617013
 21
-393.94999999999999
 31
0.0
  0
ARC
  8
LY_3
  6
CONTINUOUS
 62
               3
  5
89
 10
-38.150986000000003
 20
-388.0
 30
0.0
 40
1.5
 50
15.000052
 51
89.999982000000003
  0
LINE
  8
LY_3
  6
CONTINUOUS
 62
               3
  5
8A
 10
-20.0
 20
-391.85000000000002
 30
0.0
 11
-20.0
 21
-468.14999999999998
 31
0.0
  0
LINE
  8
LY_3
  6
CONTINUOUS
 62
               3
  5
8B
 10
-36.702100000000002
 20
-387.61177299999997
 30
0.0
 11
-35.566471
 21
-391.85000000000002
 31
0.0
  0
LINE
  8
LY_3
  6
CONTINUOUS
 62
               3
  5
8C
 10
-40.0
 20
-386.5
 30
0.0
 11
-38.150986000000003
 21
-386.5
 31
0.0
  0
LINE
  8
LY_3
  6
CONTINUOUS
 62
               3
  5
8D
 10
-40.0
 20
-386.5
 30
0.0
 11
-40.0
 21
-473.5
 31
0.0
  0
LINE
  8
LY_3
  6
CONTINUOUS
 62
               3
  5
8E
 10
-37.0
 20
-430.0
 30
0.0
 11
-37.0
 21
-472.961885
 31
0.0
  0
LINE
  8
LY_3
  6
CONTINUOUS
 62
               3
  5
8F
 10
-40.0
 20
-473.5
 30
0.0
 11
-38.15099
 21
-473.5
 31
0.0
  0
LINE
  8
LY_3
  6
CENTER
 62
             110
  5
90
 10
50.0
 20
-385.952561
 30
0.0
 11
50.0
 21
-525.89566100000002
 31
0.0
  0
LINE
  8
LY_3
  6
CENTER
 62
             110
  5
91
 10
-46.752943000000002
 20
-430.0
 30
0.0
 11
144.90817999999999
 21
-430.0
 31
0.0
  0
TEXT
  8
LY_3
  6
CONTINUOUS
 62
             110
  5
92
 10
278.74999864896137
 20
-224.0
 30
0.0
 40
8.0
  1
VP7080
 41
0.9380000233650208
  7
MX_NOTE_STANDARD
 11
278.74999864896137
 21
-216.0
 31
0.0
 73
               3
  0
ARC
  8
LY_3
  6
CONTINUOUS
 62
               3
  5
93
 10
403.05028800000002
 20
-145.5
 30
0.0
 40
1.5
 50
199.99999399999999
 51
270.0
  0
LINE
  8
LY_3
  6
CENTER
 62
             110
  5
94
 10
300.0
 20
-35.0
 30
0.0
 11
300.0
 21
-210.0
 31
0.0
  0
LINE
  8
LY_3
  6
CENTER
 62
             110
  5
95
 10
180.0
 20
-90.0
 30
0.0
 11
420.0
 21
-90.0
 31
0.0
  0
LINE
  8
LY_3
  6
CONTINUOUS
 62
               3
  5
96
 10
410.0
 20
-147.0
 30
0.0
 11
410.0
 21
-33.000014999999998
 31
0.0
  0
LINE
  8
LY_3
  6
CONTINUOUS
 62
               3
  5
97
 10
410.00000799999998
 20
-33.0
 30
0.0
 11
403.05031600000001
 21
-33.0
 31
0.0
  0
LINE
  8
LY_3
  6
CONTINUOUS
 62
               3
  5
98
 10
410.0
 20
-147.0
 30
0.0
 11
403.05028800000002
 21
-147.0
 31
0.0
  0
LINE
  8
LY_3
  6
CONTINUOUS
 62
               3
  5
99
 10
402.0
 20
-146.570932
 30
0.0
 11
402.0
 21
-33.429107999999999
 31
0.0
  0
LINE
  8
LY_3
  6
CONTINUOUS
 62
               3
  5
9A
 10
401.64077399999996
 20
-33.986978999999998
 30
0.0
 11
399.08824200000004
 21
-41.000003
 31
0.0
  0
LINE
  8
LY_3
  6
CONTINUOUS
 62
               3
  5
9B
 10
401.64074900000003
 20
-146.01302999999999
 30
0.0
 11
399.08821999999998
 21
-139.000013
 31
0.0
  0
LINE
  8
LY_3
  6
CONTINUOUS
 62
               3
  5
9C
 10
399.08822599999996
 20
-41.0
 30
0.0
 11
384.99999200000002
 21
-41.0
 31
0.0
  0
LINE
  8
LY_3
  6
CONTINUOUS
 62
               3
  5
9D
 10
399.08822599999996
 20
-139.00000800000001
 30
0.0
 11
384.99999200000002
 21
-139.00000800000001
 31
0.0
  0
LINE
  8
LY_3
  6
CONTINUOUS
 62
               3
  5
9E
 10
399.088234
 20
-139.00000800000001
 30
0.0
 11
399.088234
 21
-41.000014999999998
 31
0.0
  0
LINE
  8
LY_3
  6
CONTINUOUS
 62
               3
  5
9F
 10
385.0
 20
-139.00000800000001
 30
0.0
 11
385.0
 21
-41.000014999999998
 31
0.0
  0
LINE
  8
LY_3
  6
CONTINUOUS
 62
               3
  5
A0
 10
210.0
 20
-45.449997000000003
 30
0.0
 11
385.00000799999998
 21
-45.449997000000003
 31
0.0
  0
LINE
  8
LY_3
  6
CONTINUOUS
 62
               3
  5
A1
 10
210.0
 20
-47.549987999999999
 30
0.0
 11
251.74148199999999
 21
-47.549987999999999
 31
0.0
  0
LINE
  8
LY_3
  6
CONTINUOUS
 62
               3
  5
A2
 10
243.0
 20
-200.0
 30
0.0
 11
357.0
 21
-200.0
 31
0.0
  0
LINE
  8
LY_3
  6
CONTINUOUS
 62
               3
  5
A3
 10
357.0
 20
-200.0
 30
0.0
 11
357.0
 21
-193.050308
 31
0.0
  0
LINE
  8
LY_3
  6
CONTINUOUS
 62
               3
  5
A4
 10
243.0
 20
-200.0
 30
0.0
 11
243.0
 21
-193.05029299999998
 31
0.0
  0
LINE
  8
LY_3
  6
CONTINUOUS
 62
               3
  5
A5
 10
243.42906600000001
 20
-192.0
 30
0.0
 11
356.57090400000004
 21
-192.0
 31
0.0
  0
LINE
  8
LY_3
  6
CONTINUOUS
 62
               3
  5
A6
 10
356.01302799999996
 20
-191.64076900000001
 30
0.0
 11
348.99999700000001
 21
-189.088234
 31
0.0
  0
LINE
  8
LY_3
  6
CONTINUOUS
 62
               3
  5
A7
 10
243.98695900000001
 20
-191.640762
 30
0.0
 11
250.99999800000001
 21
-189.08822599999999
 31
0.0
  0
LINE
  8
LY_3
  6
CONTINUOUS
 62
               3
  5
A8
 10
349.0
 20
-189.08822599999999
 30
0.0
 11
349.0
 21
-174.99999199999999
 31
0.0
  0
LINE
  8
LY_3
  6
CONTINUOUS
 62
               3
  5
A9
 10
251.0
 20
-189.08822599999999
 30
0.0
 11
251.0
 21
-174.99999199999999
 31
0.0
  0
LINE
  8
LY_3
  6
CONTINUOUS
 62
               3
  5
AA
 10
251.0
 20
-189.088234
 30
0.0
 11
348.99999200000002
 21
-189.088234
 31
0.0
  0
LINE
  8
LY_3
  6
CONTINUOUS
 62
               3
  5
AB
 10
344.54999900000001
 20
-175.0
 30
0.0
 11
344.54999900000001
 21
-141.54999899999999
 31
0.0
  0
LINE
  8
LY_3
  6
CONTINUOUS
 62
               3
  5
AC
 10
255.449997
 20
-175.00000799999998
 30
0.0
 11
255.449997
 21
-141.54999899999999
 31
0.0
  0
LINE
  8
LY_3
  6
CONTINUOUS
 62
               3
  5
AD
 10
251.0
 20
-175.0
 30
0.0
 11
348.99999200000002
 21
-175.0
 31
0.0
  0
LINE
  8
LY_3
  6
CONTINUOUS
 62
               3
  5
AE
 10
351.54999900000001
 20
-134.54999899999999
 30
0.0
 11
385.00000799999998
 21
-134.54999899999999
 31
0.0
  0
LINE
  8
LY_3
  6
CONTINUOUS
 62
               3
  5
AF
 10
255.449997
 20
-141.54999899999999
 30
0.0
 11
344.54999900000001
 21
-141.54999899999999
 31
0.0
  0
LINE
  8
LY_3
  6
CONTINUOUS
 62
               3
  5
B0
 10
190.0
 20
-33.0
 30
0.0
 11
196.94970699999999
 21
-33.0
 31
0.0
  0
LINE
  8
LY_3
  6
CONTINUOUS
 62
               3
  5
B1
 10
198.35926900000001
 20
-33.986964999999998
 30
0.0
 11
200.91180600000001
 21
-41.000003999999997
 31
0.0
  0
LINE
  8
LY_3
  6
CONTINUOUS
 62
               3
  5
B2
 10
190.0
 20
-48.399999999999999
 30
0.0
 11
208.35453100000001
 21
-48.399999999999999
 31
0.0
  0
LINE
  8
LY_3
  6
CONTINUOUS
 62
               3
  5
B3
 10
200.91177400000001
 20
-41.0
 30
0.0
 11
215.0
 21
-41.0
 31
0.0
  0
LINE
  8
LY_3
  6
CONTINUOUS
 62
               3
  5
B4
 10
215.0
 20
-41.0
 30
0.0
 11
215.0
 21
-45.449997000000003
 31
0.0
  0
LINE
  8
LY_3
  6
CONTINUOUS
 62
               3
  5
B5
 10
210.0
 20
-45.449997000000003
 30
0.0
 11
210.0
 21
-90.0
 31
0.0
  0
LINE
  8
LY_3
  6
CONTINUOUS
 62
               3
  5
B6
 10
190.0
 20
-131.59999999999999
 30
0.0
 11
208.35453100000001
 21
-131.59999999999999
 31
0.0
  0
LINE
  8
LY_3
  6
CONTINUOUS
 62
               3
  5
B7
 10
190.0
 20
-147.0
 30
0.0
 11
196.94970699999999
 21
-147.0
 31
0.0
  0
LINE
  8
LY_3
  6
CONTINUOUS
 62
               3
  5
B8
 10
198.35926900000001
 20
-146.013035
 30
0.0
 11
200.91180600000001
 21
-138.99999600000001
 31
0.0
  0
LINE
  8
LY_3
  6
CONTINUOUS
 62
               3
  5
B9
 10
200.91177400000001
 20
-139.0
 30
0.0
 11
215.0
 21
-139.0
 31
0.0
  0
LINE
  8
LY_3
  6
CONTINUOUS
 62
               3
  5
BA
 10
210.0
 20
-134.550003
 30
0.0
 11
248.559551
 21
-134.550003
 31
0.0
  0
LINE
  8
LY_3
  6
CONTINUOUS
 62
               3
  5
BB
 10
210.0
 20
-132.45001199999999
 30
0.0
 11
248.460115
 21
-132.45001199999999
 31
0.0
  0
LINE
  8
LY_3
  6
CONTINUOUS
 62
               3
  5
BC
 10
210.0
 20
-134.550003
 30
0.0
 11
210.0
 21
-90.0
 31
0.0
  0
LINE
  8
LY_3
  6
CONTINUOUS
 62
               3
  5
BD
 10
215.0
 20
-139.0
 30
0.0
 11
215.0
 21
-134.550003
 31
0.0
  0
LINE
  8
LY_3
  6
CONTINUOUS
 62
               3
  5
BE
 10
208.35453100000001
 20
-48.5
 30
0.0
 11
210.0
 21
-47.549987999999999
 31
0.0
  0
LINE
  8
LY_3
  6
CONTINUOUS
 62
               3
  5
BF
 10
208.35453100000001
 20
-48.399999999999999
 30
0.0
 11
208.35453100000001
 21
-131.59999999999999
 31
0.0
  0
LINE
  8
LY_3
  6
CONTINUOUS
 62
               3
  5
C0
 10
208.35453100000001
 20
-131.5
 30
0.0
 11
210.0
 21
-132.45001199999999
 31
0.0
  0
ARC
  8
LY_3
  6
CONTINUOUS
 62
               3
  5
C1
 10
403.05031600000001
 20
-34.500014999999998
 30
0.0
 40
1.5
 50
90.000009000000006
 51
159.99999500000004
  0
ARC
  8
LY_3
  6
CONTINUOUS
 62
               3
  5
C2
 10
355.49999200000002
 20
-193.050308
 30
0.0
 40
1.5
 50
0.000014
 51
69.999993000000003
  0
ARC
  8
LY_3
  6
CONTINUOUS
 62
               3
  5
C3
 10
244.49999199999999
 20
-193.05029299999998
 30
0.0
 40
1.5
 50
110.000033
 51
179.99997800000003
  0
ARC
  8
LY_3
  6
CONTINUOUS
 62
               3
  5
C4
 10
351.54999900000001
 20
-141.54999899999999
 30
0.0
 40
7.0
 50
89.999982000000003
 51
179.99996400000001
  0
ARC
  8
LY_3
  6
CONTINUOUS
 62
               3
  5
C5
 10
248.449997
 20
-141.54999899999999
 30
0.0
 40
7.0
 50
0.0
 51
89.999982000000003
  0
ARC
  8
LY_3
  6
CONTINUOUS
 62
               3
  5
C6
 10
196.94970699999999
 20
-34.5
 30
0.0
 40
1.5
 50
20.000036999999999
 51
89.999982000000003
  0
ARC
  8
LY_3
  6
CONTINUOUS
 62
               3
  5
C7
 10
196.94970699999999
 20
-145.5
 30
0.0
 40
1.5
 50
270.00001800000001
 51
339.99996299999998
  0
ARC
  8
LY_3
  6
CONTINUOUS
 62
               3
  5
C8
 10
248.449997
 20
-141.54999899999999
 30
0.0
 40
9.09999
 50
60.840547999999998
 51
89.999982000000003
  0
POLYLINE
  8
LY_3
  6
CONTINUOUS
 62
             110
  5
C9
 66
               1
 10
0.0
 20
0.0
 30
0.0
  0
VERTEX
  8
LY_3
  6
CONTINUOUS
 62
             110
  5
1C9
 10
253.23930675080322
 20
-45.463600995501082
 30
0.0
  0
VERTEX
  8
LY_3
  6
CONTINUOUS
 62
             110
  5
1CA
 10
252.69690536788389
 20
-46.187550231614182
 30
0.0
  0
VERTEX
  8
LY_3
  6
CONTINUOUS
 62
             110
  5
1CB
 10
252.18061118523175
 20
-46.936695830611178
 30
0.0
  0
VERTEX
  8
LY_3
  6
CONTINUOUS
 62
             110
  5
1CC
 10
251.69546106753
 20
-47.709211033668765
 30
0.0
  0
VERTEX
  8
LY_3
  6
CONTINUOUS
 62
             110
  5
1CD
 10
251.24649187946181
 20
-48.503269081963616
 30
0.0
  0
VERTEX
  8
LY_3
  6
CONTINUOUS
 62
             110
  5
1CE
 10
250.83874048571045
 20
-49.317043216672417
 30
0.0
  0
VERTEX
  8
LY_3
  6
CONTINUOUS
 62
             110
  5
1CF
 10
250.47724375095905
 20
-50.148706678971855
 30
0.0
  0
VERTEX
  8
LY_3
  6
CONTINUOUS
 62
             110
  5
1D0
 10
250.16703853989085
 20
-50.996432710038597
 30
0.0
  0
VERTEX
  8
LY_3
  6
CONTINUOUS
 62
             110
  5
1D1
 10
249.91316171718904
 20
-51.858394551049344
 30
0.0
  0
VERTEX
  8
LY_3
  6
CONTINUOUS
 62
             110
  5
1D2
 10
249.71835822721454
 20
-52.731713757890915
 30
0.0
  0
VERTEX
  8
LY_3
  6
CONTINUOUS
 62
             110
  5
1D3
 10
249.57492183756821
 20
-53.615449322970633
 30
0.0
  0
VERTEX
  8
LY_3
  6
CONTINUOUS
 62
             110
  5
1D4
 10
249.47299766087829
 20
-54.507637523987206
 30
0.0
  0
VERTEX
  8
LY_3
  6
CONTINUOUS
 62
             110
  5
1D5
 10
249.40273080977309
 20
-55.406314638639344
 30
0.0
  0
VERTEX
  8
LY_3
  6
CONTINUOUS
 62
             110
  5
1D6
 10
249.35426639688086
 20
-56.309516944625742
 30
0.0
  0
VERTEX
  8
LY_3
  6
CONTINUOUS
 62
             110
  5
1D7
 10
249.31774953482983
 20
-57.215280719645108
 30
0.0
  0
VERTEX
  8
LY_3
  6
CONTINUOUS
 62
             110
  5
1D8
 10
249.28332533624831
 20
-58.121642241396145
 30
0.0
  0
VERTEX
  8
LY_3
  6
CONTINUOUS
 62
             110
  5
1D9
 10
249.24113891376453
 20
-59.026637787577556
 30
0.0
  0
VERTEX
  8
LY_3
  6
CONTINUOUS
 62
             110
  5
1DA
 10
249.1795419791134
 20
-59.984534624898252
 30
0.0
  0
VERTEX
  8
LY_3
  6
CONTINUOUS
 62
             110
  5
1DB
 10
249.10256562682187
 20
-60.939369483868497
 30
0.0
  0
VERTEX
  8
LY_3
  6
CONTINUOUS
 62
             110
  5
1DC
 10
249.01469872059911
 20
-61.891835563310764
 30
0.0
  0
VERTEX
  8
LY_3
  6
CONTINUOUS
 62
             110
  5
1DD
 10
248.92043012415439
 20
-62.842626062047522
 30
0.0
  0
VERTEX
  8
LY_3
  6
CONTINUOUS
 62
             110
  5
1DE
 10
248.82424870119689
 20
-63.792434178901232
 30
0.0
  0
VERTEX
  8
LY_3
  6
CONTINUOUS
 62
             110
  5
1DF
 10
248.73064331543586
 20
-64.741953112694375
 30
0.0
  0
VERTEX
  8
LY_3
  6
CONTINUOUS
 62
             110
  5
1E0
 10
248.64410283058049
 20
-65.691876062249406
 30
0.0
  0
VERTEX
  8
LY_3
  6
CONTINUOUS
 62
             110
  5
1E1
 10
248.56911611034002
 20
-66.6428962263888
 30
0.0
  0
VERTEX
  8
LY_3
  6
CONTINUOUS
 62
             110
  5
1E2
 10
248.50991556696846
 20
-67.585642952708824
 30
0.0
  0
VERTEX
  8
LY_3
  6
CONTINUOUS
 62
             110
  5
1E3
 10
248.46615296481542
 20
-68.529846819057525
 30
0.0
  0
VERTEX
  8
LY_3
  6
CONTINUOUS
 62
             110
  5
1E4
 10
248.43755495871991
 20
-69.475211530976154
 30
0.0
  0
VERTEX
  8
LY_3
  6
CONTINUOUS
 62
             110
  5
1E5
 10
248.42384820352098
 20
-70.421440794005932
 30
0.0
  0
VERTEX
  8
LY_3
  6
CONTINUOUS
 62
             110
  5
1E6
 10
248.42475935405758
 20
-71.368238313688138
 30
0.0
  0
VERTEX
  8
LY_3
  6
CONTINUOUS
 62
             110
  5
1E7
 10
248.44001506516878
 20
-72.315307795563996
 30
0.0
  0
VERTEX
  8
LY_3
  6
CONTINUOUS
 62
             110
  5
1E8
 10
248.46934199169357
 20
-73.262352945174769
 30
0.0
  0
VERTEX
  8
LY_3
  6
CONTINUOUS
 62
             110
  5
1E9
 10
248.51246678847096
 20
-74.209077468061707
 30
0.0
  0
VERTEX
  8
LY_3
  6
CONTINUOUS
 62
             110
  5
1EA
 10
248.56911611034002
 20
-75.155185069766048
 30
0.0
  0
VERTEX
  8
LY_3
  6
CONTINUOUS
 62
             110
  5
1EB
 10
248.64084852797944
 20
-76.12223281142731
 30
0.0
  0
VERTEX
  8
LY_3
  6
CONTINUOUS
 62
             110
  5
1EC
 10
248.72652516530835
 20
-77.088067381826292
 30
0.0
  0
VERTEX
  8
LY_3
  6
CONTINUOUS
 62
             110
  5
1ED
 10
248.82621914069662
 20
-78.05243154771938
 30
0.0
  0
VERTEX
  8
LY_3
  6
CONTINUOUS
 62
             110
  5
1EE
 10
248.9400035725142
 20
-79.015068075862956
 30
0.0
  0
VERTEX
  8
LY_3
  6
CONTINUOUS
 62
             110
  5
1EF
 10
249.06795157913098
 20
-79.975719733013364
 30
0.0
  0
VERTEX
  8
LY_3
  6
CONTINUOUS
 62
             110
  5
1F0
 10
249.21013627891691
 20
-80.934129285927014
 30
0.0
  0
VERTEX
  8
LY_3
  6
CONTINUOUS
 62
             110
  5
1F1
 10
249.36663079024186
 20
-81.890039501360278
 30
0.0
  0
VERTEX
  8
LY_3
  6
CONTINUOUS
 62
             110
  5
1F2
 10
249.53750823147581
 20
-82.84319314606951
 30
0.0
  0
VERTEX
  8
LY_3
  6
CONTINUOUS
 62
             110
  5
1F3
 10
249.72284172098861
 20
-83.793332986811109
 30
0.0
  0
VERTEX
  8
LY_3
  6
CONTINUOUS
 62
             110
  5
1F4
 10
249.92270437715024
 20
-84.74020179034143
 30
0.0
  0
VERTEX
  8
LY_3
  6
CONTINUOUS
 62
             110
  5
1F5
 10
250.13716931833056
 20
-85.683542323416873
 30
0.0
  0
VERTEX
  8
LY_3
  6
CONTINUOUS
 62
             110
  5
1F6
 10
250.3647637038186
 20
-86.618401540452126
 30
0.0
  0
VERTEX
  8
LY_3
  6
CONTINUOUS
 62
             110
  5
1F7
 10
250.60498774778884
 20
-87.550065665164709
 30
0.0
  0
VERTEX
  8
LY_3
  6
CONTINUOUS
 62
             110
  5
1F8
 10
250.85594651545819
 20
-88.479086207629862
 30
0.0
  0
VERTEX
  8
LY_3
  6
CONTINUOUS
 62
             110
  5
1F9
 10
251.11574507204338
 20
-89.406014677922812
 30
0.0
  0
VERTEX
  8
LY_3
  6
CONTINUOUS
 62
             110
  5
1FA
 10
251.38248848276132
 20
-90.33140258611877
 30
0.0
  0
VERTEX
  8
LY_3
  6
CONTINUOUS
 62
             110
  5
1FB
 10
251.6542818128288
 20
-91.255801442292949
 30
0.0
  0
VERTEX
  8
LY_3
  6
CONTINUOUS
 62
             110
  5
1FC
 10
251.92923012746263
 20
-92.179762756520574
 30
0.0
  0
VERTEX
  8
LY_3
  6
CONTINUOUS
 62
             110
  5
1FD
 10
252.21156990514874
 20
-93.125083701434534
 30
0.0
  0
VERTEX
  8
LY_3
  6
CONTINUOUS
 62
             110
  5
1FE
 10
252.49190008527722
 20
-94.071123334882529
 30
0.0
  0
VERTEX
  8
LY_3
  6
CONTINUOUS
 62
             110
  5
1FF
 10
252.76689243428376
 20
-95.018481078302898
 30
0.0
  0
VERTEX
  8
LY_3
  6
CONTINUOUS
 62
             110
  5
200
 10
253.03321871860405
 20
-95.96775635313395
 30
0.0
  0
VERTEX
  8
LY_3
  6
CONTINUOUS
 62
             110
  5
201
 10
253.28755070467375
 20
-96.919548580814038
 30
0.0
  0
VERTEX
  8
LY_3
  6
CONTINUOUS
 62
             110
  5
202
 10
253.52656015892853
 20
-97.874457182781484
 30
0.0
  0
VERTEX
  8
LY_3
  6
CONTINUOUS
 62
             110
  5
203
 10
253.74691884780412
 20
-98.833081580474627
 30
0.0
  0
VERTEX
  8
LY_3
  6
CONTINUOUS
 62
             110
  5
204
 10
253.94529853773616
 20
-99.796021195331804
 30
0.0
  0
VERTEX
  8
LY_3
  6
CONTINUOUS
 62
             110
  5
205
 10
254.11121344479599
 20
-100.71594901359319
 30
0.0
  0
VERTEX
  8
LY_3
  6
CONTINUOUS
 62
             110
  5
206
 10
254.25570200619649
 20
-101.63985811518214
 30
0.0
  0
VERTEX
  8
LY_3
  6
CONTINUOUS
 62
             110
  5
207
 10
254.38021508708925
 20
-102.56728705254552
 30
0.0
  0
VERTEX
  8
LY_3
  6
CONTINUOUS
 62
             110
  5
208
 10
254.48620355262599
 20
-103.4977743781303
 30
0.0
  0
VERTEX
  8
LY_3
  6
CONTINUOUS
 62
             110
  5
209
 10
254.57511826795837
 20
-104.43085864438335
 30
0.0
  0
VERTEX
  8
LY_3
  6
CONTINUOUS
 62
             110
  5
20A
 10
254.64841009823803
 20
-105.36607840375159
 30
0.0
  0
VERTEX
  8
LY_3
  6
CONTINUOUS
 62
             110
  5
20B
 10
254.70752990861664
 20
-106.30297220868194
 30
0.0
  0
VERTEX
  8
LY_3
  6
CONTINUOUS
 62
             110
  5
20C
 10
254.75392856424588
 20
-107.2410786116213
 30
0.0
  0
VERTEX
  8
LY_3
  6
CONTINUOUS
 62
             110
  5
20D
 10
254.78905693027738
 20
-108.17993616501658
 30
0.0
  0
VERTEX
  8
LY_3
  6
CONTINUOUS
 62
             110
  5
20E
 10
254.81436587186283
 20
-109.11908342131471
 30
0.0
  0
VERTEX
  8
LY_3
  6
CONTINUOUS
 62
             110
  5
20F
 10
254.83130625415387
 20
-110.0580589329626
 30
0.0
  0
VERTEX
  8
LY_3
  6
CONTINUOUS
 62
             110
  5
210
 10
254.8413289423022
 20
-110.99640125240714
 30
0.0
  0
VERTEX
  8
LY_3
  6
CONTINUOUS
 62
             110
  5
211
 10
254.84598290428133
 20
-111.99304193562453
 30
0.0
  0
VERTEX
  8
LY_3
  6
CONTINUOUS
 62
             110
  5
212
 10
254.8459614820903
 20
-112.9887374923922
 30
0.0
  0
VERTEX
  8
LY_3
  6
CONTINUOUS
 62
             110
  5
213
 10
254.84276977301855
 20
-113.98378033281605
 30
0.0
  0
VERTEX
  8
LY_3
  6
CONTINUOUS
 62
             110
  5
214
 10
254.83791287435554
 20
-114.97846286700194
 30
0.0
  0
VERTEX
  8
LY_3
  6
CONTINUOUS
 62
             110
  5
215
 10
254.83289588339071
 20
-115.97307750505573
 30
0.0
  0
VERTEX
  8
LY_3
  6
CONTINUOUS
 62
             110
  5
216
 10
254.82922389741353
 20
-116.96791665708329
 30
0.0
  0
VERTEX
  8
LY_3
  6
CONTINUOUS
 62
             110
  5
217
 10
254.8284020137134
 20
-117.96327273319052
 30
0.0
  0
VERTEX
  8
LY_3
  6
CONTINUOUS
 62
             110
  5
218
 10
254.83193532957981
 20
-118.95943814348327
 30
0.0
  0
VERTEX
  8
LY_3
  6
CONTINUOUS
 62
             110
  5
219
 10
254.8413289423022
 20
-119.95670529806742
 30
0.0
  0
VERTEX
  8
LY_3
  6
CONTINUOUS
 62
             110
  5
21A
 10
254.85591848421893
 20
-120.91189166217195
 30
0.0
  0
VERTEX
  8
LY_3
  6
CONTINUOUS
 62
             110
  5
21B
 10
254.87094568621285
 20
-121.86762826447034
 30
0.0
  0
VERTEX
  8
LY_3
  6
CONTINUOUS
 62
             110
  5
21C
 10
254.88010736223688
 20
-122.82318940597234
 30
0.0
  0
VERTEX
  8
LY_3
  6
CONTINUOUS
 62
             110
  5
21D
 10
254.87710032624395
 20
-123.77784938768772
 30
0.0
  0
VERTEX
  8
LY_3
  6
CONTINUOUS
 62
             110
  5
21E
 10
254.85562139218695
 20
-124.73088251062629
 30
0.0
  0
VERTEX
  8
LY_3
  6
CONTINUOUS
 62
             110
  5
21F
 10
254.80936737401879
 20
-125.68156307579777
 30
0.0
  0
VERTEX
  8
LY_3
  6
CONTINUOUS
 62
             110
  5
220
 10
254.73203508569242
 20
-126.62916538421197
 30
0.0
  0
VERTEX
  8
LY_3
  6
CONTINUOUS
 62
             110
  5
221
 10
254.6173213411607
 20
-127.57296373687865
 30
0.0
  0
VERTEX
  8
LY_3
  6
CONTINUOUS
 62
             110
  5
222
 10
254.46578252738462
 20
-128.48371953262478
 30
0.0
  0
VERTEX
  8
LY_3
  6
CONTINUOUS
 62
             110
  5
223
 10
254.27558680597608
 20
-129.38866422069921
 30
0.0
  0
VERTEX
  8
LY_3
  6
CONTINUOUS
 62
             110
  5
224
 10
254.04915669088481
 20
-130.28624621318357
 30
0.0
  0
VERTEX
  8
LY_3
  6
CONTINUOUS
 62
             110
  5
225
 10
253.7889146960606
 20
-131.17491392215953
 30
0.0
  0
VERTEX
  8
LY_3
  6
CONTINUOUS
 62
             110
  5
226
 10
253.49728333545318
 20
-132.05311575970879
 30
0.0
  0
VERTEX
  8
LY_3
  6
CONTINUOUS
 62
             110
  5
227
 10
253.22934933442508
 20
-132.78616610455722
 30
0.0
  0
VERTEX
  8
LY_3
  6
CONTINUOUS
 62
             110
  5
228
 10
252.94832106080264
 20
-133.51377768249006
 30
0.0
  0
VERTEX
  8
LY_3
  6
CONTINUOUS
 62
             110
  5
229
 10
252.66176442307858
 20
-134.23908300274212
 30
0.0
  0
VERTEX
  8
LY_3
  6
CONTINUOUS
 62
             110
  5
22A
 10
252.37724532974562
 20
-134.96521457454838
 30
0.0
  0
VERTEX
  8
LY_3
  6
CONTINUOUS
 62
             110
  5
22B
 10
252.09372950908232
 20
-135.71195028149364
 30
0.0
  0
SEQEND
  8
LY_3
  6
CONTINUOUS
 62
             110
  5
22C
  0
TEXT
  8
LY_3
  6
CONTINUOUS
 62
             110
  5
CA
 10
28.749998648961384
 20
-364.0
 30
0.0
 40
8.0
  1
VP7050
 41
0.9380000233650208
  7
MX_NOTE_STANDARD
 11
28.749998648961384
 21
-356.0
 31
0.0
 73
               3
  0
ARC
  8
LY_3
  6
CONTINUOUS
 62
               3
  5
CB
 10
128.15099000000001
 20
-296.0
 30
0.0
 40
1.5
 50
195.00000199999999
 51
270.0
  0
ARC
  8
LY_3
  6
CONTINUOUS
 62
               3
  5
CC
 10
86.0
 20
-338.15098999999998
 30
0.0
 40
1.5
 50
0.0
 51
74.999998000000005
  0
ARC
  8
LY_3
  6
CONTINUOUS
 62
               3
  5
CD
 10
-28.15099
 20
-296.0
 30
0.0
 40
1.5
 50
270.0
 51
344.99999800000001
  0
POLYLINE
  8
LY_3
  6
CONTINUOUS
 62
               3
  5
CE
 66
               1
 10
0.0
 20
0.0
 30
0.0
  0
VERTEX
  8
LY_3
  6
CONTINUOUS
 62
               3
  5
22D
 10
26.329785795325094
 20
-229.75000381469724
 30
0.0
  0
VERTEX
  8
LY_3
  6
CONTINUOUS
 62
               3
  5
22E
 10
26.516295728352745
 20
-230.66268775129032
 30
0.0
  0
VERTEX
  8
LY_3
  6
CONTINUOUS
 62
               3
  5
22F
 10
26.597959132537483
 20
-231.59702918509464
 30
0.0
  0
VERTEX
  8
LY_3
  6
CONTINUOUS
 62
               3
  5
230
 10
26.55217405820239
 20
-232.53216935165921
 30
0.0
  0
VERTEX
  8
LY_3
  6
CONTINUOUS
 62
               3
  5
231
 10
26.356338555670561
 20
-233.44724948653294
 30
0.0
  0
VERTEX
  8
LY_3
  6
CONTINUOUS
 62
               3
  5
232
 10
26.007791870966205
 20
-234.32236330828067
 30
0.0
  0
VERTEX
  8
LY_3
  6
CONTINUOUS
 62
               3
  5
233
 10
25.570799957209793
 20
-235.16985053310484
 30
0.0
  0
VERTEX
  8
LY_3
  6
CONTINUOUS
 62
               3
  5
234
 10
25.127695948107689
 20
-236.00255921665951
 30
0.0
  0
VERTEX
  8
LY_3
  6
CONTINUOUS
 62
               3
  5
235
 10
24.760812977366257
 20
-236.83333741459882
 30
0.0
  0
VERTEX
  8
LY_3
  6
CONTINUOUS
 62
               3
  5
236
 10
24.552484178691856
 20
-237.67503318257684
 30
0.0
  0
VERTEX
  8
LY_3
  6
CONTINUOUS
 62
               3
  5
237
 10
24.552904095890533
 20
-238.47388054308746
 30
0.0
  0
VERTEX
  8
LY_3
  6
CONTINUOUS
 62
               3
  5
238
 10
24.706975777701718
 20
-239.28918448186303
 30
0.0
  0
VERTEX
  8
LY_3
  6
CONTINUOUS
 62
               3
  5
239
 10
24.961341919715075
 20
-240.11697833388624
 30
0.0
  0
VERTEX
  8
LY_3
  6
CONTINUOUS
 62
               3
  5
23A
 10
25.262645217520255
 20
-240.9532954341397
 30
0.0
  0
VERTEX
  8
LY_3
  6
CONTINUOUS
 62
               3
  5
23B
 10
25.557528366706919
 20
-241.79416911760617
 30
0.0
  0
VERTEX
  8
LY_3
  6
CONTINUOUS
 62
               3
  5
23C
 10
25.792634062864721
 20
-242.6356327192683
 30
0.0
  0
VERTEX
  8
LY_3
  6
CONTINUOUS
 62
               3
  5
23D
 10
25.929758567480118
 20
-243.51368406298238
 30
0.0
  0
VERTEX
  8
LY_3
  6
CONTINUOUS
 62
               3
  5
23E
 10
25.960446234265977
 20
-244.38952737443711
 30
0.0
  0
VERTEX
  8
LY_3
  6
CONTINUOUS
 62
               3
  5
23F
 10
25.902199404111734
 20
-245.26465384906672
 30
0.0
  0
VERTEX
  8
LY_3
  6
CONTINUOUS
 62
               3
  5
240
 10
25.77252041790684
 20
-246.14055468230535
 30
0.0
  0
VERTEX
  8
LY_3
  6
CONTINUOUS
 62
               3
  5
241
 10
25.588911616540731
 20
-247.01872106958726
 30
0.0
  0
VERTEX
  8
LY_3
  6
CONTINUOUS
 62
               3
  5
242
 10
25.36887534090285
 20
-247.90064420634656
 30
0.0
  0
VERTEX
  8
LY_3
  6
CONTINUOUS
 62
               3
  5
243
 10
25.129913931882641
 20
-248.78781528801747
 30
0.0
  0
VERTEX
  8
LY_3
  6
CONTINUOUS
 62
               3
  5
244
 10
24.889529730369549
 20
-249.68172551003414
 30
0.0
  0
VERTEX
  8
LY_3
  6
CONTINUOUS
 62
               3
  5
245
 10
24.665225077253012
 20
-250.58386606783083
 30
0.0
  0
VERTEX
  8
LY_3
  6
CONTINUOUS
 62
               3
  5
246
 10
24.462384495807555
 20
-251.54702182341455
 30
0.0
  0
VERTEX
  8
LY_3
  6
CONTINUOUS
 62
               3
  5
247
 10
24.302012045918907
 20
-252.51677113848368
 30
0.0
  0
VERTEX
  8
LY_3
  6
CONTINUOUS
 62
               3
  5
248
 10
24.189056630107395
 20
-253.48884623136729
 30
0.0
  0
VERTEX
  8
LY_3
  6
CONTINUOUS
 62
               3
  5
249
 10
24.128467150893339
 20
-254.45897932039446
 30
0.0
  0
VERTEX
  8
LY_3
  6
CONTINUOUS
 62
               3
  5
24A
 10
24.125192510797064
 20
-255.42290262389423
 30
0.0
  0
VERTEX
  8
LY_3
  6
CONTINUOUS
 62
               3
  5
24B
 10
24.1841816123389
 20
-256.37634836019572
 30
0.0
  0
VERTEX
  8
LY_3
  6
CONTINUOUS
 62
               3
  5
24C
 10
24.310383358039164
 20
-257.31504874762794
 30
0.0
  0
VERTEX
  8
LY_3
  6
CONTINUOUS
 62
               3
  5
24D
 10
24.508746650418185
 20
-258.23473600452002
 30
0.0
  0
VERTEX
  8
LY_3
  6
CONTINUOUS
 62
               3
  5
24E
 10
24.784220391996286
 20
-259.13114234920101
 30
0.0
  0
VERTEX
  8
LY_3
  6
CONTINUOUS
 62
               3
  5
24F
 10
25.141753485293791
 20
-260.0
 30
0.0
  0
SEQEND
  8
LY_3
  6
CONTINUOUS
 62
               3
  5
250
  0
LINE
  8
LY_3
  6
CONTINUOUS
 62
               3
  5
CF
 10
19.750003999999997
 20
-291.85000400000001
 30
0.0
 11
80.250004000000004
 21
-291.85000400000001
 31
0.0
  0
ARC
  8
LY_3
  6
CONTINUOUS
 62
               3
  5
D0
 10
81.850003999999998
 20
-291.85000400000001
 30
0.0
 40
1.6000000000000001
 50
90.0
 51
180.0
  0
ARC
  8
LY_3
  6
CONTINUOUS
 62
               3
  5
D1
 10
18.150004000000003
 20
-291.85000400000001
 30
0.0
 40
1.6000000000000001
 50
0.0
 51
90.0
  0
LINE
  8
LY_3
  6
CONTINUOUS
 62
               3
  5
D2
 10
81.850003999999998
 20
-290.25000399999999
 30
0.0
 11
110.0
 21
-290.25000399999999
 31
0.0
  0
LINE
  8
LY_3
  6
CONTINUOUS
 62
               3
  5
D3
 10
19.750003999999997
 20
-320.0
 30
0.0
 11
80.250004000000004
 21
-320.0
 31
0.0
  0
LINE
  8
LY_3
  6
CONTINUOUS
 62
               3
  5
D4
 10
80.250004000000004
 20
-320.0
 30
0.0
 11
80.250004000000004
 21
-291.85000400000001
 31
0.0
  0
LINE
  8
LY_3
  6
CONTINUOUS
 62
               3
  5
D5
 10
19.750003999999997
 20
-320.0
 30
0.0
 11
19.750003999999997
 21
-291.85000400000001
 31
0.0
  0
LINE
  8
LY_3
  6
CONTINUOUS
 62
               3
  5
D6
 10
13.611772999999999
 20
-336.70209999999997
 30
0.0
 11
19.75
 21
-335.057367
 31
0.0
  0
ARC
  8
LY_3
  6
CONTINUOUS
 62
               3
  5
D7
 10
14.0
 20
-338.15098599999999
 30
0.0
 40
1.5
 50
105.000052
 51
179.99998200000002
  0
LINE
  8
LY_3
  6
CONTINUOUS
 62
               3
  5
D8
 10
19.75
 20
-335.057367
 30
0.0
 11
19.75
 21
-320.0
 31
0.0
  0
LINE
  8
LY_3
  6
CONTINUOUS
 62
               3
  5
D9
 10
12.5
 20
-340.0
 30
0.0
 11
12.5
 21
-338.15098599999999
 31
0.0
  0
LINE
  8
LY_3
  6
CONTINUOUS
 62
               3
  5
DA
 10
87.5
 20
-340.0
 30
0.0
 11
87.5
 21
-338.15098999999998
 31
0.0
  0
LINE
  8
LY_3
  6
CONTINUOUS
 62
               3
  5
DB
 10
86.388228999999995
 20
-336.70210099999997
 30
0.0
 11
80.25
 21
-335.057367
 31
0.0
  0
LINE
  8
LY_3
  6
CONTINUOUS
 62
               3
  5
DC
 10
80.25
 20
-335.057367
 30
0.0
 11
19.75
 21
-335.057367
 31
0.0
  0
LINE
  8
LY_3
  6
CONTINUOUS
 62
               3
  5
DD
 10
80.25
 20
-335.057367
 30
0.0
 11
80.25
 21
-320.0
 31
0.0
  0
LINE
  8
LY_3
  6
CONTINUOUS
 62
               3
  5
DE
 10
12.5
 20
-340.0
 30
0.0
 11
87.5
 21
-340.0
 31
0.0
  0
LINE
  8
LY_3
  6
CONTINUOUS
 62
               3
  5
DF
 10
13.038110000000003
 20
-337.0
 30
0.0
 11
86.961884999999995
 21
-337.0
 31
0.0
  0
LINE
  8
LY_3
  6
CONTINUOUS
 62
               3
  5
E0
 10
110.0
 20
-229.75
 30
0.0
 11
110.0
 21
-290.25
 31
0.0
  0
LINE
  8
LY_3
  6
CONTINUOUS
 62
               3
  5
E1
 10
130.0
 20
-222.5
 30
0.0
 11
128.15098599999999
 21
-222.5
 31
0.0
  0
LINE
  8
LY_3
  6
CONTINUOUS
 62
               3
  5
E2
 10
126.7021
 20
-223.611773
 30
0.0
 11
125.057367
 21
-229.75
 31
0.0
  0
ARC
  8
LY_3
  6
CONTINUOUS
 62
               3
  5
E3
 10
128.15098599999999
 20
-224.0
 30
0.0
 40
1.5
 50
90.000017999999997
 51
164.99994799999999
  0
LINE
  8
LY_3
  6
CONTINUOUS
 62
               3
  5
E4
 10
125.057367
 20
-229.75
 30
0.0
 11
110.0
 21
-229.75
 31
0.0
  0
LINE
  8
LY_3
  6
CONTINUOUS
 62
               3
  5
E5
 10
130.0
 20
-297.5
 30
0.0
 11
128.15099000000001
 21
-297.5
 31
0.0
  0
LINE
  8
LY_3
  6
CONTINUOUS
 62
               3
  5
E6
 10
126.702101
 20
-296.38822900000002
 30
0.0
 11
125.057367
 21
-290.25
 31
0.0
  0
LINE
  8
LY_3
  6
CONTINUOUS
 62
               3
  5
E7
 10
125.057367
 20
-290.25
 30
0.0
 11
125.057367
 21
-229.75
 31
0.0
  0
LINE
  8
LY_3
  6
CONTINUOUS
 62
               3
  5
E8
 10
125.057367
 20
-290.25
 30
0.0
 11
110.0
 21
-290.25
 31
0.0
  0
LINE
  8
LY_3
  6
CONTINUOUS
 62
               3
  5
E9
 10
130.0
 20
-222.5
 30
0.0
 11
130.0
 21
-297.5
 31
0.0
  0
LINE
  8
LY_3
  6
CONTINUOUS
 62
               3
  5
EA
 10
127.0
 20
-223.03811000000002
 30
0.0
 11
127.0
 21
-296.961885
 31
0.0
  0
LINE
  8
LY_3
  6
CONTINUOUS
 62
               3
  5
EB
 10
-25.057366999999999
 20
-290.25
 30
0.0
 11
-25.057366999999999
 21
-260.0
 31
0.0
  0
LINE
  8
LY_3
  6
CONTINUOUS
 62
               3
  5
EC
 10
-26.702100999999999
 20
-296.38822900000002
 30
0.0
 11
-25.057366999999999
 21
-290.25
 31
0.0
  0
LINE
  8
LY_3
  6
CONTINUOUS
 62
               3
  5
ED
 10
-25.057366999999999
 20
-290.25
 30
0.0
 11
-10.0
 21
-290.25
 31
0.0
  0
LINE
  8
LY_3
  6
CONTINUOUS
 62
               3
  5
EE
 10
-10.0
 20
-290.25000399999999
 30
0.0
 11
18.150004000000003
 21
-290.25000399999999
 31
0.0
  0
LINE
  8
LY_3
  6
CONTINUOUS
 62
               3
  5
EF
 10
-10.0
 20
-229.75000399999999
 30
0.0
 11
110.0
 21
-229.75000399999999
 31
0.0
  0
LINE
  8
LY_3
  6
CONTINUOUS
 62
               3
  5
F0
 10
-10.0
 20
-231.75
 30
0.0
 11
26.605490000000003
 21
-231.75
 31
0.0
  0
ARC
  8
LY_3
  6
CONTINUOUS
 62
               3
  5
F1
 10
-28.150986
 20
-224.0
 30
0.0
 40
1.5
 50
15.000052
 51
89.999982000000003
  0
LINE
  8
LY_3
  6
CONTINUOUS
 62
               3
  5
F2
 10
-10.0
 20
-229.75
 30
0.0
 11
-10.0
 21
-290.25
 31
0.0
  0
LINE
  8
LY_3
  6
CONTINUOUS
 62
               3
  5
F3
 10
-25.057366999999999
 20
-229.75
 30
0.0
 11
-10.0
 21
-229.75
 31
0.0
  0
LINE
  8
LY_3
  6
CONTINUOUS
 62
               3
  5
F4
 10
-26.702100000000002
 20
-223.611773
 30
0.0
 11
-25.057366999999999
 21
-229.75
 31
0.0
  0
LINE
  8
LY_3
  6
CONTINUOUS
 62
               3
  5
F5
 10
-30.0
 20
-222.5
 30
0.0
 11
-28.150986
 21
-222.5
 31
0.0
  0
LINE
  8
LY_3
  6
CONTINUOUS
 62
               3
  5
F6
 10
-30.0
 20
-222.5
 30
0.0
 11
-30.0
 21
-297.5
 31
0.0
  0
LINE
  8
LY_3
  6
CONTINUOUS
 62
               3
  5
F7
 10
-27.0
 20
-260.0
 30
0.0
 11
-27.0
 21
-296.961885
 31
0.0
  0
LINE
  8
LY_3
  6
CONTINUOUS
 62
               3
  5
F8
 10
-30.0
 20
-297.5
 30
0.0
 11
-28.15099
 21
-297.5
 31
0.0
  0
LINE
  8
LY_3
  6
CONTINUOUS
 62
               3
  5
F9
 10
-27.5
 20
-232.5
 30
0.0
 11
-10.0
 21
-232.5
 31
0.0
  0
LINE
  8
LY_3
  6
CONTINUOUS
 62
               3
  5
FA
 10
-27.5
 20
-232.5
 30
0.0
 11
-27.5
 21
-260.0
 31
0.0
  0
LINE
  8
LY_3
  6
CONTINUOUS
 62
               3
  5
FB
 10
-30.0
 20
-233.90000000000001
 30
0.0
 11
-27.5
 21
-233.90000000000001
 31
0.0
  0
LINE
  8
LY_3
  6
CENTER
 62
             110
  5
FC
 10
50.0
 20
-225.51960500000001
 30
0.0
 11
50.0
 21
-347.58960300000001
 31
0.0
  0
LINE
  8
LY_3
  6
CENTER
 62
             110
  5
FD
 10
-32.041410999999997
 20
-260.0
 30
0.0
 11
133.56010800000001
 21
-260.0
 31
0.0
  0
TEXT
  8
LY_3
  6
CONTINUOUS
 62
             110
  5
FE
 10
28.749998648961384
 20
-204.0
 30
0.0
 40
8.0
  1
VP7040
 41
0.9380000233650208
  7
MX_NOTE_STANDARD
 11
28.749998648961384
 21
-196.0
 31
0.0
 73
               3
  0
ARC
  8
LY_3
  6
CONTINUOUS
 62
               3
  5
FF
 10
113.15099000000001
 20
-146.0
 30
0.0
 40
1.5
 50
195.00000199999999
 51
270.0
  0
ARC
  8
LY_3
  6
CONTINUOUS
 62
               3
  5
100
 10
76.0
 20
-183.15099000000001
 30
0.0
 40
1.5
 50
0.0
 51
74.999998000000005
  0
ARC
  8
LY_3
  6
CONTINUOUS
 62
               3
  5
101
 10
-13.15099
 20
-146.0
 30
0.0
 40
1.5
 50
270.0
 51
344.99999800000001
  0
POLYLINE
  8
LY_3
  6
CONTINUOUS
 62
               3
  5
102
 66
               1
 10
0.0
 20
0.0
 30
0.0
  0
VERTEX
  8
LY_3
  6
CONTINUOUS
 62
               3
  5
251
 10
25.114007163919204
 20
-98.650003814697214
 30
0.0
  0
VERTEX
  8
LY_3
  6
CONTINUOUS
 62
               3
  5
252
 10
25.500260062581376
 20
-99.575683652864655
 30
0.0
  0
VERTEX
  8
LY_3
  6
CONTINUOUS
 62
               3
  5
253
 10
25.850476618060032
 20
-100.52393465572649
 30
0.0
  0
VERTEX
  8
LY_3
  6
CONTINUOUS
 62
               3
  5
254
 10
26.159319387412385
 20
-101.49081259017036
 30
0.0
  0
VERTEX
  8
LY_3
  6
CONTINUOUS
 62
               3
  5
255
 10
26.421450927695652
 20
-102.47237322308391
 30
0.0
  0
VERTEX
  8
LY_3
  6
CONTINUOUS
 62
               3
  5
256
 10
26.631533795967048
 20
-103.46467232135478
 30
0.0
  0
VERTEX
  8
LY_3
  6
CONTINUOUS
 62
               3
  5
257
 10
26.784230549283791
 20
-104.46376565187063
 30
0.0
  0
VERTEX
  8
LY_3
  6
CONTINUOUS
 62
               3
  5
258
 10
26.874203744703095
 20
-105.46570898151909
 30
0.0
  0
VERTEX
  8
LY_3
  6
CONTINUOUS
 62
               3
  5
259
 10
26.896115939282176
 20
-106.46655807718781
 30
0.0
  0
VERTEX
  8
LY_3
  6
CONTINUOUS
 62
               3
  5
25A
 10
26.84462969007825
 20
-107.46236870576445
 30
0.0
  0
VERTEX
  8
LY_3
  6
CONTINUOUS
 62
               3
  5
25B
 10
26.721340996050241
 20
-108.43994441424287
 30
0.0
  0
VERTEX
  8
LY_3
  6
CONTINUOUS
 62
               3
  5
25C
 10
26.546546359001297
 20
-109.41172685490123
 30
0.0
  0
VERTEX
  8
LY_3
  6
CONTINUOUS
 62
               3
  5
25D
 10
26.345817050912331
 20
-110.38071622810467
 30
0.0
  0
VERTEX
  8
LY_3
  6
CONTINUOUS
 62
               3
  5
25E
 10
26.144724343764256
 20
-111.34991273421831
 30
0.0
  0
VERTEX
  8
LY_3
  6
CONTINUOUS
 62
               3
  5
25F
 10
25.968839509537982
 20
-112.32231657360725
 30
0.0
  0
VERTEX
  8
LY_3
  6
CONTINUOUS
 62
               3
  5
260
 10
25.843733820214425
 20
-113.30092794663665
 30
0.0
  0
VERTEX
  8
LY_3
  6
CONTINUOUS
 62
               3
  5
261
 10
25.790199944192775
 20
-114.26508915192645
 30
0.0
  0
VERTEX
  8
LY_3
  6
CONTINUOUS
 62
               3
  5
262
 10
25.804363486101298
 20
-115.23385364794709
 30
0.0
  0
VERTEX
  8
LY_3
  6
CONTINUOUS
 62
               3
  5
263
 10
25.880990121113275
 20
-116.20302927786963
 30
0.0
  0
VERTEX
  8
LY_3
  6
CONTINUOUS
 62
               3
  5
264
 10
26.014845524401988
 20
-117.16842388486513
 30
0.0
  0
VERTEX
  8
LY_3
  6
CONTINUOUS
 62
               3
  5
265
 10
26.200695371140718
 20
-118.12584531210466
 30
0.0
  0
VERTEX
  8
LY_3
  6
CONTINUOUS
 62
               3
  5
266
 10
26.433305336502741
 20
-119.07110140275927
 30
0.0
  0
VERTEX
  8
LY_3
  6
CONTINUOUS
 62
               3
  5
267
 10
26.707441095661345
 20
-120.0
 30
0.0
  0
SEQEND
  8
LY_3
  6
CONTINUOUS
 62
               3
  5
268
  0
LINE
  8
LY_3
  6
CONTINUOUS
 62
               3
  5
103
 10
28.650004000000003
 20
-142.95000400000001
 30
0.0
 11
71.350003999999998
 21
-142.95000400000001
 31
0.0
  0
ARC
  8
LY_3
  6
CONTINUOUS
 62
               3
  5
104
 10
72.950004000000007
 20
-142.95000400000001
 30
0.0
 40
1.6000000000000001
 50
90.0
 51
180.0
  0
ARC
  8
LY_3
  6
CONTINUOUS
 62
               3
  5
105
 10
27.050004000000001
 20
-142.95000400000001
 30
0.0
 40
1.6000000000000001
 50
0.0
 51
90.0
  0
LINE
  8
LY_3
  6
CONTINUOUS
 62
               3
  5
106
 10
28.650004000000003
 20
-165.0
 30
0.0
 11
28.650004000000003
 21
-142.95000400000001
 31
0.0
  0
LINE
  8
LY_3
  6
CONTINUOUS
 62
               3
  5
107
 10
71.350003999999998
 20
-165.0
 30
0.0
 11
71.350003999999998
 21
-142.95000400000001
 31
0.0
  0
LINE
  8
LY_3
  6
CONTINUOUS
 62
               3
  5
108
 10
28.649999999999999
 20
-165.0
 30
0.0
 11
71.349999999999994
 21
-165.0
 31
0.0
  0
LINE
  8
LY_3
  6
CONTINUOUS
 62
               3
  5
109
 10
77.5
 20
-185.0
 30
0.0
 11
77.5
 21
-183.15099000000001
 31
0.0
  0
LINE
  8
LY_3
  6
CONTINUOUS
 62
               3
  5
10A
 10
76.388228999999995
 20
-181.702101
 30
0.0
 11
71.349999999999994
 21
-180.35211200000001
 31
0.0
  0
LINE
  8
LY_3
  6
CONTINUOUS
 62
               3
  5
10B
 10
71.349999999999994
 20
-180.35211200000001
 30
0.0
 11
28.649999999999999
 21
-180.35211200000001
 31
0.0
  0
LINE
  8
LY_3
  6
CONTINUOUS
 62
               3
  5
10C
 10
71.349999999999994
 20
-180.35211200000001
 30
0.0
 11
71.349999999999994
 21
-165.0
 31
0.0
  0
LINE
  8
LY_3
  6
CONTINUOUS
 62
               3
  5
10D
 10
23.038110000000003
 20
-182.0
 30
0.0
 11
76.961884999999995
 21
-182.0
 31
0.0
  0
LINE
  8
LY_3
  6
CONTINUOUS
 62
               3
  5
10E
 10
22.5
 20
-185.0
 30
0.0
 11
22.5
 21
-183.15098599999999
 31
0.0
  0
LINE
  8
LY_3
  6
CONTINUOUS
 62
               3
  5
10F
 10
23.611772999999999
 20
-181.7021
 30
0.0
 11
28.649999999999999
 21
-180.35211200000001
 31
0.0
  0
ARC
  8
LY_3
  6
CONTINUOUS
 62
               3
  5
110
 10
24.0
 20
-183.15098599999999
 30
0.0
 40
1.5
 50
105.000052
 51
179.99998200000002
  0
LINE
  8
LY_3
  6
CONTINUOUS
 62
               3
  5
111
 10
28.649999999999999
 20
-180.35211200000001
 30
0.0
 11
28.649999999999999
 21
-165.0
 31
0.0
  0
LINE
  8
LY_3
  6
CONTINUOUS
 62
               3
  5
112
 10
22.5
 20
-185.0
 30
0.0
 11
77.5
 21
-185.0
 31
0.0
  0
LINE
  8
LY_3
  6
CONTINUOUS
 62
               3
  5
113
 10
95.0
 20
-141.35000400000001
 30
0.0
 11
72.950004000000007
 21
-141.35000400000001
 31
0.0
  0
LINE
  8
LY_3
  6
CONTINUOUS
 62
               3
  5
114
 10
95.0
 20
-98.650000000000006
 30
0.0
 11
95.0
 21
-141.34999999999999
 31
0.0
  0
LINE
  8
LY_3
  6
CONTINUOUS
 62
               3
  5
115
 10
115.0
 20
-147.5
 30
0.0
 11
113.15099000000001
 21
-147.5
 31
0.0
  0
LINE
  8
LY_3
  6
CONTINUOUS
 62
               3
  5
116
 10
111.702101
 20
-146.388229
 30
0.0
 11
110.35211200000001
 21
-141.34999999999999
 31
0.0
  0
LINE
  8
LY_3
  6
CONTINUOUS
 62
               3
  5
117
 10
110.35211200000001
 20
-141.34999999999999
 30
0.0
 11
95.0
 21
-141.34999999999999
 31
0.0
  0
LINE
  8
LY_3
  6
CONTINUOUS
 62
               3
  5
118
 10
110.35211200000001
 20
-141.34999999999999
 30
0.0
 11
110.35211200000001
 21
-98.650000000000006
 31
0.0
  0
LINE
  8
LY_3
  6
CONTINUOUS
 62
               3
  5
119
 10
112.0
 20
-93.038110000000003
 30
0.0
 11
112.0
 21
-146.961885
 31
0.0
  0
LINE
  8
LY_3
  6
CONTINUOUS
 62
               3
  5
11A
 10
115.0
 20
-92.5
 30
0.0
 11
113.15098599999999
 21
-92.5
 31
0.0
  0
LINE
  8
LY_3
  6
CONTINUOUS
 62
               3
  5
11B
 10
111.7021
 20
-93.611772999999999
 30
0.0
 11
110.35211200000001
 21
-98.650000000000006
 31
0.0
  0
ARC
  8
LY_3
  6
CONTINUOUS
 62
               3
  5
11C
 10
113.15098599999999
 20
-94.0
 30
0.0
 40
1.5
 50
90.000017999999997
 51
164.99994799999999
  0
LINE
  8
LY_3
  6
CONTINUOUS
 62
               3
  5
11D
 10
110.35211200000001
 20
-98.650000000000006
 30
0.0
 11
95.0
 21
-98.650000000000006
 31
0.0
  0
LINE
  8
LY_3
  6
CONTINUOUS
 62
               3
  5
11E
 10
115.0
 20
-92.5
 30
0.0
 11
115.0
 21
-147.5
 31
0.0
  0
LINE
  8
LY_3
  6
CONTINUOUS
 62
               3
  5
11F
 10
-10.352112
 20
-141.34999999999999
 30
0.0
 11
-10.352112
 21
-120.0
 31
0.0
  0
LINE
  8
LY_3
  6
CONTINUOUS
 62
               3
  5
120
 10
-11.702100999999999
 20
-146.388229
 30
0.0
 11
-10.352112
 21
-141.34999999999999
 31
0.0
  0
LINE
  8
LY_3
  6
CONTINUOUS
 62
               3
  5
121
 10
-10.352112
 20
-141.34999999999999
 30
0.0
 11
5.0
 21
-141.34999999999999
 31
0.0
  0
LINE
  8
LY_3
  6
CONTINUOUS
 62
               3
  5
122
 10
5.0
 20
-141.35000400000001
 30
0.0
 11
27.050004000000001
 21
-141.35000400000001
 31
0.0
  0
LINE
  8
LY_3
  6
CONTINUOUS
 62
               3
  5
123
 10
5.0
 20
-98.650003999999996
 30
0.0
 11
95.0
 21
-98.650003999999996
 31
0.0
  0
LINE
  8
LY_3
  6
CONTINUOUS
 62
               3
  5
124
 10
5.0
 20
-100.65000000000001
 30
0.0
 11
26.148482999999999
 21
-100.65000000000001
 31
0.0
  0
ARC
  8
LY_3
  6
CONTINUOUS
 62
               3
  5
125
 10
-13.150986
 20
-94.0
 30
0.0
 40
1.5
 50
15.000052
 51
89.999982000000003
  0
LINE
  8
LY_3
  6
CONTINUOUS
 62
               3
  5
126
 10
5.0
 20
-98.650000000000006
 30
0.0
 11
5.0
 21
-141.34999999999999
 31
0.0
  0
LINE
  8
LY_3
  6
CONTINUOUS
 62
               3
  5
127
 10
-10.352112
 20
-98.650000000000006
 30
0.0
 11
5.0
 21
-98.650000000000006
 31
0.0
  0
LINE
  8
LY_3
  6
CONTINUOUS
 62
               3
  5
128
 10
-11.7021
 20
-93.611772999999999
 30
0.0
 11
-10.352112
 21
-98.650000000000006
 31
0.0
  0
LINE
  8
LY_3
  6
CONTINUOUS
 62
               3
  5
129
 10
-15.0
 20
-92.5
 30
0.0
 11
-13.150986
 21
-92.5
 31
0.0
  0
LINE
  8
LY_3
  6
CONTINUOUS
 62
               3
  5
12A
 10
-15.0
 20
-92.5
 30
0.0
 11
-15.0
 21
-147.5
 31
0.0
  0
LINE
  8
LY_3
  6
CONTINUOUS
 62
               3
  5
12B
 10
-12.0
 20
-120.0
 30
0.0
 11
-12.0
 21
-146.961885
 31
0.0
  0
LINE
  8
LY_3
  6
CONTINUOUS
 62
               3
  5
12C
 10
-15.0
 20
-147.5
 30
0.0
 11
-13.15099
 21
-147.5
 31
0.0
  0
LINE
  8
LY_3
  6
CONTINUOUS
 62
               3
  5
12D
 10
-12.5
 20
-100.5
 30
0.0
 11
5.0
 21
-100.5
 31
0.0
  0
LINE
  8
LY_3
  6
CONTINUOUS
 62
               3
  5
12E
 10
-12.5
 20
-99.400002000000001
 30
0.0
 11
-12.5
 21
-120.0
 31
0.0
  0
LINE
  8
LY_3
  6
CONTINUOUS
 62
               3
  5
12F
 10
-15.0
 20
-99.400000000000006
 30
0.0
 11
-12.5
 21
-99.400000000000006
 31
0.0
  0
LINE
  8
LY_3
  6
CENTER
 62
             110
  5
130
 10
50.0
 20
-92.530615999999995
 30
0.0
 11
50.0
 21
-190.35117400000001
 31
0.0
  0
LINE
  8
LY_3
  6
CENTER
 62
             110
  5
131
 10
-21.423287999999999
 20
-120.0
 30
0.0
 11
122.964246
 21
-120.0
 31
0.0
  0
TEXT
  8
LY_3
  6
CONTINUOUS
 62
             110
  5
132
 10
28.716214870228796
 20
-74.0
 30
0.0
 40
8.0
  1
VP7025
 41
0.9120000088150435
  7
MX_NOTE_STANDARD
 11
28.716214870228796
 21
-66.0
 31
0.0
 73
               3
  0
LINE
  8
LY_3
  6
CENTER
 62
             110
  5
133
 10
-5.0
 20
0.0
 30
0.0
 11
105.0
 21
0.0
 31
0.0
  0
LINE
  8
LY_3
  6
CENTER
 62
             110
  5
134
 10
50.0
 20
17.666664000000001
 30
0.0
 11
50.0
 21
-55.0
 31
0.0
  0
LINE
  8
LY_3
  6
CONTINUOUS
 62
               3
  5
135
 10
100.000004
 20
-20.000008000000001
 30
0.0
 11
100.000004
 21
19.999991999999999
 31
0.0
  0
LINE
  8
LY_3
  6
CONTINUOUS
 62
               3
  5
136
 10
100.0
 20
-20.000004000000001
 30
0.0
 11
98.150986000000003
 21
-20.000004000000001
 31
0.0
  0
LINE
  8
LY_3
  6
CONTINUOUS
 62
               3
  5
137
 10
100.0
 20
20.0
 30
0.0
 11
98.150986000000003
 21
20.0
 31
0.0
  0
LINE
  8
LY_3
  6
CONTINUOUS
 62
               3
  5
138
 10
63.600002000000003
 20
-45.285125999999998
 30
0.0
 11
63.600002000000003
 21
-15.200001
 31
0.0
  0
LINE
  8
LY_3
  6
CONTINUOUS
 62
               3
  5
139
 10
36.400005
 20
-45.285125999999998
 30
0.0
 11
36.400005
 21
-15.200001
 31
0.0
  0
LINE
  8
LY_3
  6
CONTINUOUS
 62
               3
  5
13A
 10
96.702095
 20
-18.888238000000001
 30
0.0
 11
95.285117999999997
 21
-13.600009
 31
0.0
  0
LINE
  8
LY_3
  6
CONTINUOUS
 62
               3
  5
13B
 10
96.702100999999999
 20
18.888223
 30
0.0
 11
95.285123999999996
 21
13.599995
 31
0.0
  0
LINE
  8
LY_3
  6
CONTINUOUS
 62
               3
  5
13C
 10
97.000004000000004
 20
-19.461903
 30
0.0
 11
97.000004000000004
 21
19.461876
 31
0.0
  0
LINE
  8
LY_3
  6
CONTINUOUS
 62
               3
  5
13D
 10
95.285129999999995
 20
-13.600002
 30
0.0
 11
95.285129999999995
 21
13.599990999999999
 31
0.0
  0
LINE
  8
LY_3
  6
CONTINUOUS
 62
               3
  5
13E
 10
0.0
 20
13.099997999999999
 30
0.0
 11
2.5
 21
13.099997999999999
 31
0.0
  0
LINE
  8
LY_3
  6
CONTINUOUS
 62
               3
  5
13F
 10
2.5
 20
13.099997999999999
 30
0.0
 11
2.5
 21
0.0
 31
0.0
  0
LINE
  8
LY_3
  6
CONTINUOUS
 62
               3
  5
140
 10
2.5
 20
12.0
 30
0.0
 11
20.0
 21
12.0
 31
0.0
  0
LINE
  8
LY_3
  6
CONTINUOUS
 62
               3
  5
141
 10
80.000004000000004
 20
-13.600006
 30
0.0
 11
80.000004000000004
 21
13.599990999999999
 31
0.0
  0
LINE
  8
LY_3
  6
CONTINUOUS
 62
               3
  5
142
 10
0.0
 20
-20.000004000000001
 30
0.0
 11
1.8490139999999999
 21
-20.000004000000001
 31
0.0
  0
LINE
  8
LY_3
  6
CONTINUOUS
 62
               3
  5
143
 10
3.0
 20
0.0
 30
0.0
 11
3.0
 21
-19.461884999999999
 31
0.0
  0
LINE
  8
LY_3
  6
CONTINUOUS
 62
               3
  5
144
 10
3.297901
 20
-18.888234000000001
 30
0.0
 11
4.7148770000000004
 21
-13.600004999999999
 31
0.0
  0
LINE
  8
LY_3
  6
CONTINUOUS
 62
               3
  5
145
 10
4.714874
 20
0.0
 30
0.0
 11
4.714874
 21
-13.599997999999999
 31
0.0
  0
LINE
  8
LY_3
  6
CONTINUOUS
 62
               3
  5
146
 10
0.0
 20
20.0
 30
0.0
 11
0.0
 21
-20.0
 31
0.0
  0
LINE
  8
LY_3
  6
CONTINUOUS
 62
               3
  5
147
 10
0.0
 20
20.0
 30
0.0
 11
1.8490139999999999
 21
20.0
 31
0.0
  0
LINE
  8
LY_3
  6
CONTINUOUS
 62
               3
  5
148
 10
3.2978999999999998
 20
18.888227000000001
 30
0.0
 11
4.7148760000000003
 21
13.599997999999999
 31
0.0
  0
LINE
  8
LY_3
  6
CONTINUOUS
 62
               3
  5
149
 10
4.714874
 20
13.599995
 30
0.0
 11
95.285129999999995
 21
13.599995
 31
0.0
  0
LINE
  8
LY_3
  6
CONTINUOUS
 62
               3
  5
14A
 10
4.714874
 20
-13.600002
 30
0.0
 11
34.800004999999999
 21
-13.600002
 31
0.0
  0
LINE
  8
LY_3
  6
CONTINUOUS
 62
               3
  5
14B
 10
20.0
 20
13.599997999999999
 30
0.0
 11
20.0
 21
-13.599997999999999
 31
0.0
  0
LINE
  8
LY_3
  6
CONTINUOUS
 62
               3
  5
14C
 10
70.000004000000004
 20
-50.0
 30
0.0
 11
70.000004000000004
 21
-48.150986000000003
 31
0.0
  0
LINE
  8
LY_3
  6
CONTINUOUS
 62
               3
  5
14D
 10
30.538101000000001
 20
-47.000003999999997
 30
0.0
 11
69.461882000000003
 21
-47.000003999999997
 31
0.0
  0
LINE
  8
LY_3
  6
CONTINUOUS
 62
               3
  5
14E
 10
68.888227999999998
 20
-46.702100999999999
 30
0.0
 11
63.599998999999997
 21
-45.285124000000003
 31
0.0
  0
LINE
  8
LY_3
  6
CONTINUOUS
 62
               3
  5
14F
 10
36.400005
 20
-45.285130000000002
 30
0.0
 11
63.599995
 21
-45.285130000000002
 31
0.0
  0
LINE
  8
LY_3
  6
CONTINUOUS
 62
               3
  5
150
 10
29.999995999999999
 20
-50.000003999999997
 30
0.0
 11
69.999995999999996
 21
-50.000003999999997
 31
0.0
  0
LINE
  8
LY_3
  6
CONTINUOUS
 62
               3
  5
151
 10
30.0
 20
-50.0
 30
0.0
 11
30.0
 21
-48.150986000000003
 31
0.0
  0
LINE
  8
LY_3
  6
CONTINUOUS
 62
               3
  5
152
 10
31.111768999999999
 20
-46.702100000000002
 30
0.0
 11
36.399996999999999
 21
-45.285122999999999
 31
0.0
  0
LINE
  8
LY_3
  6
CONTINUOUS
 62
               3
  5
153
 10
36.399997999999997
 20
-30.000004000000001
 30
0.0
 11
63.599995
 21
-30.000004000000001
 31
0.0
  0
LINE
  8
LY_3
  6
CONTINUOUS
 62
               3
  5
154
 10
65.200002999999995
 20
-13.600002
 30
0.0
 11
95.285117999999997
 21
-13.600002
 31
0.0
  0
LINE
  8
LY_3
  6
CONTINUOUS
 62
               3
  5
155
 10
36.400005
 20
-15.200001
 30
0.0
 11
63.600002000000003
 21
-15.200001
 31
0.0
  0
ARC
  8
LY_3
  6
CONTINUOUS
 62
               3
  5
156
 10
98.150986000000003
 20
18.499991999999999
 30
0.0
 40
1.5
 50
90.000009000000006
 51
165.000022
  0
ARC
  8
LY_3
  6
CONTINUOUS
 62
               3
  5
157
 10
98.150986000000003
 20
-18.500008000000001
 30
0.0
 40
1.5
 50
195.00005999999999
 51
269.99999100000002
  0
ARC
  8
LY_3
  6
CONTINUOUS
 62
               3
  5
158
 10
1.8490139999999999
 20
-18.5
 30
0.0
 40
1.5
 50
270.00001800000001
 51
345.00002300000006
  0
ARC
  8
LY_3
  6
CONTINUOUS
 62
               3
  5
159
 10
1.8490139999999999
 20
18.5
 30
0.0
 40
1.5
 50
15.000052
 51
89.999982000000003
  0
ARC
  8
LY_3
  6
CONTINUOUS
 62
               3
  5
15A
 10
68.499995999999996
 20
-48.150986000000003
 30
0.0
 40
1.5
 50
0.000014
 51
75.000018999999995
  0
ARC
  8
LY_3
  6
CONTINUOUS
 62
               3
  5
15B
 10
31.499995999999999
 20
-48.150986000000003
 30
0.0
 40
1.5
 50
105.00004700000001
 51
179.99997800000003
  0
ARC
  8
LY_3
  6
CONTINUOUS
 62
               3
  5
15C
 10
65.200002999999995
 20
-15.200001
 30
0.0
 40
1.6000000000000001
 50
89.999982000000003
 51
179.99996400000001
  0
ARC
  8
LY_3
  6
CONTINUOUS
 62
               3
  5
15D
 10
34.800004999999999
 20
-15.200001
 30
0.0
 40
1.6000000000000001
 50
0.0
 51
89.999982000000003
  0
POLYLINE
  8
LY_3
  6
CONTINUOUS
 62
             110
  5
15E
 66
               1
 10
0.0
 20
0.0
 30
0.0
  0
VERTEX
  8
LY_3
  6
CONTINUOUS
 62
             110
  5
269
 10
41.478457329703609
 20
13.599690554749348
 30
0.0
  0
VERTEX
  8
LY_3
  6
CONTINUOUS
 62
             110
  5
26A
 10
41.26029704276317
 20
12.685504094510812
 30
0.0
  0
VERTEX
  8
LY_3
  6
CONTINUOUS
 62
             110
  5
26B
 10
41.169603628012808
 20
11.73699715605213
 30
0.0
  0
VERTEX
  8
LY_3
  6
CONTINUOUS
 62
             110
  5
26C
 10
41.230389287086609
 20
10.794914659724448
 30
0.0
  0
VERTEX
  8
LY_3
  6
CONTINUOUS
 62
             110
  5
26D
 10
41.466666221618652
 20
9.9000015258789062
 30
0.0
  0
VERTEX
  8
LY_3
  6
CONTINUOUS
 62
             110
  5
26E
 10
41.885274669917237
 20
9.0811200102361127
 30
0.0
  0
VERTEX
  8
LY_3
  6
CONTINUOUS
 62
             110
  5
26F
 10
42.425563824681163
 20
8.317544875981925
 30
0.0
  0
VERTEX
  8
LY_3
  6
CONTINUOUS
 62
             110
  5
270
 10
43.009882037766495
 20
7.5767436294319488
 30
0.0
  0
VERTEX
  8
LY_3
  6
CONTINUOUS
 62
             110
  5
271
 10
43.560577661029313
 20
6.8261837769017824
 30
0.0
  0
VERTEX
  8
LY_3
  6
CONTINUOUS
 62
             110
  5
272
 10
43.999999046325684
 20
6.0333328247070313
 30
0.0
  0
VERTEX
  8
LY_3
  6
CONTINUOUS
 62
             110
  5
273
 10
44.25572009280711
 20
5.2319763629578429
 30
0.0
  0
VERTEX
  8
LY_3
  6
CONTINUOUS
 62
             110
  5
274
 10
44.367873307017085
 20
4.3821158827178577
 30
0.0
  0
VERTEX
  8
LY_3
  6
CONTINUOUS
 62
             110
  5
275
 10
44.358152796052948
 20
3.500698915847464
 30
0.0
  0
VERTEX
  8
LY_3
  6
CONTINUOUS
 62
             110
  5
276
 10
44.248252667012039
 20
2.6046729942070499
 30
0.0
  0
VERTEX
  8
LY_3
  6
CONTINUOUS
 62
             110
  5
277
 10
44.059867026991697
 20
1.7109856496570028
 30
0.0
  0
VERTEX
  8
LY_3
  6
CONTINUOUS
 62
             110
  5
278
 10
43.814689983089266
 20
0.836584414057711
 30
0.0
  0
VERTEX
  8
LY_3
  6
CONTINUOUS
 62
             110
  5
279
 10
43.534415642402088
 20
-0.0015831807304396
 30
0.0
  0
SEQEND
  8
LY_3
  6
CONTINUOUS
 62
             110
  5
27A
  0
LINE
  8
LY_3
  6
CONTINUOUS
 62
               3
  5
15F
 10
20.0
 20
11.5
 30
0.0
 11
41.148480999999997
 21
11.5
 31
0.0
  0
ENDSEC
  0
EOF
