  0
SECTION
  2
HEADER
  9
$ACADVER
  1
AC1009
  9
$DWGCODEPAGE
  3
dos932
  9
$INSBASE
 10
0.0
 20
0.0
 30
0.0
  9
$EXTMIN
 10
-3.0
 20
-50.400000095367432
 30
0.0
  9
$EXTMAX
 10
163.0
 20
15.0
 30
0.0
  9
$LIMMIN
 10
-3.0
 20
-50.400000095367432
  9
$LIMMAX
 10
163.0
 20
15.0
  9
$ORTHOMODE
 70
               0
  9
$REGENMODE
 70
               1
  9
$FILLMODE
 70
               1
  9
$QTEXTMODE
 70
               0
  9
$MIRRTEXT
 70
               1
  9
$DRAGMODE
 70
               2
  9
$LTSCALE
 40
1.0
  9
$OSMODE
 70
               0
  9
$ATTMODE
 70
               1
  9
$TEXTSIZE
 40
3.2000000476837158
  9
$TRACEWID
 40
0.05
  9
$TEXTSTYLE
  7
MX_NOTE_STANDARD
  9
$CLAYER
  8
LY_3
  9
$CELTYPE
  6
CONTINUOUS
  9
$CECOLOR
 62
             256
  9
$DIMSCALE
 40
1.0
  9
$DIMASZ
 40
2.5
  9
$DIMEXO
 40
2.0
  9
$DIMDLI
 40
3.75
  9
$DIMRND
 40
0.0
  9
$DIMDLE
 40
0.0
  9
$DIMEXE
 40
1.0
  9
$DIMTP
 40
0.0
  9
$DIMTM
 40
0.0
  9
$DIMTXT
 40
4.1655998229980469
  9
$DIMCEN
 40
2.5
  9
$DIMTSZ
 40
0.0
  9
$DIMTOL
 70
               0
  9
$DIMLIM
 70
               0
  9
$DIMTIH
 70
               0
  9
$DIMTOH
 70
               0
  9
$DIMSE1
 70
               0
  9
$DIMSE2
 70
               0
  9
$DIMTAD
 70
               1
  9
$DIMZIN
 70
               8
  9
$DIMBLK
  1

  9
$DIMASO
 70
               1
  9
$DIMSHO
 70
               1
  9
$DIMPOST
  1

  9
$DIMAPOST
  1

  9
$DIMALT
 70
               0
  9
$DIMALTD
 70
               4
  9
$DIMALTF
 40
0.03937007874016
  9
$DIMLFAC
 40
1.0
  9
$DIMTOFL
 70
               1
  9
$DIMTVP
 40
0.0
  9
$DIMTIX
 70
               0
  9
$DIMSOXD
 70
               0
  9
$DIMSAH
 70
               1
  9
$DIMBLK1
  1
_OPEN30
  9
$DIMBLK2
  1
_OPEN30
  9
$DIMSTYLE
  2
MXDIMSTYLE
  9
$DIMCLRD
 70
               0
  9
$DIMCLRE
 70
               0
  9
$DIMCLRT
 70
               0
  9
$DIMTFAC
 40
1.0
  9
$DIMGAP
 40
1.0
  9
$LUNITS
 70
               2
  9
$LUPREC
 70
               4
  9
$AXISMODE
 70
               0
  9
$AXISUNIT
 10
0.0
 20
0.0
  9
$SKETCHINC
 40
0.1
  9
$FILLETRAD
 40
0.0
  9
$AUNITS
 70
               0
  9
$AUPREC
 70
               0
  9
$MENU
  1
acad
  9
$ELEVATION
 40
0.0
  9
$PELEVATION
 40
0.0
  9
$THICKNESS
 40
0.0
  9
$LIMCHECK
 70
               0
  9
$BLIPMODE
 70
               1
  9
$CHAMFERA
 40
0.0
  9
$CHAMFERB
 40
0.0
  9
$SKPOLY
 70
               0
  9
$TDCREATE
 40
2455163.528402778
  9
$TDUPDATE
 40
2455163.528402778
  9
$TDINDWG
 40
0.0000000000
  9
$TDUSRTIMER
 40
0.0000000000
  9
$USRTIMER
 70
               1
  9
$ANGBASE
 50
0.0
  9
$ANGDIR
 70
               0
  9
$PDMODE
 70
               0
  9
$PDSIZE
 40
0.0
  9
$PLINEWID
 40
0.0
  9
$COORDS
 70
               1
  9
$SPLFRAME
 70
               0
  9
$SPLINETYPE
 70
               6
  9
$SPLINESEGS
 70
               8
  9
$ATTDIA
 70
               0
  9
$ATTREQ
 70
               1
  9
$HANDLING
 70
               1
  9
$HANDSEED
  5
B7
  9
$SURFTAB1
 70
               6
  9
$SURFTAB2
 70
               6
  9
$SURFTYPE
 70
               6
  9
$SURFU
 70
               6
  9
$SURFV
 70
               6
  9
$UCSNAME
  2

  9
$UCSORG
 10
0.0
 20
0.0
 30
0.0
  9
$UCSXDIR
 10
1.0
 20
0.0
 30
0.0
  9
$UCSYDIR
 10
0.0
 20
1.0
 30
0.0
  9
$PUCSNAME
  2

  9
$PUCSORG
 10
0.0
 20
0.0
 30
0.0
  9
$PUCSXDIR
 10
1.0
 20
0.0
 30
0.0
  9
$PUCSYDIR
 10
0.0
 20
1.0
 30
0.0
  9
$USERI1
 70
               0
  9
$USERI2
 70
               0
  9
$USERI3
 70
               0
  9
$USERI4
 70
               0
  9
$USERI5
 70
               0
  9
$USERR1
 40
0.0
  9
$USERR2
 40
0.0
  9
$USERR3
 40
0.0
  9
$USERR4
 40
0.0
  9
$USERR5
 40
0.0
  9
$WORLDVIEW
 70
               1
  9
$SHADEDGE
 70
               3
  9
$SHADEDIF
 70
              70
  9
$TILEMODE
 70
               1
  9
$MAXACTVP
 70
              16
  9
$PINSBASE
 10
0.0
 20
0.0
 30
0.0
  9
$PLIMCHECK
 70
               0
  9
$PEXTMIN
 10
1.0000000000000000E+20
 20
1.0000000000000000E+20
 30
1.0000000000000000E+20
  9
$PEXTMAX
 10
-1.0000000000000000E+20
 20
-1.0000000000000000E+20
 30
-1.0000000000000000E+20
  9
$PLIMMIN
 10
0.0
 20
0.0
  9
$PLIMMAX
 10
12.0
 20
9.0
  9
$UNITMODE
 70
               0
  9
$VISRETAIN
 70
               0
  9
$PLINEGEN
 70
               1
  9
$PSLTSCALE
 70
               0
  9
$TREEDEPTH
 70
            3020
  0
ENDSEC
  0
SECTION
  2
TABLES
  0
TABLE
  2
VPORT
 70
               1
  0
VPORT
  2
*ACTIVE
 70
               0
 10
0.0
 20
0.0
 11
1.0
 21
1.0
 12
80.0
 22
-17.700000047683716
 13
0.0
 23
0.0
 14
1.0
 24
1.0
 15
0.0
 25
0.0
 16
0.0
 26
0.0
 36
1.0
 17
0.0
 27
0.0
 37
0.0
 40
66.054000096321104
 41
1.7320508075688772
 42
50.0
 43
0.0
 44
0.0
 50
0.0
 51
0.0
 71
               0
 72
             100
 73
               1
 74
               1
 75
               0
 76
               0
 77
               0
 78
               0
  0
ENDTAB
  0
TABLE
  2
LTYPE
 70
               2
  0
LTYPE
  2
CONTINUOUS
 70
              64
  3
Solid line
 72
              65
 73
               0
 40
0.0
  0
LTYPE
  2
CENTER
 70
              64
  3
Center ____ _ ____ _ ____ _ ____ _ ____ _ ____
 72
              65
 73
               4
 40
50.800000000000004
 49
31.75
 49
-6.3499999999999996
 49
6.3499999999999996
 49
-6.3499999999999996
  0
ENDTAB
  0
TABLE
  2
LAYER
 70
               3
  0
LAYER
  2
0
 70
               0
 62
               7
  6
CONTINUOUS
  0
LAYER
  2
DEFPOINTS
 70
               0
 62
               7
  6
CONTINUOUS
  0
LAYER
  2
LY_3
 70
               0
 62
               7
  6
CONTINUOUS
  0
ENDTAB
  0
TABLE
  2
STYLE
 70
               1
  0
STYLE
  2
MX_NOTE_STANDARD
 70
               0
 40
0.0
 41
1.0
 50
0.0
 71
               0
 42
3.2000000476837158
  3
txt.shx
  4
extfont.shx
  0
ENDTAB
  0
TABLE
  2
VIEW
 70
               0
  0
ENDTAB
  0
TABLE
  2
UCS
 70
               0
  0
ENDTAB
  0
TABLE
  2
APPID
 70
               1
  0
APPID
  2
ACAD
 70
               0
  0
ENDTAB
  0
TABLE
  2
DIMSTYLE
 70
               1
  0
DIMSTYLE
  2
MXDIMSTYLE
 70
               0
  3

  4

  5

  6
_OPEN30
  7
_OPEN30
 40
1.0
 41
2.5
 42
2.0
 43
3.75
 44
1.0
 45
0.0
 46
0.0
 47
0.0
 48
0.0
 71
               0
 72
               0
 73
               0
 74
               0
 75
               0
 76
               0
 77
               1
 78
               8
140
4.1655998229980469
141
2.5
142
0.0
143
0.03937007874016
144
1.0
145
0.0
146
1.0
147
1.0
170
               0
171
               4
172
               1
173
               1
174
               0
175
               0
176
               0
177
               0
178
               0
  0
ENDTAB
  0
ENDSEC
  0
SECTION
  2
BLOCKS
  0
BLOCK
  8
0
  6
BYBLOCK
 62
               0
  5
20
  2
_OPEN30
 70
               2
 10
0.0
 20
0.0
 30
0.0
  3
_OPEN30
  0
LINE
  8
0
  6
BYBLOCK
 62
               0
  5
21
 10
-1.0
 20
0.267949
 30
0.0
 11
0.0
 21
0.0
 31
0.0
  0
LINE
  8
0
  6
BYBLOCK
 62
               0
  5
22
 10
0.0
 20
0.0
 30
0.0
 11
-1.0
 21
-0.267949
 31
0.0
  0
LINE
  8
0
  6
BYBLOCK
 62
               0
  5
23
 10
0.0
 20
0.0
 30
0.0
 11
-1.0
 21
0.0
 31
0.0
  0
ENDBLK
  8
0
  6
BYBLOCK
 62
               0
  5
24
  0
ENDSEC
  0
SECTION
  2
ENTITIES
  0
TEXT
  8
LY_3
  6
CONTINUOUS
 62
             110
  5
25
 10
111.5142857177842
 20
-49.600000023841858
 30
0.0
 40
3.2000000476837158
  1
VP7016
 41
0.9639999997769082
  7
MX_NOTE_STANDARD
 11
111.5142857177842
 21
-46.399999976158142
 31
0.0
 73
               3
  0
POLYLINE
  8
LY_3
  6
CONTINUOUS
 62
               3
  5
26
 66
               1
 10
0.0
 20
0.0
 30
0.0
  0
VERTEX
  8
LY_3
  6
CONTINUOUS
 62
               3
  5
90
 10
108.67532849920443
 20
10.000000000000005
 30
0.0
  0
VERTEX
  8
LY_3
  6
CONTINUOUS
 62
               3
  5
91
 10
108.92940960253348
 20
9.0440695722617885
 30
0.0
  0
VERTEX
  8
LY_3
  6
CONTINUOUS
 62
               3
  5
92
 10
109.28506378646497
 20
8.1108695921413556
 30
0.0
  0
VERTEX
  8
LY_3
  6
CONTINUOUS
 62
               3
  5
93
 10
109.70233216642033
 20
7.1924985096671987
 30
0.0
  0
VERTEX
  8
LY_3
  6
CONTINUOUS
 62
               3
  5
94
 10
110.14125585782095
 20
6.2810547748678118
 30
0.0
  0
VERTEX
  8
LY_3
  6
CONTINUOUS
 62
               3
  5
95
 10
110.56187597608823
 20
5.3686368377716844
 30
0.0
  0
VERTEX
  8
LY_3
  6
CONTINUOUS
 62
               3
  5
96
 10
110.92423363664358
 20
4.4473431484073087
 30
0.0
  0
VERTEX
  8
LY_3
  6
CONTINUOUS
 62
               3
  5
97
 10
111.1883699549084
 20
3.5092721568031786
 30
0.0
  0
VERTEX
  8
LY_3
  6
CONTINUOUS
 62
               3
  5
98
 10
111.3143260463041
 20
2.5465223129877828
 30
0.0
  0
VERTEX
  8
LY_3
  6
CONTINUOUS
 62
               3
  5
99
 10
111.28718164378475
 20
1.6871361011425063
 30
0.0
  0
VERTEX
  8
LY_3
  6
CONTINUOUS
 62
               3
  5
9A
 10
111.13982687223935
 20
0.8294820528075433
 30
0.0
  0
VERTEX
  8
LY_3
  6
CONTINUOUS
 62
               3
  5
9B
 10
110.88714491026154
 20
0.0000000000000009
 30
0.0
  0
SEQEND
  8
LY_3
  6
CONTINUOUS
 62
               3
  5
9C
  0
LINE
  8
LY_3
  6
CONTINUOUS
 62
               3
  5
27
 10
155.66025400000001
 20
10.0
 30
0.0
 11
155.66025400000001
 21
-10.0
 31
0.0
  0
LINE
  8
LY_3
  6
CONTINUOUS
 62
               3
  5
28
 10
157.0
 20
14.461884
 30
0.0
 11
157.0
 21
-14.461884
 31
0.0
  0
LINE
  8
LY_3
  6
CONTINUOUS
 62
               3
  5
29
 10
130.0
 20
-35.660254000000002
 30
0.0
 11
110.0
 21
-35.660254000000002
 31
0.0
  0
LINE
  8
LY_3
  6
CONTINUOUS
 62
               3
  5
2A
 10
134.461884
 20
-37.0
 30
0.0
 11
105.538116
 21
-37.0
 31
0.0
  0
LINE
  8
LY_3
  6
CONTINUOUS
 62
               3
  5
2B
 10
84.339746000000005
 20
-10.0
 30
0.0
 11
84.339746000000005
 21
0.0
 31
0.0
  0
LINE
  8
LY_3
  6
CONTINUOUS
 62
               3
  5
2C
 10
83.0
 20
-14.461884
 30
0.0
 11
83.0
 21
0.0
 31
0.0
  0
LINE
  8
LY_3
  6
CONTINUOUS
 62
               3
  5
2D
 10
135.0
 20
-40.0
 30
0.0
 11
105.0
 21
-40.0
 31
0.0
  0
LINE
  8
LY_3
  6
CONTINUOUS
 62
               3
  5
2E
 10
130.0
 20
-30.0
 30
0.0
 11
110.0
 21
-30.0
 31
0.0
  0
LINE
  8
LY_3
  6
CONTINUOUS
 62
               3
  5
2F
 10
135.0
 20
-38.15099
 30
0.0
 11
135.0
 21
-40.0
 31
0.0
  0
LINE
  8
LY_3
  6
CONTINUOUS
 62
               3
  5
30
 10
130.0
 20
-30.0
 30
0.0
 11
130.0
 21
-35.660254000000002
 31
0.0
  0
LINE
  8
LY_3
  6
CONTINUOUS
 62
               3
  5
31
 10
133.888229
 20
-36.702101999999996
 30
0.0
 11
130.0
 21
-35.660254000000002
 31
0.0
  0
LINE
  8
LY_3
  6
CONTINUOUS
 62
               3
  5
32
 10
110.0
 20
-30.0
 30
0.0
 11
110.0
 21
-35.660254000000002
 31
0.0
  0
LINE
  8
LY_3
  6
CONTINUOUS
 62
               3
  5
33
 10
106.111771
 20
-36.702101999999996
 30
0.0
 11
110.0
 21
-35.660254000000002
 31
0.0
  0
LINE
  8
LY_3
  6
CONTINUOUS
 62
               3
  5
34
 10
105.0
 20
-38.15099
 30
0.0
 11
105.0
 21
-40.0
 31
0.0
  0
LINE
  8
LY_3
  6
CENTER
 62
             110
  5
36
 10
120.0
 20
-43.0
 30
0.0
 11
120.0
 21
0.0
 31
0.0
  0
LINE
  8
LY_3
  6
CONTINUOUS
 62
               3
  5
37
 10
80.0
 20
15.0
 30
0.0
 11
80.0
 21
-15.0
 31
0.0
  0
LINE
  8
LY_3
  6
CONTINUOUS
 62
               3
  5
38
 10
90.0
 20
10.0
 30
0.0
 11
90.0
 21
-10.0
 31
0.0
  0
LINE
  8
LY_3
  6
CONTINUOUS
 62
               3
  5
39
 10
81.849010000000007
 20
15.0
 30
0.0
 11
80.0
 21
15.0
 31
0.0
  0
LINE
  8
LY_3
  6
CONTINUOUS
 62
               3
  5
3A
 10
90.0
 20
10.0
 30
0.0
 11
84.339746000000005
 21
10.0
 31
0.0
  0
LINE
  8
LY_3
  6
CONTINUOUS
 62
               3
  5
3B
 10
90.0
 20
8.0
 30
0.0
 11
82.5
 21
8.0
 31
0.0
  0
LINE
  8
LY_3
  6
CONTINUOUS
 62
               3
  5
3C
 10
83.297898000000004
 20
13.888229000000001
 30
0.0
 11
84.339746000000005
 21
10.0
 31
0.0
  0
LINE
  8
LY_3
  6
CONTINUOUS
 62
               3
  5
3D
 10
82.5
 20
8.5999999999999996
 30
0.0
 11
82.5
 21
0.0
 31
0.0
  0
LINE
  8
LY_3
  6
CONTINUOUS
 62
               3
  5
3E
 10
82.5
 20
8.5999999999999996
 30
0.0
 11
80.0
 21
8.5999999999999996
 31
0.0
  0
LINE
  8
LY_3
  6
CONTINUOUS
 62
               3
  5
3F
 10
90.0
 20
-10.0
 30
0.0
 11
84.339746000000005
 21
-10.0
 31
0.0
  0
LINE
  8
LY_3
  6
CONTINUOUS
 62
               3
  5
40
 10
83.297898000000004
 20
-13.888229000000001
 30
0.0
 11
84.339746000000005
 21
-10.0
 31
0.0
  0
LINE
  8
LY_3
  6
CONTINUOUS
 62
               3
  5
41
 10
81.849010000000007
 20
-15.0
 30
0.0
 11
80.0
 21
-15.0
 31
0.0
  0
LINE
  8
LY_3
  6
CONTINUOUS
 62
               3
  5
42
 10
130.0
 20
-30.0
 30
0.0
 11
130.0
 21
-10.0
 31
0.0
  0
LINE
  8
LY_3
  6
CONTINUOUS
 62
               3
  5
43
 10
110.0
 20
-30.0
 30
0.0
 11
110.0
 21
-10.0
 31
0.0
  0
LINE
  8
LY_3
  6
CONTINUOUS
 62
               3
  5
44
 10
160.0
 20
15.0
 30
0.0
 11
160.0
 21
-15.0
 31
0.0
  0
LINE
  8
LY_3
  6
CONTINUOUS
 62
               3
  5
45
 10
150.0
 20
10.0
 30
0.0
 11
150.0
 21
-10.0
 31
0.0
  0
LINE
  8
LY_3
  6
CONTINUOUS
 62
               3
  5
46
 10
158.15098999999998
 20
15.0
 30
0.0
 11
160.0
 21
15.0
 31
0.0
  0
LINE
  8
LY_3
  6
CONTINUOUS
 62
               3
  5
47
 10
150.0
 20
10.0
 30
0.0
 11
155.66025400000001
 21
10.0
 31
0.0
  0
LINE
  8
LY_3
  6
CONTINUOUS
 62
               3
  5
48
 10
156.702102
 20
13.888229000000001
 30
0.0
 11
155.66025400000001
 21
10.0
 31
0.0
  0
LINE
  8
LY_3
  6
CONTINUOUS
 62
               3
  5
49
 10
150.0
 20
-10.0
 30
0.0
 11
155.66025400000001
 21
-10.0
 31
0.0
  0
LINE
  8
LY_3
  6
CONTINUOUS
 62
               3
  5
4A
 10
156.702102
 20
-13.888229000000001
 30
0.0
 11
155.66025400000001
 21
-10.0
 31
0.0
  0
LINE
  8
LY_3
  6
CONTINUOUS
 62
               3
  5
4B
 10
158.15098999999998
 20
-15.0
 30
0.0
 11
160.0
 21
-15.0
 31
0.0
  0
LINE
  8
LY_3
  6
CENTER
 62
             110
  5
4C
 10
163.0
 20
0.0
 30
0.0
 11
77.0
 21
0.0
 31
0.0
  0
LINE
  8
LY_3
  6
CONTINUOUS
 62
               3
  5
4D
 10
150.0
 20
10.0
 30
0.0
 11
90.0
 21
10.0
 31
0.0
  0
LINE
  8
LY_3
  6
CONTINUOUS
 62
               3
  5
4E
 10
150.0
 20
-10.0
 30
0.0
 11
130.0
 21
-10.0
 31
0.0
  0
LINE
  8
LY_3
  6
CONTINUOUS
 62
               3
  5
4F
 10
109.333313
 20
8.0
 30
0.0
 11
90.0
 21
8.0
 31
0.0
  0
LINE
  8
LY_3
  6
CONTINUOUS
 62
               3
  5
50
 10
110.0
 20
-10.0
 30
0.0
 11
90.0
 21
-10.0
 31
0.0
  0
LINE
  8
LY_3
  6
CONTINUOUS
 62
               3
  5
51
 10
124.0
 20
-4.0
 30
0.0
 11
116.0
 21
-4.0
 31
0.0
  0
LINE
  8
LY_3
  6
CONTINUOUS
 62
               3
  5
52
 10
116.0
 20
-4.0000000000000036
 30
0.0
 11
110.0
 21
-10.0
 31
0.0
  0
LINE
  8
LY_3
  6
CONTINUOUS
 62
               3
  5
53
 10
124.0
 20
-4.0000000000000036
 30
0.0
 11
130.0
 21
-10.0
 31
0.0
  0
ARC
  8
LY_3
  6
CONTINUOUS
 62
               3
  5
54
 10
133.5
 20
-38.15099
 30
0.0
 40
1.5
 50
0.0
 51
75.0
  0
ARC
  8
LY_3
  6
CONTINUOUS
 62
               3
  5
55
 10
106.5
 20
-38.15099
 30
0.0
 40
1.5
 50
105.00000000000001
 51
180.0
  0
ARC
  8
LY_3
  6
CONTINUOUS
 62
               3
  5
56
 10
81.849010000000007
 20
-13.5
 30
0.0
 40
1.5
 50
270.0
 51
345.0
  0
ARC
  8
LY_3
  6
CONTINUOUS
 62
               3
  5
57
 10
81.849010000000007
 20
13.5
 30
0.0
 40
1.5
 50
14.999999999999998
 51
90.0
  0
ARC
  8
LY_3
  6
CONTINUOUS
 62
               3
  5
58
 10
158.15098999999998
 20
-13.5
 30
0.0
 40
1.5
 50
195.0
 51
270.0
  0
ARC
  8
LY_3
  6
CONTINUOUS
 62
               3
  5
59
 10
158.15098999999998
 20
13.5
 30
0.0
 40
1.5
 50
90.0
 51
165.0
  0
POLYLINE
  8
LY_3
  6
CONTINUOUS
 62
               3
  5
5A
 66
               1
 10
0.0
 20
0.0
 30
0.0
  0
VERTEX
  8
LY_3
  6
CONTINUOUS
 62
               3
  5
9D
 10
108.67532849920443
 20
10.000000000000005
 30
0.0
  0
VERTEX
  8
LY_3
  6
CONTINUOUS
 62
               3
  5
9E
 10
108.92940960253348
 20
9.0440695722617885
 30
0.0
  0
VERTEX
  8
LY_3
  6
CONTINUOUS
 62
               3
  5
9F
 10
109.28506378646497
 20
8.1108695921413556
 30
0.0
  0
VERTEX
  8
LY_3
  6
CONTINUOUS
 62
               3
  5
A0
 10
109.70233216642033
 20
7.1924985096671987
 30
0.0
  0
VERTEX
  8
LY_3
  6
CONTINUOUS
 62
               3
  5
A1
 10
110.14125585782095
 20
6.2810547748678118
 30
0.0
  0
VERTEX
  8
LY_3
  6
CONTINUOUS
 62
               3
  5
A2
 10
110.56187597608823
 20
5.3686368377716844
 30
0.0
  0
VERTEX
  8
LY_3
  6
CONTINUOUS
 62
               3
  5
A3
 10
110.92423363664358
 20
4.4473431484073087
 30
0.0
  0
VERTEX
  8
LY_3
  6
CONTINUOUS
 62
               3
  5
A4
 10
111.1883699549084
 20
3.5092721568031786
 30
0.0
  0
VERTEX
  8
LY_3
  6
CONTINUOUS
 62
               3
  5
A5
 10
111.3143260463041
 20
2.5465223129877828
 30
0.0
  0
VERTEX
  8
LY_3
  6
CONTINUOUS
 62
               3
  5
A6
 10
111.28718164378475
 20
1.6871361011425063
 30
0.0
  0
VERTEX
  8
LY_3
  6
CONTINUOUS
 62
               3
  5
A7
 10
111.13982687223935
 20
0.8294820528075433
 30
0.0
  0
VERTEX
  8
LY_3
  6
CONTINUOUS
 62
               3
  5
A8
 10
110.88714491026154
 20
0.0000000000000009
 30
0.0
  0
SEQEND
  8
LY_3
  6
CONTINUOUS
 62
               3
  5
A9
  0
TEXT
  8
LY_3
  6
CONTINUOUS
 62
             110
  5
5B
 10
23.529411771800664
 20
-41.600000023841858
 30
0.0
 40
3.2000000476837158
  1
VP7010
 41
0.9929999876960236
  7
MX_NOTE_STANDARD
 11
23.529411771800664
 21
-38.399999976158142
 31
0.0
 73
               3
  0
ARC
  8
LY_3
  6
CONTINUOUS
 62
               3
  5
5C
 10
58.15099
 20
13.5
 30
0.0
 40
1.5
 50
90.0
 51
165.0
  0
ARC
  8
LY_3
  6
CONTINUOUS
 62
               3
  5
5D
 10
58.15099
 20
-13.5
 30
0.0
 40
1.5
 50
195.0
 51
270.0
  0
ARC
  8
LY_3
  6
CONTINUOUS
 62
               3
  5
5E
 10
1.84901
 20
13.5
 30
0.0
 40
1.5
 50
14.999999999999998
 51
90.0
  0
ARC
  8
LY_3
  6
CONTINUOUS
 62
               3
  5
5F
 10
1.84901
 20
-13.5
 30
0.0
 40
1.5
 50
270.0
 51
345.0
  0
ARC
  8
LY_3
  6
CONTINUOUS
 62
               3
  5
60
 10
16.5
 20
-28.15099
 30
0.0
 40
1.5
 50
105.00000000000001
 51
180.0
  0
ARC
  8
LY_3
  6
CONTINUOUS
 62
               3
  5
61
 10
43.5
 20
-28.15099
 30
0.0
 40
1.5
 50
0.0
 51
75.0
  0
LINE
  8
LY_3
  6
CONTINUOUS
 62
               3
  5
62
 10
36.899999999999999
 20
-6.9000000000000004
 30
0.0
 11
32.899999999999999
 21
-2.9000000000000004
 31
0.0
  0
LINE
  8
LY_3
  6
CONTINUOUS
 62
               3
  5
63
 10
23.100000000000001
 20
-6.9000000000000004
 30
0.0
 11
27.100000000000001
 21
-2.9000000000000004
 31
0.0
  0
LINE
  8
LY_3
  6
CONTINUOUS
 62
               3
  5
64
 10
23.100000000000001
 20
-6.9000000000000004
 30
0.0
 11
10.0
 21
-6.9000000000000004
 31
0.0
  0
LINE
  8
LY_3
  6
CENTER
 62
             110
  5
65
 10
30.0
 20
-33.0
 30
0.0
 11
30.0
 21
0.0
 31
0.0
  0
LINE
  8
LY_3
  6
CONTINUOUS
 62
               3
  5
66
 10
36.899999999999999
 20
-20.0
 30
0.0
 11
36.899999999999999
 21
-6.9000000000000004
 31
0.0
  0
LINE
  8
LY_3
  6
CONTINUOUS
 62
               3
  5
67
 10
23.100000000000001
 20
-20.0
 30
0.0
 11
23.100000000000001
 21
-6.9000000000000004
 31
0.0
  0
LINE
  8
LY_3
  6
CONTINUOUS
 62
               3
  5
68
 10
32.899999999999999
 20
-2.8999999999999999
 30
0.0
 11
27.100000000000001
 21
-2.8999999999999999
 31
0.0
  0
LINE
  8
LY_3
  6
CONTINUOUS
 62
               3
  5
69
 10
25.161179000000001
 20
4.9000000000000004
 30
0.0
 11
10.0
 21
4.9000000000000004
 31
0.0
  0
LINE
  8
LY_3
  6
CONTINUOUS
 62
               3
  5
6A
 10
50.0
 20
6.9000000000000004
 30
0.0
 11
10.0
 21
6.9000000000000004
 31
0.0
  0
LINE
  8
LY_3
  6
CONTINUOUS
 62
               3
  5
6B
 10
50.0
 20
-6.9000000000000004
 30
0.0
 11
36.899999999999999
 21
-6.9000000000000004
 31
0.0
  0
LINE
  8
LY_3
  6
CENTER
 62
             110
  5
6C
 10
63.0
 20
0.0
 30
0.0
 11
-3.0
 21
0.0
 31
0.0
  0
LINE
  8
LY_3
  6
CONTINUOUS
 62
               3
  5
6D
 10
58.15099
 20
-15.0
 30
0.0
 11
60.0
 21
-15.0
 31
0.0
  0
LINE
  8
LY_3
  6
CONTINUOUS
 62
               3
  5
6E
 10
56.702101999999996
 20
-13.888229000000001
 30
0.0
 11
54.829611999999997
 21
-6.9000000000000004
 31
0.0
  0
LINE
  8
LY_3
  6
CONTINUOUS
 62
               3
  5
6F
 10
50.0
 20
-6.9000000000000004
 30
0.0
 11
54.829611999999997
 21
-6.9000000000000004
 31
0.0
  0
LINE
  8
LY_3
  6
CONTINUOUS
 62
               3
  5
70
 10
56.702101999999996
 20
13.888229000000001
 30
0.0
 11
54.829611999999997
 21
6.9000000000000004
 31
0.0
  0
LINE
  8
LY_3
  6
CONTINUOUS
 62
               3
  5
71
 10
58.15099
 20
15.0
 30
0.0
 11
60.0
 21
15.0
 31
0.0
  0
LINE
  8
LY_3
  6
CONTINUOUS
 62
               3
  5
72
 10
50.0
 20
6.9000000000000004
 30
0.0
 11
54.829611999999997
 21
6.9000000000000004
 31
0.0
  0
LINE
  8
LY_3
  6
CONTINUOUS
 62
               3
  5
73
 10
50.0
 20
6.9000000000000004
 30
0.0
 11
50.0
 21
-6.9000000000000004
 31
0.0
  0
LINE
  8
LY_3
  6
CONTINUOUS
 62
               3
  5
74
 10
60.0
 20
15.0
 30
0.0
 11
60.0
 21
-15.0
 31
0.0
  0
LINE
  8
LY_3
  6
CONTINUOUS
 62
               3
  5
75
 10
1.84901
 20
-15.0
 30
0.0
 11
0.0
 21
-15.0
 31
0.0
  0
LINE
  8
LY_3
  6
CONTINUOUS
 62
               3
  5
76
 10
3.297898
 20
-13.888229000000001
 30
0.0
 11
5.170388
 21
-6.9000000000000004
 31
0.0
  0
LINE
  8
LY_3
  6
CONTINUOUS
 62
               3
  5
77
 10
10.0
 20
-6.9000000000000004
 30
0.0
 11
5.170388
 21
-6.9000000000000004
 31
0.0
  0
LINE
  8
LY_3
  6
CONTINUOUS
 62
               3
  5
78
 10
2.5
 20
6.0999999999999996
 30
0.0
 11
2.5
 21
0.0
 31
0.0
  0
LINE
  8
LY_3
  6
CONTINUOUS
 62
               3
  5
79
 10
2.5
 20
6.0999999999999996
 30
0.0
 11
0.0
 21
6.0999999999999996
 31
0.0
  0
LINE
  8
LY_3
  6
CONTINUOUS
 62
               3
  5
7A
 10
10.0
 20
5.0
 30
0.0
 11
2.5
 21
5.0
 31
0.0
  0
LINE
  8
LY_3
  6
CONTINUOUS
 62
               3
  5
7B
 10
3.297898
 20
13.888229000000001
 30
0.0
 11
5.170388
 21
6.9000000000000004
 31
0.0
  0
LINE
  8
LY_3
  6
CONTINUOUS
 62
               3
  5
7C
 10
1.84901
 20
15.0
 30
0.0
 11
0.0
 21
15.0
 31
0.0
  0
LINE
  8
LY_3
  6
CONTINUOUS
 62
               3
  5
7D
 10
10.0
 20
6.9000000000000004
 30
0.0
 11
5.170388
 21
6.9000000000000004
 31
0.0
  0
LINE
  8
LY_3
  6
CONTINUOUS
 62
               3
  5
7E
 10
10.0
 20
6.9000000000000004
 30
0.0
 11
10.0
 21
-6.9000000000000004
 31
0.0
  0
LINE
  8
LY_3
  6
CONTINUOUS
 62
               3
  5
7F
 10
0.0
 20
15.0
 30
0.0
 11
0.0
 21
-15.0
 31
0.0
  0
LINE
  8
LY_3
  6
CONTINUOUS
 62
               3
  5
80
 10
15.0
 20
-28.15099
 30
0.0
 11
15.0
 21
-30.0
 31
0.0
  0
LINE
  8
LY_3
  6
CONTINUOUS
 62
               3
  5
81
 10
16.111771000000001
 20
-26.702102
 30
0.0
 11
23.100000000000001
 21
-24.829612000000001
 31
0.0
  0
LINE
  8
LY_3
  6
CONTINUOUS
 62
               3
  5
82
 10
23.100000000000001
 20
-20.0
 30
0.0
 11
23.100000000000001
 21
-24.829612000000001
 31
0.0
  0
LINE
  8
LY_3
  6
CONTINUOUS
 62
               3
  5
83
 10
43.888229000000003
 20
-26.702102
 30
0.0
 11
36.899999999999999
 21
-24.829612000000001
 31
0.0
  0
LINE
  8
LY_3
  6
CONTINUOUS
 62
               3
  5
84
 10
45.0
 20
-28.15099
 30
0.0
 11
45.0
 21
-30.0
 31
0.0
  0
LINE
  8
LY_3
  6
CONTINUOUS
 62
               3
  5
85
 10
36.899999999999999
 20
-20.0
 30
0.0
 11
36.899999999999999
 21
-24.829612000000001
 31
0.0
  0
LINE
  8
LY_3
  6
CONTINUOUS
 62
               3
  5
86
 10
36.899999999999999
 20
-20.0
 30
0.0
 11
23.100000000000001
 21
-20.0
 31
0.0
  0
LINE
  8
LY_3
  6
CONTINUOUS
 62
               3
  5
87
 10
45.0
 20
-30.0
 30
0.0
 11
15.0
 21
-30.0
 31
0.0
  0
POLYLINE
  8
LY_3
  6
CONTINUOUS
 62
               3
  5
88
 66
               1
 10
0.0
 20
0.0
 30
0.0
  0
VERTEX
  8
LY_3
  6
CONTINUOUS
 62
               3
  5
AA
 10
24.535066738448521
 20
6.9000000000000128
 30
0.0
  0
VERTEX
  8
LY_3
  6
CONTINUOUS
 62
               3
  5
AB
 10
24.894666212821729
 20
6.2816775092469674
 30
0.0
  0
VERTEX
  8
LY_3
  6
CONTINUOUS
 62
               3
  5
AC
 10
25.160537235799399
 20
5.6191870164505957
 30
0.0
  0
VERTEX
  8
LY_3
  6
CONTINUOUS
 62
               3
  5
AD
 10
25.185364949505555
 20
4.9731056626341825
 30
0.0
  0
VERTEX
  8
LY_3
  6
CONTINUOUS
 62
               3
  5
AE
 10
24.802130484067519
 20
4.287773189494378
 30
0.0
  0
VERTEX
  8
LY_3
  6
CONTINUOUS
 62
               3
  5
AF
 10
24.227589931473098
 20
3.6510224181596
 30
0.0
  0
VERTEX
  8
LY_3
  6
CONTINUOUS
 62
               3
  5
B0
 10
23.811670446165209
 20
3.0041435411797011
 30
0.0
  0
VERTEX
  8
LY_3
  6
CONTINUOUS
 62
               3
  5
B1
 10
23.821985705611024
 20
2.2832221765965208
 30
0.0
  0
VERTEX
  8
LY_3
  6
CONTINUOUS
 62
               3
  5
B2
 10
24.176624505757669
 20
1.5211951620254689
 30
0.0
  0
VERTEX
  8
LY_3
  6
CONTINUOUS
 62
               3
  5
B3
 10
24.683202846454357
 20
0.7496064517366099
 30
0.0
  0
VERTEX
  8
LY_3
  6
CONTINUOUS
 62
               3
  5
B4
 10
25.149336727550292
 20
0.0000000000000062
 30
0.0
  0
SEQEND
  8
LY_3
  6
CONTINUOUS
 62
               3
  5
B5
  0
LINE
  8
LY_3
  6
CONTINUOUS
 62
               3
  5
89
 10
5.170388
 20
-6.9000000000000004
 30
0.0
 11
5.170388
 21
0.0
 31
0.0
  0
LINE
  8
LY_3
  6
CONTINUOUS
 62
               3
  5
8A
 10
3.0
 20
-14.461884
 30
0.0
 11
3.0
 21
0.0
 31
0.0
  0
LINE
  8
LY_3
  6
CONTINUOUS
 62
               3
  5
8B
 10
36.899999999999999
 20
-24.829612000000001
 30
0.0
 11
23.100000000000001
 21
-24.829612000000001
 31
0.0
  0
LINE
  8
LY_3
  6
CONTINUOUS
 62
               3
  5
8C
 10
44.461883999999998
 20
-27.0
 30
0.0
 11
15.538116
 21
-27.0
 31
0.0
  0
LINE
  8
LY_3
  6
CONTINUOUS
 62
               3
  5
8D
 10
54.829611999999997
 20
6.9000000000000004
 30
0.0
 11
54.829611999999997
 21
-6.9000000000000004
 31
0.0
  0
LINE
  8
LY_3
  6
CONTINUOUS
 62
               3
  5
8E
 10
57.0
 20
14.461884
 30
0.0
 11
57.0
 21
-14.461884
 31
0.0
  0
ENDSEC
  0
EOF
