  0
SECTION
  2
HEADER
  9
$ACADVER
  1
AC1009
  9
$DWGCODEPAGE
  3
dos932
  9
$INSBASE
 10
0.0
 20
0.0
 30
0.0
  9
$EXTMIN
 10
-8.0
 20
-274.40000009536743
 30
0.0
  9
$EXTMAX
 10
398.32497799999999
 20
17.0
 30
0.0
  9
$LIMMIN
 10
-8.0
 20
-274.40000009536743
  9
$LIMMAX
 10
398.32497799999999
 20
17.0
  9
$ORTHOMODE
 70
               0
  9
$REGENMODE
 70
               1
  9
$FILLMODE
 70
               1
  9
$QTEXTMODE
 70
               0
  9
$MIRRTEXT
 70
               1
  9
$DRAGMODE
 70
               2
  9
$LTSCALE
 40
1.0
  9
$OSMODE
 70
               0
  9
$ATTMODE
 70
               1
  9
$TEXTSIZE
 40
3.2000000476837158
  9
$TRACEWID
 40
0.05
  9
$TEXTSTYLE
  7
MX_NOTE_STANDARD
  9
$CLAYER
  8
LY_3
  9
$CELTYPE
  6
CONTINUOUS
  9
$CECOLOR
 62
             256
  9
$DIMSCALE
 40
1.0
  9
$DIMASZ
 40
2.5
  9
$DIMEXO
 40
2.0
  9
$DIMDLI
 40
3.75
  9
$DIMRND
 40
0.0
  9
$DIMDLE
 40
0.0
  9
$DIMEXE
 40
1.0
  9
$DIMTP
 40
0.0
  9
$DIMTM
 40
0.0
  9
$DIMTXT
 40
4.1655998229980469
  9
$DIMCEN
 40
2.5
  9
$DIMTSZ
 40
0.0
  9
$DIMTOL
 70
               0
  9
$DIMLIM
 70
               0
  9
$DIMTIH
 70
               0
  9
$DIMTOH
 70
               0
  9
$DIMSE1
 70
               0
  9
$DIMSE2
 70
               0
  9
$DIMTAD
 70
               1
  9
$DIMZIN
 70
               8
  9
$DIMBLK
  1

  9
$DIMASO
 70
               1
  9
$DIMSHO
 70
               1
  9
$DIMPOST
  1

  9
$DIMAPOST
  1

  9
$DIMALT
 70
               0
  9
$DIMALTD
 70
               4
  9
$DIMALTF
 40
0.03937007874016
  9
$DIMLFAC
 40
1.0
  9
$DIMTOFL
 70
               1
  9
$DIMTVP
 40
0.0
  9
$DIMTIX
 70
               0
  9
$DIMSOXD
 70
               0
  9
$DIMSAH
 70
               1
  9
$DIMBLK1
  1
_OPEN30
  9
$DIMBLK2
  1
_OPEN30
  9
$DIMSTYLE
  2
MXDIMSTYLE
  9
$DIMCLRD
 70
               0
  9
$DIMCLRE
 70
               0
  9
$DIMCLRT
 70
               0
  9
$DIMTFAC
 40
1.0
  9
$DIMGAP
 40
1.0
  9
$LUNITS
 70
               2
  9
$LUPREC
 70
               4
  9
$AXISMODE
 70
               0
  9
$AXISUNIT
 10
0.0
 20
0.0
  9
$SKETCHINC
 40
0.1
  9
$FILLETRAD
 40
0.0
  9
$AUNITS
 70
               0
  9
$AUPREC
 70
               0
  9
$MENU
  1
acad
  9
$ELEVATION
 40
0.0
  9
$PELEVATION
 40
0.0
  9
$THICKNESS
 40
0.0
  9
$LIMCHECK
 70
               0
  9
$BLIPMODE
 70
               1
  9
$CHAMFERA
 40
0.0
  9
$CHAMFERB
 40
0.0
  9
$SKPOLY
 70
               0
  9
$TDCREATE
 40
2455163.528067130
  9
$TDUPDATE
 40
2455163.528067130
  9
$TDINDWG
 40
0.0000000000
  9
$TDUSRTIMER
 40
0.0000000000
  9
$USRTIMER
 70
               1
  9
$ANGBASE
 50
0.0
  9
$ANGDIR
 70
               0
  9
$PDMODE
 70
               0
  9
$PDSIZE
 40
0.0
  9
$PLINEWID
 40
0.0
  9
$COORDS
 70
               1
  9
$SPLFRAME
 70
               0
  9
$SPLINETYPE
 70
               6
  9
$SPLINESEGS
 70
               8
  9
$ATTDIA
 70
               0
  9
$ATTREQ
 70
               1
  9
$HANDLING
 70
               1
  9
$HANDSEED
  5
143
  9
$SURFTAB1
 70
               6
  9
$SURFTAB2
 70
               6
  9
$SURFTYPE
 70
               6
  9
$SURFU
 70
               6
  9
$SURFV
 70
               6
  9
$UCSNAME
  2

  9
$UCSORG
 10
0.0
 20
0.0
 30
0.0
  9
$UCSXDIR
 10
1.0
 20
0.0
 30
0.0
  9
$UCSYDIR
 10
0.0
 20
1.0
 30
0.0
  9
$PUCSNAME
  2

  9
$PUCSORG
 10
0.0
 20
0.0
 30
0.0
  9
$PUCSXDIR
 10
1.0
 20
0.0
 30
0.0
  9
$PUCSYDIR
 10
0.0
 20
1.0
 30
0.0
  9
$USERI1
 70
               0
  9
$USERI2
 70
               0
  9
$USERI3
 70
               0
  9
$USERI4
 70
               0
  9
$USERI5
 70
               0
  9
$USERR1
 40
0.0
  9
$USERR2
 40
0.0
  9
$USERR3
 40
0.0
  9
$USERR4
 40
0.0
  9
$USERR5
 40
0.0
  9
$WORLDVIEW
 70
               1
  9
$SHADEDGE
 70
               3
  9
$SHADEDIF
 70
              70
  9
$TILEMODE
 70
               1
  9
$MAXACTVP
 70
              16
  9
$PINSBASE
 10
0.0
 20
0.0
 30
0.0
  9
$PLIMCHECK
 70
               0
  9
$PEXTMIN
 10
1.0000000000000000E+20
 20
1.0000000000000000E+20
 30
1.0000000000000000E+20
  9
$PEXTMAX
 10
-1.0000000000000000E+20
 20
-1.0000000000000000E+20
 30
-1.0000000000000000E+20
  9
$PLIMMIN
 10
0.0
 20
0.0
  9
$PLIMMAX
 10
12.0
 20
9.0
  9
$UNITMODE
 70
               0
  9
$VISRETAIN
 70
               0
  9
$PLINEGEN
 70
               1
  9
$PSLTSCALE
 70
               0
  9
$TREEDEPTH
 70
            3020
  0
ENDSEC
  0
SECTION
  2
TABLES
  0
TABLE
  2
VPORT
 70
               1
  0
VPORT
  2
*ACTIVE
 70
               0
 10
0.0
 20
0.0
 11
1.0
 21
1.0
 12
195.16248899999999
 22
-128.70000004768372
 13
0.0
 23
0.0
 14
1.0
 24
1.0
 15
0.0
 25
0.0
 16
0.0
 26
0.0
 36
1.0
 17
0.0
 27
0.0
 37
0.0
 40
294.31400009632108
 41
1.7320508075688772
 42
50.0
 43
0.0
 44
0.0
 50
0.0
 51
0.0
 71
               0
 72
             100
 73
               1
 74
               1
 75
               0
 76
               0
 77
               0
 78
               0
  0
ENDTAB
  0
TABLE
  2
LTYPE
 70
               2
  0
LTYPE
  2
CONTINUOUS
 70
              64
  3
Solid line
 72
              65
 73
               0
 40
0.0
  0
LTYPE
  2
CENTER
 70
              64
  3
Center ____ _ ____ _ ____ _ ____ _ ____ _ ____
 72
              65
 73
               4
 40
50.800000000000004
 49
31.75
 49
-6.3499999999999996
 49
6.3499999999999996
 49
-6.3499999999999996
  0
ENDTAB
  0
TABLE
  2
LAYER
 70
               3
  0
LAYER
  2
0
 70
               0
 62
               7
  6
CONTINUOUS
  0
LAYER
  2
DEFPOINTS
 70
               0
 62
               7
  6
CONTINUOUS
  0
LAYER
  2
LY_3
 70
               0
 62
               7
  6
CONTINUOUS
  0
ENDTAB
  0
TABLE
  2
STYLE
 70
               1
  0
STYLE
  2
MX_NOTE_STANDARD
 70
               0
 40
0.0
 41
1.0
 50
0.0
 71
               0
 42
3.2000000476837158
  3
txt.shx
  4
extfont.shx
  0
ENDTAB
  0
TABLE
  2
VIEW
 70
               0
  0
ENDTAB
  0
TABLE
  2
UCS
 70
               0
  0
ENDTAB
  0
TABLE
  2
APPID
 70
               1
  0
APPID
  2
ACAD
 70
               0
  0
ENDTAB
  0
TABLE
  2
DIMSTYLE
 70
               1
  0
DIMSTYLE
  2
MXDIMSTYLE
 70
               0
  3

  4

  5

  6
_OPEN30
  7
_OPEN30
 40
1.0
 41
2.5
 42
2.0
 43
3.75
 44
1.0
 45
0.0
 46
0.0
 47
0.0
 48
0.0
 71
               0
 72
               0
 73
               0
 74
               0
 75
               0
 76
               0
 77
               1
 78
               8
140
4.1655998229980469
141
2.5
142
0.0
143
0.03937007874016
144
1.0
145
0.0
146
1.0
147
1.0
170
               0
171
               4
172
               1
173
               1
174
               0
175
               0
176
               0
177
               0
178
               0
  0
ENDTAB
  0
ENDSEC
  0
SECTION
  2
BLOCKS
  0
BLOCK
  8
0
  6
BYBLOCK
 62
               0
  5
20
  2
_OPEN30
 70
               2
 10
0.0
 20
0.0
 30
0.0
  3
_OPEN30
  0
LINE
  8
0
  6
BYBLOCK
 62
               0
  5
21
 10
-1.0
 20
0.267949
 30
0.0
 11
0.0
 21
0.0
 31
0.0
  0
LINE
  8
0
  6
BYBLOCK
 62
               0
  5
22
 10
0.0
 20
0.0
 30
0.0
 11
-1.0
 21
-0.267949
 31
0.0
  0
LINE
  8
0
  6
BYBLOCK
 62
               0
  5
23
 10
0.0
 20
0.0
 30
0.0
 11
-1.0
 21
0.0
 31
0.0
  0
ENDBLK
  8
0
  6
BYBLOCK
 62
               0
  5
24
  0
ENDSEC
  0
SECTION
  2
ENTITIES
  0
LINE
  8
LY_3
  6
CONTINUOUS
 62
               3
  5
25
 10
95.352114
 20
-178.65000000000001
 30
0.0
 11
20.0
 21
-178.65000000000001
 31
0.0
  0
LINE
  8
LY_3
  6
CONTINUOUS
 62
               3
  5
26
 10
95.352114
 20
-221.34999999999999
 30
0.0
 11
20.0
 21
-221.34999999999999
 31
0.0
  0
LINE
  8
LY_3
  6
CONTINUOUS
 62
               3
  5
27
 10
239.05736999999999
 20
-9.75
 30
0.0
 11
164.0
 21
-9.75
 31
0.0
  0
LINE
  8
LY_3
  6
CONTINUOUS
 62
               3
  5
28
 10
239.352114
 20
-70.25
 30
0.0
 11
164.0
 21
-70.25
 31
0.0
  0
TEXT
  8
LY_3
  6
CONTINUOUS
 62
             110
  5
29
 10
327.52941177180065
 20
-273.60000002384186
 30
0.0
 40
3.2000000476837158
  1
VP5100
 41
0.9929999876960236
  7
MX_NOTE_STANDARD
 11
327.52941177180065
 21
-270.39999997615814
 31
0.0
 73
               3
  0
LINE
  8
LY_3
  6
CONTINUOUS
 62
               3
  5
2A
 10
308.0
 20
-144.94999999999999
 30
0.0
 11
368.0
 21
-144.94999999999999
 31
0.0
  0
LINE
  8
LY_3
  6
CONTINUOUS
 62
               3
  5
2B
 10
300.98519399999998
 20
-148.90000000000001
 30
0.0
 11
300.98519399999998
 21
-200.0
 31
0.0
  0
LINE
  8
LY_3
  6
CONTINUOUS
 62
               3
  5
2C
 10
300.98519399999998
 20
-148.90000000000001
 30
0.0
 11
308.0
 21
-144.84999999999999
 31
0.0
  0
LINE
  8
LY_3
  6
CENTER
 62
             110
  5
2E
 10
281.33177899999998
 20
-200.0
 30
0.0
 11
398.32497799999999
 21
-200.0
 31
0.0
  0
LINE
  8
LY_3
  6
CONTINUOUS
 62
               3
  5
2F
 10
288.0
 20
-267.0
 30
0.0
 11
294.94968900000003
 21
-267.0
 31
0.0
  0
LINE
  8
LY_3
  6
CONTINUOUS
 62
               3
  5
30
 10
288.0
 20
-133.0
 30
0.0
 11
294.94968900000003
 21
-133.0
 31
0.0
  0
LINE
  8
LY_3
  6
CONTINUOUS
 62
               3
  5
31
 10
288.0
 20
-133.0
 30
0.0
 11
288.0
 21
-267.0
 31
0.0
  0
LINE
  8
LY_3
  6
CONTINUOUS
 62
               3
  5
32
 10
313.0
 20
-141.0
 30
0.0
 11
313.0
 21
-142.84999999999999
 31
0.0
  0
LINE
  8
LY_3
  6
CONTINUOUS
 62
               3
  5
33
 10
296.0
 20
-200.0
 30
0.0
 11
296.0
 21
-266.56161800000001
 31
0.0
  0
LINE
  8
LY_3
  6
CONTINUOUS
 62
               3
  5
34
 10
296.35922800000003
 20
-133.98696999999999
 30
0.0
 11
298.91176200000001
 21
-141.0
 31
0.0
  0
LINE
  8
LY_3
  6
CONTINUOUS
 62
               3
  5
35
 10
296.35922800000003
 20
-266.01303000000001
 30
0.0
 11
298.91176200000001
 21
-259.0
 31
0.0
  0
LINE
  8
LY_3
  6
CONTINUOUS
 62
               3
  5
36
 10
298.91176200000001
 20
-259.0
 30
0.0
 11
313.0
 21
-259.0
 31
0.0
  0
LINE
  8
LY_3
  6
CONTINUOUS
 62
               3
  5
37
 10
298.91176200000001
 20
-141.0
 30
0.0
 11
313.0
 21
-141.0
 31
0.0
  0
LINE
  8
LY_3
  6
CONTINUOUS
 62
               3
  5
38
 10
308.0
 20
-142.75
 30
0.0
 11
313.0
 21
-142.75
 31
0.0
  0
LINE
  8
LY_3
  6
CONTINUOUS
 62
               3
  5
39
 10
308.0
 20
-142.75
 30
0.0
 11
308.0
 21
-200.0
 31
0.0
  0
LINE
  8
LY_3
  6
CONTINUOUS
 62
               3
  5
3A
 10
298.91176200000001
 20
-200.0
 30
0.0
 11
298.91176200000001
 21
-259.0
 31
0.0
  0
LINE
  8
LY_3
  6
CONTINUOUS
 62
               3
  5
3B
 10
288.0
 20
-148.90000000000001
 30
0.0
 11
300.98519399999998
 21
-148.90000000000001
 31
0.0
  0
LINE
  8
LY_3
  6
CONTINUOUS
 62
               3
  5
3C
 10
388.0
 20
-267.0
 30
0.0
 11
381.05031099999997
 21
-267.0
 31
0.0
  0
LINE
  8
LY_3
  6
CONTINUOUS
 62
               3
  5
3D
 10
388.0
 20
-133.0
 30
0.0
 11
381.05031099999997
 21
-133.0
 31
0.0
  0
LINE
  8
LY_3
  6
CONTINUOUS
 62
               3
  5
3E
 10
388.0
 20
-133.0
 30
0.0
 11
388.0
 21
-267.0
 31
0.0
  0
LINE
  8
LY_3
  6
CONTINUOUS
 62
               3
  5
3F
 10
363.0
 20
-141.0
 30
0.0
 11
363.0
 21
-142.84999999999999
 31
0.0
  0
LINE
  8
LY_3
  6
CONTINUOUS
 62
               3
  5
40
 10
380.0
 20
-200.0
 30
0.0
 11
380.0
 21
-266.56161800000001
 31
0.0
  0
LINE
  8
LY_3
  6
CONTINUOUS
 62
               3
  5
41
 10
379.64077199999997
 20
-133.98696999999999
 30
0.0
 11
377.08823799999999
 21
-141.0
 31
0.0
  0
LINE
  8
LY_3
  6
CONTINUOUS
 62
               3
  5
42
 10
379.64077199999997
 20
-266.01303000000001
 30
0.0
 11
377.08823799999999
 21
-259.0
 31
0.0
  0
LINE
  8
LY_3
  6
CONTINUOUS
 62
               3
  5
43
 10
377.08823799999999
 20
-259.0
 30
0.0
 11
363.0
 21
-259.0
 31
0.0
  0
LINE
  8
LY_3
  6
CONTINUOUS
 62
               3
  5
44
 10
377.08823799999999
 20
-141.0
 30
0.0
 11
363.0
 21
-141.0
 31
0.0
  0
LINE
  8
LY_3
  6
CONTINUOUS
 62
               3
  5
45
 10
368.0
 20
-142.75
 30
0.0
 11
363.0
 21
-142.75
 31
0.0
  0
LINE
  8
LY_3
  6
CONTINUOUS
 62
               3
  5
46
 10
368.0
 20
-142.75
 30
0.0
 11
368.0
 21
-200.0
 31
0.0
  0
LINE
  8
LY_3
  6
CONTINUOUS
 62
               3
  5
47
 10
377.08823799999999
 20
-200.0
 30
0.0
 11
377.08823799999999
 21
-259.0
 31
0.0
  0
LINE
  8
LY_3
  6
CONTINUOUS
 62
               3
  5
48
 10
388.0
 20
-149.0
 30
0.0
 11
375.01480600000002
 21
-149.0
 31
0.0
  0
LINE
  8
LY_3
  6
CONTINUOUS
 62
               3
  5
49
 10
308.0
 20
-142.84999999999999
 30
0.0
 11
368.0
 21
-142.84999999999999
 31
0.0
  0
LINE
  8
LY_3
  6
CONTINUOUS
 62
               3
  5
4A
 10
313.0
 20
-257.14999999999998
 30
0.0
 11
363.0
 21
-257.14999999999998
 31
0.0
  0
LINE
  8
LY_3
  6
CONTINUOUS
 62
               3
  5
4B
 10
313.0
 20
-200.0
 30
0.0
 11
313.0
 21
-259.0
 31
0.0
  0
LINE
  8
LY_3
  6
CONTINUOUS
 62
               3
  5
4C
 10
363.0
 20
-200.0
 30
0.0
 11
363.0
 21
-259.0
 31
0.0
  0
LINE
  8
LY_3
  6
CONTINUOUS
 62
               3
  5
4D
 10
368.0
 20
-144.94999999999999
 30
0.0
 11
375.01480600000002
 21
-149.0
 31
0.0
  0
LINE
  8
LY_3
  6
CONTINUOUS
 62
               3
  5
4E
 10
375.01480600000002
 20
-149.0
 30
0.0
 11
375.01480600000002
 21
-200.0
 31
0.0
  0
ARC
  8
LY_3
  6
CONTINUOUS
 62
               3
  5
4F
 10
294.94968900000003
 20
-265.5
 30
0.0
 40
1.5
 50
270.0
 51
340.0
  0
ARC
  8
LY_3
  6
CONTINUOUS
 62
               3
  5
50
 10
294.94968900000003
 20
-134.5
 30
0.0
 40
1.5
 50
20.0
 51
90.0
  0
ARC
  8
LY_3
  6
CONTINUOUS
 62
               3
  5
51
 10
381.05031099999997
 20
-265.5
 30
0.0
 40
1.5
 50
200.0
 51
270.0
  0
ARC
  8
LY_3
  6
CONTINUOUS
 62
               3
  5
52
 10
381.05031099999997
 20
-134.5
 30
0.0
 40
1.5
 50
90.0
 51
160.0
  0
TEXT
  8
LY_3
  6
CONTINUOUS
 62
             110
  5
53
 10
327.50000000050068
 20
-97.600000023841858
 30
0.0
 40
3.2000000476837158
  1
VP5080
 41
0.9369999775737528
  7
MX_NOTE_STANDARD
 11
327.50000000050068
 21
-94.399999976158142
 31
0.0
 73
               3
  0
LINE
  8
LY_3
  6
CONTINUOUS
 62
               3
  5
54
 10
363.0
 20
9.0
 30
0.0
 11
363.0
 21
4.5499999999999972
 31
0.0
  0
LINE
  8
LY_3
  6
CONTINUOUS
 62
               3
  5
55
 10
368.0
 20
4.6500000000000057
 30
0.0
 11
368.0
 21
-40.0
 31
0.0
  0
LINE
  8
LY_3
  6
CONTINUOUS
 62
               3
  5
56
 10
363.0
 20
-40.0
 30
0.0
 11
363.0
 21
-89.0
 31
0.0
  0
ARC
  8
LY_3
  6
CONTINUOUS
 62
               3
  5
57
 10
381.05031099999997
 20
-95.5
 30
0.0
 40
1.5
 50
200.0
 51
270.0
  0
LINE
  8
LY_3
  6
CONTINUOUS
 62
               3
  5
58
 10
379.64077199999997
 20
-96.013030000000015
 30
0.0
 11
377.08823799999999
 21
-89.0
 31
0.0
  0
LINE
  8
LY_3
  6
CONTINUOUS
 62
               3
  5
59
 10
388.0
 20
-97.0
 30
0.0
 11
381.05031099999997
 21
-97.0
 31
0.0
  0
LINE
  8
LY_3
  6
CONTINUOUS
 62
               3
  5
5A
 10
380.0
 20
-40.0
 30
0.0
 11
380.0
 21
-96.570909
 31
0.0
  0
LINE
  8
LY_3
  6
CONTINUOUS
 62
               3
  5
5B
 10
377.08823799999999
 20
-89.0
 30
0.0
 11
363.0
 21
-89.0
 31
0.0
  0
LINE
  8
LY_3
  6
CONTINUOUS
 62
               3
  5
5C
 10
377.08823799999999
 20
-40.0
 30
0.0
 11
377.08823799999999
 21
-89.0
 31
0.0
  0
LINE
  8
LY_3
  6
CONTINUOUS
 62
               3
  5
5D
 10
388.0
 20
17.0
 30
0.0
 11
388.0
 21
-97.0
 31
0.0
  0
ARC
  8
LY_3
  6
CONTINUOUS
 62
               3
  5
5E
 10
381.05031099999997
 20
15.5
 30
0.0
 40
1.5
 50
90.0
 51
160.0
  0
LINE
  8
LY_3
  6
CONTINUOUS
 62
               3
  5
5F
 10
379.64077199999997
 20
16.013030000000001
 30
0.0
 11
377.08823799999999
 21
9.0
 31
0.0
  0
LINE
  8
LY_3
  6
CONTINUOUS
 62
               3
  5
60
 10
375.01480600000002
 20
1.5999999999999943
 30
0.0
 11
375.01480600000002
 21
-40.0
 31
0.0
  0
LINE
  8
LY_3
  6
CONTINUOUS
 62
               3
  5
61
 10
375.01480600000002
 20
-1.5999999999999943
 30
0.0
 11
368.0
 21
2.4500000000000028
 31
0.0
  0
LINE
  8
LY_3
  6
CONTINUOUS
 62
               3
  5
62
 10
388.0
 20
17.0
 30
0.0
 11
381.05031099999997
 21
17.0
 31
0.0
  0
LINE
  8
LY_3
  6
CONTINUOUS
 62
               3
  5
63
 10
377.08823799999999
 20
9.0
 30
0.0
 11
363.0
 21
9.0
 31
0.0
  0
LINE
  8
LY_3
  6
CONTINUOUS
 62
               3
  5
64
 10
388.0
 20
1.5999999999999943
 30
0.0
 11
375.01480600000002
 21
1.5999999999999943
 31
0.0
  0
LINE
  8
LY_3
  6
CONTINUOUS
 62
               3
  5
65
 10
308.0
 20
2.4500000000000028
 30
0.0
 11
368.0
 21
2.4500000000000028
 31
0.0
  0
LINE
  8
LY_3
  6
CONTINUOUS
 62
               3
  5
66
 10
300.98519399999998
 20
1.5999999999999943
 30
0.0
 11
300.98519399999998
 21
-40.0
 31
0.0
  0
LINE
  8
LY_3
  6
CONTINUOUS
 62
               3
  5
67
 10
300.98519399999998
 20
-1.5999999999999943
 30
0.0
 11
308.0
 21
2.4500000000000028
 31
0.0
  0
LINE
  8
LY_3
  6
CENTER
 62
             110
  5
68
 10
281.33177899999998
 20
-40.0
 30
0.0
 11
398.32497799999999
 21
-40.0
 31
0.0
  0
LINE
  8
LY_3
  6
CONTINUOUS
 62
               3
  5
69
 10
288.0
 20
-97.0
 30
0.0
 11
294.94968900000003
 21
-97.0
 31
0.0
  0
LINE
  8
LY_3
  6
CONTINUOUS
 62
               3
  5
6A
 10
288.0
 20
17.0
 30
0.0
 11
294.94968900000003
 21
17.0
 31
0.0
  0
LINE
  8
LY_3
  6
CONTINUOUS
 62
               3
  5
6B
 10
288.0
 20
17.0
 30
0.0
 11
288.0
 21
-97.0
 31
0.0
  0
LINE
  8
LY_3
  6
CONTINUOUS
 62
               3
  5
6C
 10
313.0
 20
9.0
 30
0.0
 11
313.0
 21
4.5499999999999972
 31
0.0
  0
LINE
  8
LY_3
  6
CONTINUOUS
 62
               3
  5
6D
 10
296.0
 20
-40.0
 30
0.0
 11
296.0
 21
-96.570909
 31
0.0
  0
LINE
  8
LY_3
  6
CONTINUOUS
 62
               3
  5
6E
 10
296.35922800000003
 20
16.013030000000001
 30
0.0
 11
298.91176200000001
 21
9.0
 31
0.0
  0
LINE
  8
LY_3
  6
CONTINUOUS
 62
               3
  5
6F
 10
296.35922800000003
 20
-96.013030000000015
 30
0.0
 11
298.91176200000001
 21
-89.0
 31
0.0
  0
LINE
  8
LY_3
  6
CONTINUOUS
 62
               3
  5
70
 10
298.91176200000001
 20
-89.0
 30
0.0
 11
313.0
 21
-89.0
 31
0.0
  0
LINE
  8
LY_3
  6
CONTINUOUS
 62
               3
  5
71
 10
298.91176200000001
 20
9.0
 30
0.0
 11
313.0
 21
9.0
 31
0.0
  0
LINE
  8
LY_3
  6
CONTINUOUS
 62
               3
  5
72
 10
308.0
 20
4.6500000000000057
 30
0.0
 11
313.0
 21
4.6500000000000057
 31
0.0
  0
LINE
  8
LY_3
  6
CONTINUOUS
 62
               3
  5
73
 10
308.0
 20
4.6500000000000057
 30
0.0
 11
308.0
 21
-40.0
 31
0.0
  0
LINE
  8
LY_3
  6
CONTINUOUS
 62
               3
  5
74
 10
298.91176200000001
 20
-40.0
 30
0.0
 11
298.91176200000001
 21
-89.0
 31
0.0
  0
LINE
  8
LY_3
  6
CONTINUOUS
 62
               3
  5
75
 10
288.0
 20
1.5999999999999943
 30
0.0
 11
300.98519399999998
 21
1.5999999999999943
 31
0.0
  0
LINE
  8
LY_3
  6
CONTINUOUS
 62
               3
  5
76
 10
308.0
 20
4.5499999999999972
 30
0.0
 11
368.0
 21
4.5499999999999972
 31
0.0
  0
LINE
  8
LY_3
  6
CONTINUOUS
 62
               3
  5
77
 10
313.0
 20
-84.550000000000011
 30
0.0
 11
363.0
 21
-84.550000000000011
 31
0.0
  0
LINE
  8
LY_3
  6
CONTINUOUS
 62
               3
  5
78
 10
313.0
 20
-40.0
 30
0.0
 11
313.0
 21
-89.0
 31
0.0
  0
ARC
  8
LY_3
  6
CONTINUOUS
 62
               3
  5
79
 10
294.94968900000003
 20
-95.5
 30
0.0
 40
1.5
 50
270.0
 51
340.0
  0
ARC
  8
LY_3
  6
CONTINUOUS
 62
               3
  5
7A
 10
294.94968900000003
 20
15.5
 30
0.0
 40
1.5
 50
20.0
 51
90.0
  0
TEXT
  8
LY_3
  6
CONTINUOUS
 62
             110
  5
7B
 10
183.48648647438571
 20
-249.60000002384186
 30
0.0
 40
3.2000000476837158
  1
VP5063
 41
0.9119999807267578
  7
MX_NOTE_STANDARD
 11
183.48648647438571
 21
-246.39999997615814
 31
0.0
 73
               3
  0
LINE
  8
LY_3
  6
CONTINUOUS
 62
               3
  5
7C
 10
244.0
 20
-243.5
 30
0.0
 11
242.15099299999997
 21
-243.5
 31
0.0
  0
ARC
  8
LY_3
  6
CONTINUOUS
 62
               3
  5
7D
 10
242.15099299999997
 20
-242.0
 30
0.0
 40
1.5
 50
195.000011
 51
269.99998199999999
  0
LINE
  8
LY_3
  6
CONTINUOUS
 62
               3
  5
7E
 10
240.70210500000002
 20
-242.38823300000001
 30
0.0
 11
239.566474
 21
-238.14999999999998
 31
0.0
  0
LINE
  8
LY_3
  6
CONTINUOUS
 62
               3
  5
7F
 10
239.566474
 20
-238.14999999999998
 30
0.0
 11
239.566474
 21
-200.0
 31
0.0
  0
LINE
  8
LY_3
  6
CONTINUOUS
 62
               3
  5
80
 10
239.566474
 20
-238.14999999999998
 30
0.0
 11
224.0
 21
-238.14999999999998
 31
0.0
  0
LINE
  8
LY_3
  6
CONTINUOUS
 62
               3
  5
81
 10
241.0
 20
-200.0
 30
0.0
 11
241.0
 21
-242.96188100000001
 31
0.0
  0
LINE
  8
LY_3
  6
CONTINUOUS
 62
               3
  5
82
 10
244.0
 20
-156.5
 30
0.0
 11
242.15098999999998
 21
-156.5
 31
0.0
  0
LINE
  8
LY_3
  6
CONTINUOUS
 62
               3
  5
83
 10
240.70210500000002
 20
-157.61176699999999
 30
0.0
 11
239.566474
 21
-161.85000000000002
 31
0.0
  0
ARC
  8
LY_3
  6
CONTINUOUS
 62
               3
  5
84
 10
242.15098999999998
 20
-158.0
 30
0.0
 40
1.5
 50
90.000017999999997
 51
164.99995200000001
  0
LINE
  8
LY_3
  6
CONTINUOUS
 62
               3
  5
85
 10
244.0
 20
-164.89999999999998
 30
0.0
 11
224.0
 21
-164.89999999999998
 31
0.0
  0
LINE
  8
LY_3
  6
CONTINUOUS
 62
               3
  5
86
 10
239.566474
 20
-161.85000000000002
 30
0.0
 11
224.0
 21
-161.85000000000002
 31
0.0
  0
LINE
  8
LY_3
  6
CONTINUOUS
 62
               3
  5
87
 10
244.0
 20
-156.5
 30
0.0
 11
244.0
 21
-243.5
 31
0.0
  0
LINE
  8
LY_3
  6
CONTINUOUS
 62
               3
  5
88
 10
148.433526
 20
-238.14999999999998
 30
0.0
 11
148.433526
 21
-200.0
 31
0.0
  0
LINE
  8
LY_3
  6
CONTINUOUS
 62
               3
  5
89
 10
147.29789500000001
 20
-242.38823300000001
 30
0.0
 11
148.433526
 21
-238.14999999999998
 31
0.0
  0
LINE
  8
LY_3
  6
CONTINUOUS
 62
               3
  5
8A
 10
148.433526
 20
-238.14999999999998
 30
0.0
 11
164.0
 21
-238.14999999999998
 31
0.0
  0
LINE
  8
LY_3
  6
CONTINUOUS
 62
               3
  5
8B
 10
224.0
 20
-161.85000000000002
 30
0.0
 11
224.0
 21
-238.14999999999998
 31
0.0
  0
LINE
  8
LY_3
  6
CONTINUOUS
 62
               3
  5
8C
 10
164.0
 20
-161.85000000000002
 30
0.0
 11
164.0
 21
-238.14999999999998
 31
0.0
  0
LINE
  8
LY_3
  6
CONTINUOUS
 62
               3
  5
8D
 10
164.0
 20
-161.85000000000002
 30
0.0
 11
224.0
 21
-161.85000000000002
 31
0.0
  0
LINE
  8
LY_3
  6
CONTINUOUS
 62
               3
  5
8E
 10
164.0
 20
-238.14999999999998
 30
0.0
 11
224.0
 21
-238.14999999999998
 31
0.0
  0
ARC
  8
LY_3
  6
CONTINUOUS
 62
               3
  5
8F
 10
145.84900999999999
 20
-158.0
 30
0.0
 40
1.5
 50
15.000048000000001
 51
89.999982000000003
  0
ARC
  8
LY_3
  6
CONTINUOUS
 62
               3
  5
90
 10
145.849007
 20
-242.0
 30
0.0
 40
1.5
 50
270.00001800000001
 51
344.99998900000003
  0
LINE
  8
LY_3
  6
CONTINUOUS
 62
               3
  5
91
 10
164.0
 20
-163.94999999999999
 30
0.0
 11
224.0
 21
-163.94999999999999
 31
0.0
  0
LINE
  8
LY_3
  6
CONTINUOUS
 62
               3
  5
92
 10
144.0
 20
-164.89999999999998
 30
0.0
 11
164.0
 21
-164.89999999999998
 31
0.0
  0
LINE
  8
LY_3
  6
CONTINUOUS
 62
               3
  5
93
 10
147.29789500000001
 20
-157.61176699999999
 30
0.0
 11
148.433526
 21
-161.85000000000002
 31
0.0
  0
LINE
  8
LY_3
  6
CONTINUOUS
 62
               3
  5
94
 10
147.0
 20
-200.0
 30
0.0
 11
147.0
 21
-242.96188100000001
 31
0.0
  0
LINE
  8
LY_3
  6
CONTINUOUS
 62
               3
  5
95
 10
148.433526
 20
-161.85000000000002
 30
0.0
 11
164.0
 21
-161.85000000000002
 31
0.0
  0
LINE
  8
LY_3
  6
CONTINUOUS
 62
               3
  5
96
 10
144.0
 20
-243.5
 30
0.0
 11
145.849007
 21
-243.5
 31
0.0
  0
LINE
  8
LY_3
  6
CONTINUOUS
 62
               3
  5
97
 10
144.0
 20
-156.5
 30
0.0
 11
145.84900999999999
 21
-156.5
 31
0.0
  0
LINE
  8
LY_3
  6
CONTINUOUS
 62
               3
  5
98
 10
144.0
 20
-156.5
 30
0.0
 11
144.0
 21
-243.5
 31
0.0
  0
LINE
  8
LY_3
  6
CENTER
 62
             110
  5
99
 10
139.64474799999999
 20
-200.0
 30
0.0
 11
248.45793600000002
 21
-200.0
 31
0.0
  0
TEXT
  8
LY_3
  6
CONTINUOUS
 62
             110
  5
9A
 10
183.50000000050068
 20
-81.600000023841858
 30
0.0
 40
3.2000000476837158
  1
VP5050
 41
0.9369999775737528
  7
MX_NOTE_STANDARD
 11
183.50000000050068
 21
-78.399999976158142
 31
0.0
 73
               3
  0
LINE
  8
LY_3
  6
CONTINUOUS
 62
               3
  5
9B
 10
244.0
 20
-77.5
 30
0.0
 11
242.15099299999997
 21
-77.5
 31
0.0
  0
ARC
  8
LY_3
  6
CONTINUOUS
 62
               3
  5
9C
 10
242.15099299999997
 20
-76.0
 30
0.0
 40
1.5
 50
195.000011
 51
269.99998199999999
  0
LINE
  8
LY_3
  6
CONTINUOUS
 62
               3
  5
9D
 10
240.70210500000002
 20
-76.388233000000014
 30
0.0
 11
239.352114
 21
-71.350000000000023
 31
0.0
  0
LINE
  8
LY_3
  6
CONTINUOUS
 62
               3
  5
9E
 10
239.352114
 20
-71.350000000000023
 30
0.0
 11
239.352114
 21
-40.0
 31
0.0
  0
LINE
  8
LY_3
  6
CONTINUOUS
 62
               3
  5
9F
 10
241.0
 20
-40.0
 30
0.0
 11
241.0
 21
-76.961881000000005
 31
0.0
  0
LINE
  8
LY_3
  6
CONTINUOUS
 62
               3
  5
A0
 10
244.0
 20
-2.5
 30
0.0
 11
242.15098999999998
 21
-2.5
 31
0.0
  0
LINE
  8
LY_3
  6
CONTINUOUS
 62
               3
  5
A1
 10
240.70210500000002
 20
-3.6117669999999862
 30
0.0
 11
239.05736999999999
 21
-9.75
 31
0.0
  0
LINE
  8
LY_3
  6
CONTINUOUS
 62
               3
  5
A2
 10
244.0
 20
-13.900000000000006
 30
0.0
 11
241.5
 21
-13.900000000000006
 31
0.0
  0
ARC
  8
LY_3
  6
CONTINUOUS
 62
               3
  5
A3
 10
242.15098999999998
 20
-4.0
 30
0.0
 40
1.5
 50
90.000017999999997
 51
164.99995200000001
  0
LINE
  8
LY_3
  6
CONTINUOUS
 62
               3
  5
A4
 10
241.5
 20
-12.5
 30
0.0
 11
241.5
 21
-40.0
 31
0.0
  0
LINE
  8
LY_3
  6
CONTINUOUS
 62
               3
  5
A5
 10
241.5
 20
-12.5
 30
0.0
 11
224.0
 21
-12.5
 31
0.0
  0
LINE
  8
LY_3
  6
CONTINUOUS
 62
               3
  5
A6
 10
244.0
 20
-2.5
 30
0.0
 11
244.0
 21
-77.5
 31
0.0
  0
LINE
  8
LY_3
  6
CONTINUOUS
 62
               3
  5
A7
 10
224.0
 20
-9.75
 30
0.0
 11
224.0
 21
-70.25
 31
0.0
  0
LINE
  8
LY_3
  6
CONTINUOUS
 62
               3
  5
A8
 10
148.647886
 20
-71.350000000000023
 30
0.0
 11
148.647886
 21
-40.0
 31
0.0
  0
LINE
  8
LY_3
  6
CONTINUOUS
 62
               3
  5
A9
 10
147.29789500000001
 20
-76.388233000000014
 30
0.0
 11
148.647886
 21
-71.350000000000023
 31
0.0
  0
LINE
  8
LY_3
  6
CONTINUOUS
 62
               3
  5
AA
 10
148.647886
 20
-70.25
 30
0.0
 11
164.0
 21
-70.25
 31
0.0
  0
LINE
  8
LY_3
  6
CONTINUOUS
 62
               3
  5
AB
 10
164.0
 20
-9.75
 30
0.0
 11
164.0
 21
-70.25
 31
0.0
  0
ARC
  8
LY_3
  6
CONTINUOUS
 62
               3
  5
AC
 10
145.84900999999999
 20
-4.0
 30
0.0
 40
1.5
 50
15.000048000000001
 51
89.999982000000003
  0
ARC
  8
LY_3
  6
CONTINUOUS
 62
               3
  5
AD
 10
145.849007
 20
-76.0
 30
0.0
 40
1.5
 50
270.00001800000001
 51
344.99998900000003
  0
LINE
  8
LY_3
  6
CONTINUOUS
 62
               3
  5
AE
 10
164.0
 20
-11.75
 30
0.0
 11
224.0
 21
-11.75
 31
0.0
  0
LINE
  8
LY_3
  6
CONTINUOUS
 62
               3
  5
AF
 10
146.5
 20
-12.5
 30
0.0
 11
146.5
 21
-40.0
 31
0.0
  0
LINE
  8
LY_3
  6
CONTINUOUS
 62
               3
  5
B0
 10
144.0
 20
-13.900000000000006
 30
0.0
 11
146.5
 21
-13.900000000000006
 31
0.0
  0
LINE
  8
LY_3
  6
CONTINUOUS
 62
               3
  5
B1
 10
146.5
 20
-12.5
 30
0.0
 11
164.0
 21
-12.5
 31
0.0
  0
LINE
  8
LY_3
  6
CONTINUOUS
 62
               3
  5
B2
 10
147.29789500000001
 20
-3.6117669999999862
 30
0.0
 11
148.94263000000001
 21
-9.75
 31
0.0
  0
LINE
  8
LY_3
  6
CONTINUOUS
 62
               3
  5
B3
 10
147.0
 20
-40.0
 30
0.0
 11
147.0
 21
-76.961881000000005
 31
0.0
  0
LINE
  8
LY_3
  6
CONTINUOUS
 62
               3
  5
B4
 10
148.94263000000001
 20
-9.75
 30
0.0
 11
164.0
 21
-9.75
 31
0.0
  0
LINE
  8
LY_3
  6
CONTINUOUS
 62
               3
  5
B5
 10
144.0
 20
-77.5
 30
0.0
 11
145.849007
 21
-77.5
 31
0.0
  0
LINE
  8
LY_3
  6
CONTINUOUS
 62
               3
  5
B6
 10
144.0
 20
-2.5
 30
0.0
 11
145.84900999999999
 21
-2.5
 31
0.0
  0
LINE
  8
LY_3
  6
CONTINUOUS
 62
               3
  5
B7
 10
144.0
 20
-2.5
 30
0.0
 11
144.0
 21
-77.5
 31
0.0
  0
LINE
  8
LY_3
  6
CENTER
 62
             110
  5
B8
 10
139.64474799999999
 20
-40.0
 30
0.0
 11
248.45793600000002
 21
-40.0
 31
0.0
  0
TEXT
  8
LY_3
  6
CONTINUOUS
 62
             110
  5
B9
 10
39.500000000500677
 20
-233.60000002384186
 30
0.0
 40
3.2000000476837158
  1
VP5040
 41
0.9369999775737528
  7
MX_NOTE_STANDARD
 11
39.500000000500677
 21
-230.39999997615814
 31
0.0
 73
               3
  0
LINE
  8
LY_3
  6
CONTINUOUS
 62
               3
  5
BA
 10
100.0
 20
-227.5
 30
0.0
 11
98.150993
 21
-227.5
 31
0.0
  0
ARC
  8
LY_3
  6
CONTINUOUS
 62
               3
  5
BB
 10
98.150993
 20
-226.0
 30
0.0
 40
1.5
 50
195.000011
 51
269.99998199999999
  0
LINE
  8
LY_3
  6
CONTINUOUS
 62
               3
  5
BC
 10
96.702105000000003
 20
-226.38823300000001
 30
0.0
 11
95.352114
 21
-221.34999999999999
 31
0.0
  0
LINE
  8
LY_3
  6
CONTINUOUS
 62
               3
  5
BD
 10
95.352114
 20
-221.34999999999999
 30
0.0
 11
95.352114
 21
-200.0
 31
0.0
  0
LINE
  8
LY_3
  6
CONTINUOUS
 62
               3
  5
BE
 10
97.0
 20
-200.0
 30
0.0
 11
97.0
 21
-226.96188100000001
 31
0.0
  0
LINE
  8
LY_3
  6
CONTINUOUS
 62
               3
  5
BF
 10
100.0
 20
-172.5
 30
0.0
 11
98.150989999999993
 21
-172.5
 31
0.0
  0
ARC
  8
LY_3
  6
CONTINUOUS
 62
               3
  5
C0
 10
98.150989999999993
 20
-174.0
 30
0.0
 40
1.5
 50
90.000017999999997
 51
164.99995200000001
  0
LINE
  8
LY_3
  6
CONTINUOUS
 62
               3
  5
C1
 10
80.0
 20
-178.65000000000001
 30
0.0
 11
80.0
 21
-221.34999999999999
 31
0.0
  0
LINE
  8
LY_3
  6
CONTINUOUS
 62
               3
  5
C2
 10
100.0
 20
-179.40000000000001
 30
0.0
 11
97.5
 21
-179.40000000000001
 31
0.0
  0
LINE
  8
LY_3
  6
CONTINUOUS
 62
               3
  5
C3
 10
97.5
 20
-179.40000000000001
 30
0.0
 11
97.5
 21
-200.0
 31
0.0
  0
LINE
  8
LY_3
  6
CONTINUOUS
 62
               3
  5
C4
 10
96.702105000000003
 20
-173.61176699999999
 30
0.0
 11
95.352114
 21
-178.65000000000001
 31
0.0
  0
LINE
  8
LY_3
  6
CONTINUOUS
 62
               3
  5
C5
 10
100.0
 20
-172.5
 30
0.0
 11
100.0
 21
-227.5
 31
0.0
  0
LINE
  8
LY_3
  6
CONTINUOUS
 62
               3
  5
C6
 10
97.5
 20
-180.5
 30
0.0
 11
80.0
 21
-180.5
 31
0.0
  0
LINE
  8
LY_3
  6
CONTINUOUS
 62
               3
  5
C7
 10
4.6478859999999997
 20
-221.34999999999999
 30
0.0
 11
4.6478859999999997
 21
-200.0
 31
0.0
  0
LINE
  8
LY_3
  6
CONTINUOUS
 62
               3
  5
C8
 10
3.297895
 20
-226.38823300000001
 30
0.0
 11
4.6478859999999997
 21
-221.34999999999999
 31
0.0
  0
LINE
  8
LY_3
  6
CONTINUOUS
 62
               3
  5
C9
 10
4.6478859999999997
 20
-221.34999999999999
 30
0.0
 11
20.0
 21
-221.34999999999999
 31
0.0
  0
LINE
  8
LY_3
  6
CONTINUOUS
 62
               3
  5
CA
 10
20.0
 20
-178.65000000000001
 30
0.0
 11
20.0
 21
-221.34999999999999
 31
0.0
  0
ARC
  8
LY_3
  6
CONTINUOUS
 62
               3
  5
CB
 10
1.84901
 20
-174.0
 30
0.0
 40
1.5
 50
15.000048000000001
 51
89.999982000000003
  0
ARC
  8
LY_3
  6
CONTINUOUS
 62
               3
  5
CC
 10
1.8490070000000001
 20
-226.0
 30
0.0
 40
1.5
 50
270.00001800000001
 51
344.99998900000003
  0
LINE
  8
LY_3
  6
CONTINUOUS
 62
               3
  5
CD
 10
20.0
 20
-180.65000000000001
 30
0.0
 11
80.0
 21
-180.65000000000001
 31
0.0
  0
LINE
  8
LY_3
  6
CONTINUOUS
 62
               3
  5
CE
 10
2.5
 20
-179.40000000000001
 30
0.0
 11
2.5
 21
-200.0
 31
0.0
  0
LINE
  8
LY_3
  6
CONTINUOUS
 62
               3
  5
CF
 10
0.0
 20
-179.40000000000001
 30
0.0
 11
2.5
 21
-179.40000000000001
 31
0.0
  0
LINE
  8
LY_3
  6
CONTINUOUS
 62
               3
  5
D0
 10
2.5
 20
-180.5
 30
0.0
 11
20.0
 21
-180.5
 31
0.0
  0
LINE
  8
LY_3
  6
CONTINUOUS
 62
               3
  5
D1
 10
3.297895
 20
-173.61176699999999
 30
0.0
 11
4.6478859999999997
 21
-178.65000000000001
 31
0.0
  0
LINE
  8
LY_3
  6
CONTINUOUS
 62
               3
  5
D2
 10
3.0
 20
-200.0
 30
0.0
 11
3.0
 21
-226.96188100000001
 31
0.0
  0
LINE
  8
LY_3
  6
CONTINUOUS
 62
               3
  5
D3
 10
4.6478859999999997
 20
-178.65000000000001
 30
0.0
 11
20.0
 21
-178.65000000000001
 31
0.0
  0
LINE
  8
LY_3
  6
CONTINUOUS
 62
               3
  5
D4
 10
0.0
 20
-227.5
 30
0.0
 11
1.8490070000000001
 21
-227.5
 31
0.0
  0
LINE
  8
LY_3
  6
CONTINUOUS
 62
               3
  5
D5
 10
0.0
 20
-172.5
 30
0.0
 11
1.84901
 21
-172.5
 31
0.0
  0
LINE
  8
LY_3
  6
CONTINUOUS
 62
               3
  5
D6
 10
0.0
 20
-172.5
 30
0.0
 11
0.0
 21
-227.5
 31
0.0
  0
LINE
  8
LY_3
  6
CENTER
 62
             110
  5
D7
 10
-4.3552520000000001
 20
-200.0
 30
0.0
 11
104.457936
 21
-200.0
 31
0.0
  0
TEXT
  8
LY_3
  6
CONTINUOUS
 62
             110
  5
D8
 10
39.486486474385714
 20
-145.60000002384186
 30
0.0
 40
3.2000000476837158
  1
VP5025
 41
0.9119999807267578
  7
MX_NOTE_STANDARD
 11
39.486486474385714
 21
-142.39999997615814
 31
0.0
 73
               3
  0
LINE
  8
LY_3
  6
CONTINUOUS
 62
               3
  5
D9
 10
20.0
 20
-133.599998
 30
0.0
 11
80.0
 21
-133.599998
 31
0.0
  0
LINE
  8
LY_3
  6
CONTINUOUS
 62
               3
  5
DA
 10
20.0
 20
-106.400002
 30
0.0
 11
80.0
 21
-106.400002
 31
0.0
  0
LINE
  8
LY_3
  6
CONTINUOUS
 62
               3
  5
DB
 10
80.0
 20
-133.599998
 30
0.0
 11
95.285126000000005
 21
-133.599998
 31
0.0
  0
LINE
  8
LY_3
  6
CONTINUOUS
 62
               3
  5
DC
 10
80.0
 20
-106.400002
 30
0.0
 11
95.285122000000001
 21
-106.400002
 31
0.0
  0
ARC
  8
LY_3
  6
CONTINUOUS
 62
               3
  5
DD
 10
98.150989999999993
 20
-101.5
 30
0.0
 40
1.5
 50
89.999982000000003
 51
164.99991199999999
  0
ARC
  8
LY_3
  6
CONTINUOUS
 62
               3
  5
DE
 10
98.150993
 20
-138.5
 30
0.0
 40
1.5
 50
194.99999199999999
 51
269.99996299999998
  0
ARC
  8
LY_3
  6
CONTINUOUS
 62
               3
  5
DF
 10
1.84901
 20
-101.5
 30
0.0
 40
1.5
 50
15.000048000000001
 51
89.999982000000003
  0
ARC
  8
LY_3
  6
CONTINUOUS
 62
               3
  5
E0
 10
1.8490070000000001
 20
-138.5
 30
0.0
 40
1.5
 50
270.00001800000001
 51
344.99998900000003
  0
LINE
  8
LY_3
  6
CONTINUOUS
 62
               3
  5
E1
 10
20.0
 20
-108.5
 30
0.0
 11
80.0
 21
-108.5
 31
0.0
  0
LINE
  8
LY_3
  6
CONTINUOUS
 62
               3
  5
E2
 10
95.285126000000005
 20
-133.599998
 30
0.0
 11
95.285126000000005
 21
-120.0
 31
0.0
  0
LINE
  8
LY_3
  6
CONTINUOUS
 62
               3
  5
E3
 10
97.5
 20
-106.900002
 30
0.0
 11
97.5
 21
-120.0
 31
0.0
  0
LINE
  8
LY_3
  6
CONTINUOUS
 62
               3
  5
E4
 10
100.0
 20
-106.90000000000001
 30
0.0
 11
97.5
 21
-106.90000000000001
 31
0.0
  0
LINE
  8
LY_3
  6
CONTINUOUS
 62
               3
  5
E5
 10
97.5
 20
-108.0
 30
0.0
 11
80.0
 21
-108.0
 31
0.0
  0
LINE
  8
LY_3
  6
CONTINUOUS
 62
               3
  5
E6
 10
96.702094000000002
 20
-138.88823100000002
 30
0.0
 11
95.285116000000002
 21
-133.599997
 31
0.0
  0
LINE
  8
LY_3
  6
CONTINUOUS
 62
               3
  5
E7
 10
96.702095999999997
 20
-101.11175299999999
 30
0.0
 11
95.285120000000006
 21
-106.39998199999999
 31
0.0
  0
LINE
  8
LY_3
  6
CONTINUOUS
 62
               3
  5
E8
 10
97.0
 20
-120.0
 30
0.0
 11
97.0
 21
-139.46188000000001
 31
0.0
  0
LINE
  8
LY_3
  6
CONTINUOUS
 62
               3
  5
E9
 10
100.0
 20
-140.0
 30
0.0
 11
98.150993
 21
-140.0
 31
0.0
  0
LINE
  8
LY_3
  6
CONTINUOUS
 62
               3
  5
EA
 10
100.0
 20
-100.0
 30
0.0
 11
98.150989999999993
 21
-100.0
 31
0.0
  0
LINE
  8
LY_3
  6
CONTINUOUS
 62
               3
  5
EB
 10
80.0
 20
-106.400002
 30
0.0
 11
80.0
 21
-133.599998
 31
0.0
  0
LINE
  8
LY_3
  6
CONTINUOUS
 62
               3
  5
EC
 10
100.0
 20
-100.0
 30
0.0
 11
100.0
 21
-140.0
 31
0.0
  0
LINE
  8
LY_3
  6
CONTINUOUS
 62
               3
  5
ED
 10
4.714874
 20
-133.599998
 30
0.0
 11
4.714874
 21
-120.0
 31
0.0
  0
LINE
  8
LY_3
  6
CONTINUOUS
 62
               3
  5
EE
 10
2.5
 20
-106.900002
 30
0.0
 11
2.5
 21
-120.0
 31
0.0
  0
LINE
  8
LY_3
  6
CONTINUOUS
 62
               3
  5
EF
 10
0.0
 20
-106.90000000000001
 30
0.0
 11
2.5
 21
-106.90000000000001
 31
0.0
  0
LINE
  8
LY_3
  6
CONTINUOUS
 62
               3
  5
F0
 10
2.5
 20
-108.0
 30
0.0
 11
20.0
 21
-108.0
 31
0.0
  0
LINE
  8
LY_3
  6
CONTINUOUS
 62
               3
  5
F1
 10
3.2978879999999999
 20
-138.888226
 30
0.0
 11
4.7148659999999998
 21
-133.59999399999998
 31
0.0
  0
LINE
  8
LY_3
  6
CONTINUOUS
 62
               3
  5
F2
 10
3.297895
 20
-101.111767
 30
0.0
 11
4.7148719999999997
 21
-106.399996
 31
0.0
  0
LINE
  8
LY_3
  6
CONTINUOUS
 62
               3
  5
F3
 10
3.0
 20
-120.0
 30
0.0
 11
3.0
 21
-139.46188000000001
 31
0.0
  0
LINE
  8
LY_3
  6
CONTINUOUS
 62
               3
  5
F4
 10
4.7148779999999997
 20
-106.400002
 30
0.0
 11
20.0
 21
-106.400002
 31
0.0
  0
LINE
  8
LY_3
  6
CONTINUOUS
 62
               3
  5
F5
 10
4.714874
 20
-133.599998
 30
0.0
 11
20.0
 21
-133.599998
 31
0.0
  0
LINE
  8
LY_3
  6
CONTINUOUS
 62
               3
  5
F6
 10
0.0
 20
-140.0
 30
0.0
 11
1.8490070000000001
 21
-140.0
 31
0.0
  0
LINE
  8
LY_3
  6
CONTINUOUS
 62
               3
  5
F7
 10
0.0
 20
-100.0
 30
0.0
 11
1.84901
 21
-100.0
 31
0.0
  0
LINE
  8
LY_3
  6
CONTINUOUS
 62
               3
  5
F8
 10
20.0
 20
-106.400002
 30
0.0
 11
20.0
 21
-133.599998
 31
0.0
  0
LINE
  8
LY_3
  6
CONTINUOUS
 62
               3
  5
F9
 10
0.0
 20
-100.0
 30
0.0
 11
0.0
 21
-140.0
 31
0.0
  0
LINE
  8
LY_3
  6
CENTER
 62
             110
  5
FA
 10
-3.8637959999999998
 20
-120.0
 30
0.0
 11
103.812832
 21
-120.0
 31
0.0
  0
TEXT
  8
LY_3
  6
CONTINUOUS
 62
             110
  5
FB
 10
31.514285717784208
 20
-65.600000023841858
 30
0.0
 40
3.2000000476837158
  1
VP5016
 41
0.9639999997769082
  7
MX_NOTE_STANDARD
 11
31.514285717784208
 21
-62.399999976158142
 31
0.0
 73
               3
  0
LINE
  8
LY_3
  6
CONTINUOUS
 62
               3
  5
FC
 10
10.0
 20
-38.0
 30
0.0
 11
70.0
 21
-38.0
 31
0.0
  0
LINE
  8
LY_3
  6
CONTINUOUS
 62
               3
  5
FD
 10
10.0
 20
-58.0
 30
0.0
 11
70.0
 21
-58.0
 31
0.0
  0
LINE
  8
LY_3
  6
CONTINUOUS
 62
               3
  5
FE
 10
70.0
 20
-58.0
 30
0.0
 11
75.660256000000004
 21
-58.0
 31
0.0
  0
LINE
  8
LY_3
  6
CONTINUOUS
 62
               3
  5
FF
 10
80.0
 20
-63.0
 30
0.0
 11
78.150993
 21
-63.0
 31
0.0
  0
ARC
  8
LY_3
  6
CONTINUOUS
 62
               3
  5
100
 10
78.150993
 20
-61.5
 30
0.0
 40
1.5
 50
195.000011
 51
269.99998199999999
  0
LINE
  8
LY_3
  6
CONTINUOUS
 62
               3
  5
101
 10
76.702105000000003
 20
-61.888233
 30
0.0
 11
75.660256000000004
 21
-58.0
 31
0.0
  0
LINE
  8
LY_3
  6
CONTINUOUS
 62
               3
  5
102
 10
75.660256000000004
 20
-58.0
 30
0.0
 11
75.660256000000004
 21
-48.0
 31
0.0
  0
LINE
  8
LY_3
  6
CONTINUOUS
 62
               3
  5
103
 10
77.0
 20
-48.0
 30
0.0
 11
77.0
 21
-62.461880999999998
 31
0.0
  0
LINE
  8
LY_3
  6
CONTINUOUS
 62
               3
  5
104
 10
80.0
 20
-39.399999999999999
 30
0.0
 11
77.5
 21
-39.399999999999999
 31
0.0
  0
LINE
  8
LY_3
  6
CONTINUOUS
 62
               3
  5
105
 10
77.5
 20
-39.399999999999999
 30
0.0
 11
77.5
 21
-48.0
 31
0.0
  0
LINE
  8
LY_3
  6
CONTINUOUS
 62
               3
  5
106
 10
77.5
 20
-40.0
 30
0.0
 11
70.0
 21
-40.0
 31
0.0
  0
LINE
  8
LY_3
  6
CONTINUOUS
 62
               3
  5
107
 10
80.0
 20
-33.0
 30
0.0
 11
80.0
 21
-63.0
 31
0.0
  0
LINE
  8
LY_3
  6
CONTINUOUS
 62
               3
  5
108
 10
76.702105000000003
 20
-34.111767
 30
0.0
 11
75.660256000000004
 21
-38.0
 31
0.0
  0
ARC
  8
LY_3
  6
CONTINUOUS
 62
               3
  5
109
 10
78.150989999999993
 20
-34.5
 30
0.0
 40
1.5
 50
90.000017999999997
 51
164.99995200000001
  0
LINE
  8
LY_3
  6
CONTINUOUS
 62
               3
  5
10A
 10
75.660256000000004
 20
-38.0
 30
0.0
 11
70.0
 21
-38.0
 31
0.0
  0
LINE
  8
LY_3
  6
CONTINUOUS
 62
               3
  5
10B
 10
80.0
 20
-33.0
 30
0.0
 11
78.150989999999993
 21
-33.0
 31
0.0
  0
LINE
  8
LY_3
  6
CONTINUOUS
 62
               3
  5
10C
 10
4.3397439999999996
 20
-58.0
 30
0.0
 11
4.3397439999999996
 21
-48.0
 31
0.0
  0
LINE
  8
LY_3
  6
CONTINUOUS
 62
               3
  5
10D
 10
3.297895
 20
-61.888233
 30
0.0
 11
4.3397439999999996
 21
-58.0
 31
0.0
  0
LINE
  8
LY_3
  6
CONTINUOUS
 62
               3
  5
10E
 10
4.3397439999999996
 20
-58.0
 30
0.0
 11
10.0
 21
-58.0
 31
0.0
  0
ARC
  8
LY_3
  6
CONTINUOUS
 62
               3
  5
10F
 10
1.84901
 20
-34.5
 30
0.0
 40
1.5
 50
15.000048000000001
 51
89.999982000000003
  0
ARC
  8
LY_3
  6
CONTINUOUS
 62
               3
  5
110
 10
1.8490070000000001
 20
-61.5
 30
0.0
 40
1.5
 50
270.00001800000001
 51
344.99998900000003
  0
LINE
  8
LY_3
  6
CONTINUOUS
 62
               3
  5
111
 10
10.0
 20
-40.0
 30
0.0
 11
70.0
 21
-40.0
 31
0.0
  0
LINE
  8
LY_3
  6
CONTINUOUS
 62
               3
  5
112
 10
70.0
 20
-38.0
 30
0.0
 11
70.0
 21
-58.0
 31
0.0
  0
LINE
  8
LY_3
  6
CONTINUOUS
 62
               3
  5
113
 10
2.5
 20
-39.399999999999999
 30
0.0
 11
2.5
 21
-48.0
 31
0.0
  0
LINE
  8
LY_3
  6
CONTINUOUS
 62
               3
  5
114
 10
0.0
 20
-39.399999999999999
 30
0.0
 11
2.5
 21
-39.399999999999999
 31
0.0
  0
LINE
  8
LY_3
  6
CONTINUOUS
 62
               3
  5
115
 10
2.5
 20
-40.0
 30
0.0
 11
10.0
 21
-40.0
 31
0.0
  0
LINE
  8
LY_3
  6
CONTINUOUS
 62
               3
  5
116
 10
3.297895
 20
-34.111767
 30
0.0
 11
4.3397439999999996
 21
-38.0
 31
0.0
  0
LINE
  8
LY_3
  6
CONTINUOUS
 62
               3
  5
117
 10
3.0
 20
-48.0
 30
0.0
 11
3.0
 21
-62.461880999999998
 31
0.0
  0
LINE
  8
LY_3
  6
CONTINUOUS
 62
               3
  5
118
 10
4.3397439999999996
 20
-38.0
 30
0.0
 11
10.0
 21
-38.0
 31
0.0
  0
LINE
  8
LY_3
  6
CONTINUOUS
 62
               3
  5
119
 10
0.0
 20
-63.0
 30
0.0
 11
1.8490070000000001
 21
-63.0
 31
0.0
  0
LINE
  8
LY_3
  6
CONTINUOUS
 62
               3
  5
11A
 10
0.0
 20
-33.0
 30
0.0
 11
1.84901
 21
-33.0
 31
0.0
  0
LINE
  8
LY_3
  6
CONTINUOUS
 62
               3
  5
11B
 10
10.0
 20
-38.0
 30
0.0
 11
10.0
 21
-58.0
 31
0.0
  0
LINE
  8
LY_3
  6
CONTINUOUS
 62
               3
  5
11C
 10
0.0
 20
-33.0
 30
0.0
 11
0.0
 21
-63.0
 31
0.0
  0
LINE
  8
LY_3
  6
CENTER
 62
             110
  5
11D
 10
-8.0
 20
-48.0
 30
0.0
 11
88.0
 21
-48.0
 31
0.0
  0
TEXT
  8
LY_3
  6
CONTINUOUS
 62
             110
  5
11E
 10
23.529411771800664
 20
-17.600000023841858
 30
0.0
 40
3.2000000476837158
  1
VP5010
 41
0.9929999876960236
  7
MX_NOTE_STANDARD
 11
23.529411771800664
 21
-14.399999976158142
 31
0.0
 73
               3
  0
LINE
  8
LY_3
  6
CENTER
 62
             110
  5
11F
 10
-8.0
 20
0.0
 30
0.0
 11
66.714451999999994
 21
0.0
 31
0.0
  0
LINE
  8
LY_3
  6
CONTINUOUS
 62
               3
  5
120
 10
0.0
 20
15.0
 30
0.0
 11
0.0
 21
-15.0
 31
0.0
  0
LINE
  8
LY_3
  6
CONTINUOUS
 62
               3
  5
121
 10
10.0
 20
6.9000000000000004
 30
0.0
 11
10.0
 21
-6.9000000000000004
 31
0.0
  0
LINE
  8
LY_3
  6
CONTINUOUS
 62
               3
  5
122
 10
0.0
 20
15.0
 30
0.0
 11
1.84901
 21
15.0
 31
0.0
  0
LINE
  8
LY_3
  6
CONTINUOUS
 62
               3
  5
123
 10
0.0
 20
-15.0
 30
0.0
 11
1.8490070000000001
 21
-15.0
 31
0.0
  0
LINE
  8
LY_3
  6
CONTINUOUS
 62
               3
  5
124
 10
5.1703869999999998
 20
6.9000000000000004
 30
0.0
 11
10.0
 21
6.9000000000000004
 31
0.0
  0
LINE
  8
LY_3
  6
CONTINUOUS
 62
               3
  5
125
 10
3.0
 20
0.0
 30
0.0
 11
3.0
 21
-14.461881
 31
0.0
  0
LINE
  8
LY_3
  6
CONTINUOUS
 62
               3
  5
126
 10
3.297895
 20
13.888233
 30
0.0
 11
5.1703869999999998
 21
6.9000000000000004
 31
0.0
  0
LINE
  8
LY_3
  6
CONTINUOUS
 62
               3
  5
127
 10
2.5
 20
5.0
 30
0.0
 11
10.0
 21
5.0
 31
0.0
  0
LINE
  8
LY_3
  6
CONTINUOUS
 62
               3
  5
128
 10
0.0
 20
6.0999999999999996
 30
0.0
 11
2.5
 21
6.0999999999999996
 31
0.0
  0
LINE
  8
LY_3
  6
CONTINUOUS
 62
               3
  5
129
 10
2.5
 20
6.0999999999999996
 30
0.0
 11
2.5
 21
0.0
 31
0.0
  0
LINE
  8
LY_3
  6
CONTINUOUS
 62
               3
  5
12A
 10
10.0
 20
4.9000000000000004
 30
0.0
 11
50.0
 21
4.9000000000000004
 31
0.0
  0
ARC
  8
LY_3
  6
CONTINUOUS
 62
               3
  5
12B
 10
1.8490070000000001
 20
-13.5
 30
0.0
 40
1.5
 50
270.00001800000001
 51
344.99998900000003
  0
ARC
  8
LY_3
  6
CONTINUOUS
 62
               3
  5
12C
 10
1.84901
 20
13.5
 30
0.0
 40
1.5
 50
15.000048000000001
 51
89.999982000000003
  0
LINE
  8
LY_3
  6
CONTINUOUS
 62
               3
  5
12D
 10
10.0
 20
-6.9000000000000004
 30
0.0
 11
50.0
 21
-6.9000000000000004
 31
0.0
  0
LINE
  8
LY_3
  6
CONTINUOUS
 62
               3
  5
12E
 10
10.0
 20
6.9000000000000004
 30
0.0
 11
50.0
 21
6.9000000000000004
 31
0.0
  0
LINE
  8
LY_3
  6
CONTINUOUS
 62
               3
  5
12F
 10
5.1703869999999998
 20
-6.9000000000000004
 30
0.0
 11
10.0
 21
-6.9000000000000004
 31
0.0
  0
LINE
  8
LY_3
  6
CONTINUOUS
 62
               3
  5
130
 10
3.297895
 20
-13.888233
 30
0.0
 11
5.1703869999999998
 21
-6.9000000000000004
 31
0.0
  0
LINE
  8
LY_3
  6
CONTINUOUS
 62
               3
  5
131
 10
5.1703869999999998
 20
-6.9000000000000004
 30
0.0
 11
5.1703869999999998
 21
0.0
 31
0.0
  0
LINE
  8
LY_3
  6
CONTINUOUS
 62
               3
  5
132
 10
57.0
 20
0.0
 30
0.0
 11
57.0
 21
-14.461881
 31
0.0
  0
LINE
  8
LY_3
  6
CONTINUOUS
 62
               3
  5
133
 10
54.829613000000002
 20
-6.9000000000000004
 30
0.0
 11
50.0
 21
-6.9000000000000004
 31
0.0
  0
LINE
  8
LY_3
  6
CONTINUOUS
 62
               3
  5
134
 10
56.702105000000003
 20
-13.888233
 30
0.0
 11
54.829613000000002
 21
-6.9000000000000004
 31
0.0
  0
LINE
  8
LY_3
  6
CONTINUOUS
 62
               3
  5
135
 10
54.829613000000002
 20
-6.9000000000000004
 30
0.0
 11
54.829613000000002
 21
0.0
 31
0.0
  0
ARC
  8
LY_3
  6
CONTINUOUS
 62
               3
  5
136
 10
58.150993
 20
-13.5
 30
0.0
 40
1.5
 50
195.000011
 51
269.99998199999999
  0
LINE
  8
LY_3
  6
CONTINUOUS
 62
               3
  5
137
 10
60.0
 20
-15.0
 30
0.0
 11
58.150993
 21
-15.0
 31
0.0
  0
LINE
  8
LY_3
  6
CONTINUOUS
 62
               3
  5
138
 10
54.829613000000002
 20
6.9000000000000004
 30
0.0
 11
50.0
 21
6.9000000000000004
 31
0.0
  0
LINE
  8
LY_3
  6
CONTINUOUS
 62
               3
  5
139
 10
57.5
 20
5.0
 30
0.0
 11
50.0
 21
5.0
 31
0.0
  0
LINE
  8
LY_3
  6
CONTINUOUS
 62
               3
  5
13A
 10
57.5
 20
6.0999999999999996
 30
0.0
 11
57.5
 21
0.0
 31
0.0
  0
ARC
  8
LY_3
  6
CONTINUOUS
 62
               3
  5
13B
 10
58.15099
 20
13.5
 30
0.0
 40
1.5
 50
90.000017999999997
 51
164.99995200000001
  0
LINE
  8
LY_3
  6
CONTINUOUS
 62
               3
  5
13C
 10
60.0
 20
6.0999999999999996
 30
0.0
 11
57.5
 21
6.0999999999999996
 31
0.0
  0
LINE
  8
LY_3
  6
CONTINUOUS
 62
               3
  5
13D
 10
56.702105000000003
 20
13.888233
 30
0.0
 11
54.829613000000002
 21
6.9000000000000004
 31
0.0
  0
LINE
  8
LY_3
  6
CONTINUOUS
 62
               3
  5
13E
 10
60.0
 20
15.0
 30
0.0
 11
58.15099
 21
15.0
 31
0.0
  0
LINE
  8
LY_3
  6
CONTINUOUS
 62
               3
  5
13F
 10
50.0
 20
-6.9000000000000004
 30
0.0
 11
50.0
 21
6.9000000000000004
 31
0.0
  0
LINE
  8
LY_3
  6
CONTINUOUS
 62
               3
  5
140
 10
60.0
 20
-15.0
 30
0.0
 11
60.0
 21
15.0
 31
0.0
  0
ENDSEC
  0
EOF
