  0
SECTION
  2
HEADER
  9
$ACADVER
  1
AC1009
  9
$DWGCODEPAGE
  3
dos932
  9
$INSBASE
 10
0.0
 20
0.0
 30
0.0
  9
$EXTMIN
 10
-8.4958642149843229
 20
-102.40000009536743
 30
0.0
  9
$EXTMAX
 10
205.0
 20
95.0
 30
0.0
  9
$LIMMIN
 10
-8.4958642149843229
 20
-102.40000009536743
  9
$LIMMAX
 10
205.0
 20
95.0
  9
$ORTHOMODE
 70
               0
  9
$REGENMODE
 70
               1
  9
$FILLMODE
 70
               1
  9
$QTEXTMODE
 70
               0
  9
$MIRRTEXT
 70
               1
  9
$DRAGMODE
 70
               2
  9
$LTSCALE
 40
1.0
  9
$OSMODE
 70
               0
  9
$ATTMODE
 70
               1
  9
$TEXTSIZE
 40
3.2000000476837158
  9
$TRACEWID
 40
0.05
  9
$TEXTSTYLE
  7
MX_NOTE_STANDARD
  9
$CLAYER
  8
LY_3
  9
$CELTYPE
  6
CONTINUOUS
  9
$CECOLOR
 62
             256
  9
$DIMSCALE
 40
1.0
  9
$DIMASZ
 40
2.5
  9
$DIMEXO
 40
2.0
  9
$DIMDLI
 40
3.75
  9
$DIMRND
 40
0.0
  9
$DIMDLE
 40
0.0
  9
$DIMEXE
 40
1.0
  9
$DIMTP
 40
0.0
  9
$DIMTM
 40
0.0
  9
$DIMTXT
 40
4.1655998229980469
  9
$DIMCEN
 40
2.5
  9
$DIMTSZ
 40
0.0
  9
$DIMTOL
 70
               0
  9
$DIMLIM
 70
               0
  9
$DIMTIH
 70
               0
  9
$DIMTOH
 70
               0
  9
$DIMSE1
 70
               0
  9
$DIMSE2
 70
               0
  9
$DIMTAD
 70
               1
  9
$DIMZIN
 70
               8
  9
$DIMBLK
  1

  9
$DIMASO
 70
               1
  9
$DIMSHO
 70
               1
  9
$DIMPOST
  1

  9
$DIMAPOST
  1

  9
$DIMALT
 70
               0
  9
$DIMALTD
 70
               4
  9
$DIMALTF
 40
0.03937007874016
  9
$DIMLFAC
 40
1.0
  9
$DIMTOFL
 70
               1
  9
$DIMTVP
 40
0.0
  9
$DIMTIX
 70
               0
  9
$DIMSOXD
 70
               0
  9
$DIMSAH
 70
               1
  9
$DIMBLK1
  1
_OPEN30
  9
$DIMBLK2
  1
_OPEN30
  9
$DIMSTYLE
  2
MXDIMSTYLE
  9
$DIMCLRD
 70
               0
  9
$DIMCLRE
 70
               0
  9
$DIMCLRT
 70
               0
  9
$DIMTFAC
 40
1.0
  9
$DIMGAP
 40
1.0
  9
$LUNITS
 70
               2
  9
$LUPREC
 70
               4
  9
$AXISMODE
 70
               0
  9
$AXISUNIT
 10
0.0
 20
0.0
  9
$SKETCHINC
 40
0.1
  9
$FILLETRAD
 40
0.0
  9
$AUNITS
 70
               0
  9
$AUPREC
 70
               0
  9
$MENU
  1
acad
  9
$ELEVATION
 40
0.0
  9
$PELEVATION
 40
0.0
  9
$THICKNESS
 40
0.0
  9
$LIMCHECK
 70
               0
  9
$BLIPMODE
 70
               1
  9
$CHAMFERA
 40
0.0
  9
$CHAMFERB
 40
0.0
  9
$SKPOLY
 70
               0
  9
$TDCREATE
 40
2455163.527581018
  9
$TDUPDATE
 40
2455163.527581018
  9
$TDINDWG
 40
0.0000000000
  9
$TDUSRTIMER
 40
0.0000000000
  9
$USRTIMER
 70
               1
  9
$ANGBASE
 50
0.0
  9
$ANGDIR
 70
               0
  9
$PDMODE
 70
               0
  9
$PDSIZE
 40
0.0
  9
$PLINEWID
 40
0.0
  9
$COORDS
 70
               1
  9
$SPLFRAME
 70
               0
  9
$SPLINETYPE
 70
               6
  9
$SPLINESEGS
 70
               8
  9
$ATTDIA
 70
               0
  9
$ATTREQ
 70
               1
  9
$HANDLING
 70
               1
  9
$HANDSEED
  5
78
  9
$SURFTAB1
 70
               6
  9
$SURFTAB2
 70
               6
  9
$SURFTYPE
 70
               6
  9
$SURFU
 70
               6
  9
$SURFV
 70
               6
  9
$UCSNAME
  2

  9
$UCSORG
 10
0.0
 20
0.0
 30
0.0
  9
$UCSXDIR
 10
1.0
 20
0.0
 30
0.0
  9
$UCSYDIR
 10
0.0
 20
1.0
 30
0.0
  9
$PUCSNAME
  2

  9
$PUCSORG
 10
0.0
 20
0.0
 30
0.0
  9
$PUCSXDIR
 10
1.0
 20
0.0
 30
0.0
  9
$PUCSYDIR
 10
0.0
 20
1.0
 30
0.0
  9
$USERI1
 70
               0
  9
$USERI2
 70
               0
  9
$USERI3
 70
               0
  9
$USERI4
 70
               0
  9
$USERI5
 70
               0
  9
$USERR1
 40
0.0
  9
$USERR2
 40
0.0
  9
$USERR3
 40
0.0
  9
$USERR4
 40
0.0
  9
$USERR5
 40
0.0
  9
$WORLDVIEW
 70
               1
  9
$SHADEDGE
 70
               3
  9
$SHADEDIF
 70
              70
  9
$TILEMODE
 70
               1
  9
$MAXACTVP
 70
              16
  9
$PINSBASE
 10
0.0
 20
0.0
 30
0.0
  9
$PLIMCHECK
 70
               0
  9
$PEXTMIN
 10
1.0000000000000000E+20
 20
1.0000000000000000E+20
 30
1.0000000000000000E+20
  9
$PEXTMAX
 10
-1.0000000000000000E+20
 20
-1.0000000000000000E+20
 30
-1.0000000000000000E+20
  9
$PLIMMIN
 10
0.0
 20
0.0
  9
$PLIMMAX
 10
12.0
 20
9.0
  9
$UNITMODE
 70
               0
  9
$VISRETAIN
 70
               0
  9
$PLINEGEN
 70
               1
  9
$PSLTSCALE
 70
               0
  9
$TREEDEPTH
 70
            3020
  0
ENDSEC
  0
SECTION
  2
TABLES
  0
TABLE
  2
VPORT
 70
               1
  0
VPORT
  2
*ACTIVE
 70
               0
 10
0.0
 20
0.0
 11
1.0
 21
1.0
 12
98.252067892507839
 22
-3.7000000476837158
 13
0.0
 23
0.0
 14
1.0
 24
1.0
 15
0.0
 25
0.0
 16
0.0
 26
0.0
 36
1.0
 17
0.0
 27
0.0
 37
0.0
 40
199.37400009632111
 41
1.7320508075688772
 42
50.0
 43
0.0
 44
0.0
 50
0.0
 51
0.0
 71
               0
 72
             100
 73
               1
 74
               1
 75
               0
 76
               0
 77
               0
 78
               0
  0
ENDTAB
  0
TABLE
  2
LTYPE
 70
               2
  0
LTYPE
  2
CONTINUOUS
 70
              64
  3
Solid line
 72
              65
 73
               0
 40
0.0
  0
LTYPE
  2
CENTER
 70
              64
  3
Center ____ _ ____ _ ____ _ ____ _ ____ _ ____
 72
              65
 73
               4
 40
50.800000000000004
 49
31.75
 49
-6.3499999999999996
 49
6.3499999999999996
 49
-6.3499999999999996
  0
ENDTAB
  0
TABLE
  2
LAYER
 70
               3
  0
LAYER
  2
0
 70
               0
 62
               7
  6
CONTINUOUS
  0
LAYER
  2
DEFPOINTS
 70
               0
 62
               7
  6
CONTINUOUS
  0
LAYER
  2
LY_3
 70
               0
 62
               7
  6
CONTINUOUS
  0
ENDTAB
  0
TABLE
  2
STYLE
 70
               1
  0
STYLE
  2
MX_NOTE_STANDARD
 70
               0
 40
0.0
 41
1.0
 50
0.0
 71
               0
 42
3.2000000476837158
  3
txt.shx
  4
extfont.shx
  0
ENDTAB
  0
TABLE
  2
VIEW
 70
               0
  0
ENDTAB
  0
TABLE
  2
UCS
 70
               0
  0
ENDTAB
  0
TABLE
  2
APPID
 70
               1
  0
APPID
  2
ACAD
 70
               0
  0
ENDTAB
  0
TABLE
  2
DIMSTYLE
 70
               1
  0
DIMSTYLE
  2
MXDIMSTYLE
 70
               0
  3

  4

  5

  6
_OPEN30
  7
_OPEN30
 40
1.0
 41
2.5
 42
2.0
 43
3.75
 44
1.0
 45
0.0
 46
0.0
 47
0.0
 48
0.0
 71
               0
 72
               0
 73
               0
 74
               0
 75
               0
 76
               0
 77
               1
 78
               8
140
4.1655998229980469
141
2.5
142
0.0
143
0.03937007874016
144
1.0
145
0.0
146
1.0
147
1.0
170
               0
171
               4
172
               1
173
               1
174
               0
175
               0
176
               0
177
               0
178
               0
  0
ENDTAB
  0
ENDSEC
  0
SECTION
  2
BLOCKS
  0
BLOCK
  8
0
  6
BYBLOCK
 62
               0
  5
20
  2
_OPEN30
 70
               2
 10
0.0
 20
0.0
 30
0.0
  3
_OPEN30
  0
LINE
  8
0
  6
BYBLOCK
 62
               0
  5
21
 10
-1.0
 20
0.267949
 30
0.0
 11
0.0
 21
0.0
 31
0.0
  0
LINE
  8
0
  6
BYBLOCK
 62
               0
  5
22
 10
0.0
 20
0.0
 30
0.0
 11
-1.0
 21
-0.267949
 31
0.0
  0
LINE
  8
0
  6
BYBLOCK
 62
               0
  5
23
 10
0.0
 20
0.0
 30
0.0
 11
-1.0
 21
0.0
 31
0.0
  0
ENDBLK
  8
0
  6
BYBLOCK
 62
               0
  5
24
  0
ENDSEC
  0
SECTION
  2
ENTITIES
  0
ARC
  8
LY_3
  6
CONTINUOUS
 62
               3
  5
25
 10
6.9496890000000064
 20
55.5
 30
0.0
 40
1.5
 50
20.0
 51
90.0
  0
ARC
  8
LY_3
  6
CONTINUOUS
 62
               3
  5
26
 10
6.9496890000000064
 20
-55.5
 30
0.0
 40
1.5
 50
270.0
 51
340.0
  0
LINE
  8
LY_3
  6
CONTINUOUS
 62
               3
  5
27
 10
11.339745999999991
 20
41.600000000000001
 30
0.0
 11
11.339745999999991
 21
0.0
 31
0.0
  0
LINE
  8
LY_3
  6
CONTINUOUS
 62
               3
  5
28
 10
11.339745999999991
 20
37.450000000000003
 30
0.0
 11
20.0
 21
42.450000000000003
 31
0.0
  0
LINE
  8
LY_3
  6
CONTINUOUS
 62
               3
  5
29
 10
0.0
 20
41.600000000000001
 30
0.0
 11
11.339745999999991
 21
41.600000000000001
 31
0.0
  0
LINE
  8
LY_3
  6
CONTINUOUS
 62
               3
  5
2A
 10
10.91176200000001
 20
0.0
 30
0.0
 11
10.91176200000001
 21
-49.0
 31
0.0
  0
LINE
  8
LY_3
  6
CONTINUOUS
 62
               3
  5
2B
 10
20.0
 20
44.649999999999999
 30
0.0
 11
20.0
 21
0.0
 31
0.0
  0
LINE
  8
LY_3
  6
CONTINUOUS
 62
               3
  5
2C
 10
20.0
 20
44.649999999999999
 30
0.0
 11
25.0
 21
44.649999999999999
 31
0.0
  0
LINE
  8
LY_3
  6
CONTINUOUS
 62
               3
  5
2D
 10
10.91176200000001
 20
49.0
 30
0.0
 11
25.0
 21
49.0
 31
0.0
  0
LINE
  8
LY_3
  6
CONTINUOUS
 62
               3
  5
2E
 10
10.91176200000001
 20
-49.0
 30
0.0
 11
25.0
 21
-49.0
 31
0.0
  0
LINE
  8
LY_3
  6
CONTINUOUS
 62
               3
  5
2F
 10
8.3592280000000017
 20
-56.013030000000015
 30
0.0
 11
10.91176200000001
 21
-49.0
 31
0.0
  0
LINE
  8
LY_3
  6
CONTINUOUS
 62
               3
  5
30
 10
8.3592280000000017
 20
56.013030000000001
 30
0.0
 11
10.91176200000001
 21
49.0
 31
0.0
  0
LINE
  8
LY_3
  6
CONTINUOUS
 62
               3
  5
31
 10
8.0
 20
0.0
 30
0.0
 11
8.0
 21
-56.578434000000016
 31
0.0
  0
LINE
  8
LY_3
  6
CONTINUOUS
 62
               3
  5
32
 10
25.0
 20
49.0
 30
0.0
 11
25.0
 21
-49.0
 31
0.0
  0
LINE
  8
LY_3
  6
CONTINUOUS
 62
               3
  5
33
 10
0.0
 20
-57.0
 30
0.0
 11
0.0
 21
57.0
 31
0.0
  0
LINE
  8
LY_3
  6
CONTINUOUS
 62
               3
  5
34
 10
0.0
 20
57.0
 30
0.0
 11
6.9496890000000064
 21
57.0
 31
0.0
  0
LINE
  8
LY_3
  6
CONTINUOUS
 62
               3
  5
35
 10
0.0
 20
-57.0
 30
0.0
 11
6.9496890000000064
 21
-57.0
 31
0.0
  0
LINE
  8
LY_3
  6
CENTER
 62
             110
  5
37
 10
-8.4958642149843229
 20
0.0
 30
0.0
 11
30.0
 21
0.0
 31
0.0
  0
TEXT
  8
LY_3
  6
CONTINUOUS
 62
             110
  5
38
 10
1.5399786631531152
 20
-71.600000023841858
 30
0.0
 40
3.2000000476837158
  1
VP3080(L)
 41
1.0119999626898772
  7
MX_NOTE_STANDARD
 11
1.5399786631531152
 21
-68.399999976158142
 31
0.0
 73
               3
  0
ARC
  8
LY_3
  6
CONTINUOUS
 62
               3
  5
39
 10
66.949689000000006
 20
65.5
 30
0.0
 40
1.5
 50
20.0
 51
90.0
  0
ARC
  8
LY_3
  6
CONTINUOUS
 62
               3
  5
3A
 10
66.949689000000006
 20
-65.5
 30
0.0
 40
1.5
 50
270.0
 51
340.0
  0
LINE
  8
LY_3
  6
CONTINUOUS
 62
               3
  5
3B
 10
71.339745999999991
 20
51.100000000000001
 30
0.0
 11
71.339745999999991
 21
0.0
 31
0.0
  0
LINE
  8
LY_3
  6
CONTINUOUS
 62
               3
  5
3C
 10
71.339745999999991
 20
50.049999999999997
 30
0.0
 11
80.0
 21
55.049999999999997
 31
0.0
  0
LINE
  8
LY_3
  6
CONTINUOUS
 62
               3
  5
3D
 10
60.0
 20
51.100000000000001
 30
0.0
 11
71.339745999999991
 21
51.100000000000001
 31
0.0
  0
LINE
  8
LY_3
  6
CONTINUOUS
 62
               3
  5
3E
 10
70.91176200000001
 20
0.0
 30
0.0
 11
70.91176200000001
 21
-59.0
 31
0.0
  0
LINE
  8
LY_3
  6
CONTINUOUS
 62
               3
  5
3F
 10
80.0
 20
57.25
 30
0.0
 11
80.0
 21
0.0
 31
0.0
  0
LINE
  8
LY_3
  6
CONTINUOUS
 62
               3
  5
40
 10
80.0
 20
57.25
 30
0.0
 11
85.0
 21
57.25
 31
0.0
  0
LINE
  8
LY_3
  6
CONTINUOUS
 62
               3
  5
41
 10
70.91176200000001
 20
59.0
 30
0.0
 11
85.0
 21
59.0
 31
0.0
  0
LINE
  8
LY_3
  6
CONTINUOUS
 62
               3
  5
42
 10
70.91176200000001
 20
-59.0
 30
0.0
 11
85.0
 21
-59.0
 31
0.0
  0
LINE
  8
LY_3
  6
CONTINUOUS
 62
               3
  5
43
 10
68.359228000000002
 20
-66.013030000000015
 30
0.0
 11
70.91176200000001
 21
-59.0
 31
0.0
  0
LINE
  8
LY_3
  6
CONTINUOUS
 62
               3
  5
44
 10
68.359228000000002
 20
66.013030000000001
 30
0.0
 11
70.91176200000001
 21
59.0
 31
0.0
  0
LINE
  8
LY_3
  6
CONTINUOUS
 62
               3
  5
45
 10
68.0
 20
0.0
 30
0.0
 11
68.0
 21
-66.578434000000016
 31
0.0
  0
LINE
  8
LY_3
  6
CONTINUOUS
 62
               3
  5
46
 10
85.0
 20
59.0
 30
0.0
 11
85.0
 21
-59.0
 31
0.0
  0
LINE
  8
LY_3
  6
CONTINUOUS
 62
               3
  5
47
 10
60.0
 20
-67.0
 30
0.0
 11
60.0
 21
67.0
 31
0.0
  0
LINE
  8
LY_3
  6
CONTINUOUS
 62
               3
  5
48
 10
60.0
 20
67.0
 30
0.0
 11
66.949689000000006
 21
67.0
 31
0.0
  0
LINE
  8
LY_3
  6
CONTINUOUS
 62
               3
  5
49
 10
60.0
 20
-67.0
 30
0.0
 11
66.949689000000006
 21
-67.0
 31
0.0
  0
LINE
  8
LY_3
  6
CENTER
 62
             110
  5
4A
 10
53.045002658933697
 20
0.0
 30
0.0
 11
90.0
 21
0.0
 31
0.0
  0
TEXT
  8
LY_3
  6
CONTINUOUS
 62
             110
  5
4B
 10
61.562511772982226
 20
-81.600000023841858
 30
0.0
 40
3.2000000476837158
  1
VP3100(L)
 41
1.0549999537691483
  7
MX_NOTE_STANDARD
 11
61.562511772982226
 21
-78.399999976158142
 31
0.0
 73
               3
  0
LINE
  8
LY_3
  6
CONTINUOUS
 62
               3
  5
4C
 10
130.323463
 20
63.799999999999997
 30
0.0
 11
130.323463
 21
0.0
 31
0.0
  0
LINE
  8
LY_3
  6
CONTINUOUS
 62
               3
  5
4D
 10
120.0
 20
63.799999999999997
 30
0.0
 11
130.323463
 21
63.799999999999997
 31
0.0
  0
LINE
  8
LY_3
  6
CONTINUOUS
 62
               3
  5
4E
 10
135.0
 20
66.5
 30
0.0
 11
130.323463
 21
63.799999999999997
 31
0.0
  0
LINE
  8
LY_3
  6
CONTINUOUS
 62
               3
  5
4F
 10
135.0
 20
70.099999999999994
 30
0.0
 11
140.0
 21
70.099999999999994
 31
0.0
  0
ARC
  8
LY_3
  6
CONTINUOUS
 62
               3
  5
50
 10
126.94968900000001
 20
79.0
 30
0.0
 40
1.5
 50
19.999999999999982
 51
89.999999999999972
  0
ARC
  8
LY_3
  6
CONTINUOUS
 62
               3
  5
51
 10
126.94968900000001
 20
-79.0
 30
0.0
 40
1.5
 50
270.0
 51
340.0
  0
LINE
  8
LY_3
  6
CONTINUOUS
 62
               3
  5
52
 10
128.359228
 20
-79.513030000000001
 30
0.0
 11
131.09374700000001
 21
-72.0
 31
0.0
  0
LINE
  8
LY_3
  6
CONTINUOUS
 62
               3
  5
53
 10
139.0
 20
-72.0
 30
0.0
 11
140.0
 21
-71.0
 31
0.0
  0
LINE
  8
LY_3
  6
CONTINUOUS
 62
               3
  5
54
 10
131.09374700000001
 20
-72.0
 30
0.0
 11
139.0
 21
-72.0
 31
0.0
  0
LINE
  8
LY_3
  6
CONTINUOUS
 62
               3
  5
55
 10
139.0
 20
72.0
 30
0.0
 11
140.0
 21
71.0
 31
0.0
  0
LINE
  8
LY_3
  6
CONTINUOUS
 62
               3
  5
56
 10
131.09374700000001
 20
72.0
 30
0.0
 11
139.0
 21
72.0
 31
0.0
  0
LINE
  8
LY_3
  6
CONTINUOUS
 62
               3
  5
57
 10
120.0
 20
80.5
 30
0.0
 11
126.94968900000001
 21
80.5
 31
0.0
  0
LINE
  8
LY_3
  6
CONTINUOUS
 62
               3
  5
58
 10
140.0
 20
71.0
 30
0.0
 11
140.0
 21
-71.0
 31
0.0
  0
LINE
  8
LY_3
  6
CONTINUOUS
 62
               3
  5
59
 10
135.0
 20
70.099999999999994
 30
0.0
 11
135.0
 21
0.0
 31
0.0
  0
LINE
  8
LY_3
  6
CONTINUOUS
 62
               3
  5
5A
 10
120.0
 20
-80.5
 30
0.0
 11
126.94968900000001
 21
-80.5
 31
0.0
  0
LINE
  8
LY_3
  6
CONTINUOUS
 62
               3
  5
5B
 10
120.0
 20
-80.5
 30
0.0
 11
120.0
 21
80.5
 31
0.0
  0
LINE
  8
LY_3
  6
CONTINUOUS
 62
               3
  5
5C
 10
128.359228
 20
79.513030000000001
 30
0.0
 11
131.09374700000001
 21
72.0
 31
0.0
  0
LINE
  8
LY_3
  6
CENTER
 62
             110
  5
5D
 10
115.0
 20
0.0
 30
0.0
 11
145.0
 21
0.0
 31
0.0
  0
LINE
  8
LY_3
  6
CONTINUOUS
 62
               3
  5
5E
 10
131.09374700000001
 20
0.0
 30
0.0
 11
131.09374700000001
 21
-72.0
 31
0.0
  0
LINE
  8
LY_3
  6
CONTINUOUS
 62
               3
  5
5F
 10
128.0
 20
0.0
 30
0.0
 11
128.0
 21
-80.070909
 31
0.0
  0
TEXT
  8
LY_3
  6
CONTINUOUS
 62
             110
  5
60
 10
121.50000000100135
 20
-91.600000023841858
 30
0.0
 40
3.2000000476837158
  1
VP3125
 41
0.9369999775737528
  7
MX_NOTE_STANDARD
 11
121.50000000100135
 21
-88.399999976158142
 31
0.0
 73
               3
  0
LINE
  8
LY_3
  6
CONTINUOUS
 62
               3
  5
61
 10
190.84307799999999
 20
76.799999999999997
 30
0.0
 11
190.84307799999999
 21
0.0
 31
0.0
  0
LINE
  8
LY_3
  6
CENTER
 62
             110
  5
62
 10
175.0
 20
0.0
 30
0.0
 11
205.0
 21
0.0
 31
0.0
  0
LINE
  8
LY_3
  6
CONTINUOUS
 62
               3
  5
63
 10
188.359228
 20
94.013030000000001
 30
0.0
 11
192.00367299999999
 21
84.0
 31
0.0
  0
LINE
  8
LY_3
  6
CONTINUOUS
 62
               3
  5
64
 10
180.0
 20
95.0
 30
0.0
 11
180.0
 21
-95.0
 31
0.0
  0
LINE
  8
LY_3
  6
CONTINUOUS
 62
               3
  5
65
 10
200.0
 20
83.0
 30
0.0
 11
200.0
 21
-82.900000000000006
 31
0.0
  0
LINE
  8
LY_3
  6
CONTINUOUS
 62
               3
  5
66
 10
180.0
 20
-95.0
 30
0.0
 11
186.94968900000001
 21
-95.0
 31
0.0
  0
LINE
  8
LY_3
  6
CONTINUOUS
 62
               3
  5
67
 10
195.0
 20
82.849999999999994
 30
0.0
 11
195.0
 21
0.0
 31
0.0
  0
LINE
  8
LY_3
  6
CONTINUOUS
 62
               3
  5
68
 10
180.0
 20
95.0
 30
0.0
 11
186.94968900000001
 21
95.0
 31
0.0
  0
LINE
  8
LY_3
  6
CONTINUOUS
 62
               3
  5
69
 10
192.00367299999999
 20
84.0
 30
0.0
 11
199.0
 21
84.0
 31
0.0
  0
LINE
  8
LY_3
  6
CONTINUOUS
 62
               3
  5
6A
 10
199.0
 20
84.0
 30
0.0
 11
200.0
 21
83.0
 31
0.0
  0
LINE
  8
LY_3
  6
CONTINUOUS
 62
               3
  5
6B
 10
192.00367299999999
 20
-84.0
 30
0.0
 11
199.0
 21
-84.0
 31
0.0
  0
LINE
  8
LY_3
  6
CONTINUOUS
 62
               3
  5
6C
 10
199.0
 20
-84.0
 30
0.0
 11
200.0
 21
-83.0
 31
0.0
  0
LINE
  8
LY_3
  6
CONTINUOUS
 62
               3
  5
6D
 10
188.359228
 20
-94.013030000000001
 30
0.0
 11
192.00367299999999
 21
-84.0
 31
0.0
  0
ARC
  8
LY_3
  6
CONTINUOUS
 62
               3
  5
6E
 10
186.94968900000001
 20
-93.5
 30
0.0
 40
1.5
 50
270.0
 51
340.0
  0
ARC
  8
LY_3
  6
CONTINUOUS
 62
               3
  5
6F
 10
186.94968900000001
 20
93.5
 30
0.0
 40
1.5
 50
19.999999999999982
 51
89.999999999999972
  0
LINE
  8
LY_3
  6
CONTINUOUS
 62
               3
  5
70
 10
195.0
 20
82.849999999999994
 30
0.0
 11
200.0
 21
82.849999999999994
 31
0.0
  0
LINE
  8
LY_3
  6
CONTINUOUS
 62
               3
  5
71
 10
195.0
 20
79.200000000000003
 30
0.0
 11
190.84307799999999
 21
76.799999999999997
 31
0.0
  0
LINE
  8
LY_3
  6
CONTINUOUS
 62
               3
  5
72
 10
180.0
 20
76.799999999999997
 30
0.0
 11
190.84307799999999
 21
76.799999999999997
 31
0.0
  0
LINE
  8
LY_3
  6
CONTINUOUS
 62
               3
  5
73
 10
192.00367299999999
 20
0.0
 30
0.0
 11
192.00367299999999
 21
-84.0
 31
0.0
  0
LINE
  8
LY_3
  6
CONTINUOUS
 62
               3
  5
74
 10
188.0
 20
0.0
 30
0.0
 11
188.0
 21
-94.570909
 31
0.0
  0
TEXT
  8
LY_3
  6
CONTINUOUS
 62
             110
  5
75
 10
181.51428572478596
 20
-101.60000002384186
 30
0.0
 40
3.2000000476837158
  1
VP3160
 41
0.9639999997769082
  7
MX_NOTE_STANDARD
 11
181.51428572478596
 21
-98.399999976158142
 31
0.0
 73
               3
  0
ENDSEC
  0
EOF
