  0
SECTION
  2
HEADER
  9
$ACADVER
  1
AC1009
  9
$DWGCODEPAGE
  3
dos932
  9
$INSBASE
 10
0.0
 20
0.0
 30
0.0
  9
$EXTMIN
 10
-5.0
 20
-132.40000009536743
 30
0.0
  9
$EXTMAX
 10
125.0
 20
17.5
 30
0.0
  9
$LIMMIN
 10
-5.0
 20
-132.40000009536743
  9
$LIMMAX
 10
125.0
 20
17.5
  9
$ORTHOMODE
 70
               0
  9
$REGENMODE
 70
               1
  9
$FILLMODE
 70
               1
  9
$QTEXTMODE
 70
               0
  9
$MIRRTEXT
 70
               1
  9
$DRAGMODE
 70
               2
  9
$LTSCALE
 40
1.0
  9
$OSMODE
 70
               0
  9
$ATTMODE
 70
               1
  9
$TEXTSIZE
 40
3.2000000476837158
  9
$TRACEWID
 40
0.05
  9
$TEXTSTYLE
  7
MX_NOTE_STANDARD
  9
$CLAYER
  8
LY_3
  9
$CELTYPE
  6
CONTINUOUS
  9
$CECOLOR
 62
             256
  9
$DIMSCALE
 40
1.0
  9
$DIMASZ
 40
2.5
  9
$DIMEXO
 40
2.0
  9
$DIMDLI
 40
3.75
  9
$DIMRND
 40
0.0
  9
$DIMDLE
 40
0.0
  9
$DIMEXE
 40
1.0
  9
$DIMTP
 40
0.0
  9
$DIMTM
 40
0.0
  9
$DIMTXT
 40
4.1655998229980469
  9
$DIMCEN
 40
2.5
  9
$DIMTSZ
 40
0.0
  9
$DIMTOL
 70
               0
  9
$DIMLIM
 70
               0
  9
$DIMTIH
 70
               0
  9
$DIMTOH
 70
               0
  9
$DIMSE1
 70
               0
  9
$DIMSE2
 70
               0
  9
$DIMTAD
 70
               1
  9
$DIMZIN
 70
               8
  9
$DIMBLK
  1

  9
$DIMASO
 70
               1
  9
$DIMSHO
 70
               1
  9
$DIMPOST
  1

  9
$DIMAPOST
  1

  9
$DIMALT
 70
               0
  9
$DIMALTD
 70
               4
  9
$DIMALTF
 40
0.03937007874016
  9
$DIMLFAC
 40
1.0
  9
$DIMTOFL
 70
               1
  9
$DIMTVP
 40
0.0
  9
$DIMTIX
 70
               0
  9
$DIMSOXD
 70
               0
  9
$DIMSAH
 70
               1
  9
$DIMBLK1
  1
_OPEN30
  9
$DIMBLK2
  1
_OPEN30
  9
$DIMSTYLE
  2
MXDIMSTYLE
  9
$DIMCLRD
 70
               0
  9
$DIMCLRE
 70
               0
  9
$DIMCLRT
 70
               0
  9
$DIMTFAC
 40
1.0
  9
$DIMGAP
 40
1.0
  9
$LUNITS
 70
               2
  9
$LUPREC
 70
               4
  9
$AXISMODE
 70
               0
  9
$AXISUNIT
 10
0.0
 20
0.0
  9
$SKETCHINC
 40
0.1
  9
$FILLETRAD
 40
0.0
  9
$AUNITS
 70
               0
  9
$AUPREC
 70
               0
  9
$MENU
  1
acad
  9
$ELEVATION
 40
0.0
  9
$PELEVATION
 40
0.0
  9
$THICKNESS
 40
0.0
  9
$LIMCHECK
 70
               0
  9
$BLIPMODE
 70
               1
  9
$CHAMFERA
 40
0.0
  9
$CHAMFERB
 40
0.0
  9
$SKPOLY
 70
               0
  9
$TDCREATE
 40
2455163.527256944
  9
$TDUPDATE
 40
2455163.527256944
  9
$TDINDWG
 40
0.0000000000
  9
$TDUSRTIMER
 40
0.0000000000
  9
$USRTIMER
 70
               1
  9
$ANGBASE
 50
0.0
  9
$ANGDIR
 70
               0
  9
$PDMODE
 70
               0
  9
$PDSIZE
 40
0.0
  9
$PLINEWID
 40
0.0
  9
$COORDS
 70
               1
  9
$SPLFRAME
 70
               0
  9
$SPLINETYPE
 70
               6
  9
$SPLINESEGS
 70
               8
  9
$ATTDIA
 70
               0
  9
$ATTREQ
 70
               1
  9
$HANDLING
 70
               1
  9
$HANDSEED
  5
8C
  9
$SURFTAB1
 70
               6
  9
$SURFTAB2
 70
               6
  9
$SURFTYPE
 70
               6
  9
$SURFU
 70
               6
  9
$SURFV
 70
               6
  9
$UCSNAME
  2

  9
$UCSORG
 10
0.0
 20
0.0
 30
0.0
  9
$UCSXDIR
 10
1.0
 20
0.0
 30
0.0
  9
$UCSYDIR
 10
0.0
 20
1.0
 30
0.0
  9
$PUCSNAME
  2

  9
$PUCSORG
 10
0.0
 20
0.0
 30
0.0
  9
$PUCSXDIR
 10
1.0
 20
0.0
 30
0.0
  9
$PUCSYDIR
 10
0.0
 20
1.0
 30
0.0
  9
$USERI1
 70
               0
  9
$USERI2
 70
               0
  9
$USERI3
 70
               0
  9
$USERI4
 70
               0
  9
$USERI5
 70
               0
  9
$USERR1
 40
0.0
  9
$USERR2
 40
0.0
  9
$USERR3
 40
0.0
  9
$USERR4
 40
0.0
  9
$USERR5
 40
0.0
  9
$WORLDVIEW
 70
               1
  9
$SHADEDGE
 70
               3
  9
$SHADEDIF
 70
              70
  9
$TILEMODE
 70
               1
  9
$MAXACTVP
 70
              16
  9
$PINSBASE
 10
0.0
 20
0.0
 30
0.0
  9
$PLIMCHECK
 70
               0
  9
$PEXTMIN
 10
1.0000000000000000E+20
 20
1.0000000000000000E+20
 30
1.0000000000000000E+20
  9
$PEXTMAX
 10
-1.0000000000000000E+20
 20
-1.0000000000000000E+20
 30
-1.0000000000000000E+20
  9
$PLIMMIN
 10
0.0
 20
0.0
  9
$PLIMMAX
 10
12.0
 20
9.0
  9
$UNITMODE
 70
               0
  9
$VISRETAIN
 70
               0
  9
$PLINEGEN
 70
               1
  9
$PSLTSCALE
 70
               0
  9
$TREEDEPTH
 70
            3020
  0
ENDSEC
  0
SECTION
  2
TABLES
  0
TABLE
  2
VPORT
 70
               1
  0
VPORT
  2
*ACTIVE
 70
               0
 10
0.0
 20
0.0
 11
1.0
 21
1.0
 12
60.0
 22
-57.450000047683716
 13
0.0
 23
0.0
 14
1.0
 24
1.0
 15
0.0
 25
0.0
 16
0.0
 26
0.0
 36
1.0
 17
0.0
 27
0.0
 37
0.0
 40
151.39900009632112
 41
1.7320508075688772
 42
50.0
 43
0.0
 44
0.0
 50
0.0
 51
0.0
 71
               0
 72
             100
 73
               1
 74
               1
 75
               0
 76
               0
 77
               0
 78
               0
  0
ENDTAB
  0
TABLE
  2
LTYPE
 70
               2
  0
LTYPE
  2
CONTINUOUS
 70
              64
  3
Solid line
 72
              65
 73
               0
 40
0.0
  0
LTYPE
  2
CENTER
 70
              64
  3
Center ____ _ ____ _ ____ _ ____ _ ____ _ ____
 72
              65
 73
               4
 40
50.800000000000004
 49
31.75
 49
-6.3499999999999996
 49
6.3499999999999996
 49
-6.3499999999999996
  0
ENDTAB
  0
TABLE
  2
LAYER
 70
               3
  0
LAYER
  2
0
 70
               0
 62
               7
  6
CONTINUOUS
  0
LAYER
  2
DEFPOINTS
 70
               0
 62
               7
  6
CONTINUOUS
  0
LAYER
  2
LY_3
 70
               0
 62
               7
  6
CONTINUOUS
  0
ENDTAB
  0
TABLE
  2
STYLE
 70
               1
  0
STYLE
  2
MX_NOTE_STANDARD
 70
               0
 40
0.0
 41
1.0
 50
0.0
 71
               0
 42
3.2000000476837158
  3
txt.shx
  4
extfont.shx
  0
ENDTAB
  0
TABLE
  2
VIEW
 70
               0
  0
ENDTAB
  0
TABLE
  2
UCS
 70
               0
  0
ENDTAB
  0
TABLE
  2
APPID
 70
               1
  0
APPID
  2
ACAD
 70
               0
  0
ENDTAB
  0
TABLE
  2
DIMSTYLE
 70
               1
  0
DIMSTYLE
  2
MXDIMSTYLE
 70
               0
  3

  4

  5

  6
_OPEN30
  7
_OPEN30
 40
1.0
 41
2.5
 42
2.0
 43
3.75
 44
1.0
 45
0.0
 46
0.0
 47
0.0
 48
0.0
 71
               0
 72
               0
 73
               0
 74
               0
 75
               0
 76
               0
 77
               1
 78
               8
140
4.1655998229980469
141
2.5
142
0.0
143
0.03937007874016
144
1.0
145
0.0
146
1.0
147
1.0
170
               0
171
               4
172
               1
173
               1
174
               0
175
               0
176
               0
177
               0
178
               0
  0
ENDTAB
  0
ENDSEC
  0
SECTION
  2
BLOCKS
  0
BLOCK
  8
0
  6
BYBLOCK
 62
               0
  5
20
  2
_OPEN30
 70
               2
 10
0.0
 20
0.0
 30
0.0
  3
_OPEN30
  0
LINE
  8
0
  6
BYBLOCK
 62
               0
  5
21
 10
-1.0
 20
0.267949
 30
0.0
 11
0.0
 21
0.0
 31
0.0
  0
LINE
  8
0
  6
BYBLOCK
 62
               0
  5
22
 10
0.0
 20
0.0
 30
0.0
 11
-1.0
 21
-0.267949
 31
0.0
  0
LINE
  8
0
  6
BYBLOCK
 62
               0
  5
23
 10
0.0
 20
0.0
 30
0.0
 11
-1.0
 21
0.0
 31
0.0
  0
ENDBLK
  8
0
  6
BYBLOCK
 62
               0
  5
24
  0
ENDSEC
  0
SECTION
  2
ENTITIES
  0
TEXT
  8
LY_3
  6
CONTINUOUS
 62
             110
  5
25
 10
97.029411768087613
 20
-101.60000002384186
 30
0.0
 40
3.2000000476837158
  1
VP3063(L)
 41
0.9929999842144112
  7
MX_NOTE_STANDARD
 11
97.029411768087613
 21
-98.399999976158142
 31
0.0
 73
               3
  0
LINE
  8
LY_3
  6
CONTINUOUS
 62
               3
  5
26
 10
104.433528
 20
-88.150000000000006
 30
0.0
 11
104.433528
 21
-50.0
 31
0.0
  0
ARC
  8
LY_3
  6
CONTINUOUS
 62
               3
  5
27
 10
101.84900999999999
 20
-8.0
 30
0.0
 40
1.5
 50
14.999999999999998
 51
90.0
  0
LINE
  8
LY_3
  6
CONTINUOUS
 62
               3
  5
28
 10
100.0
 20
-6.5
 30
0.0
 11
101.84900999999999
 21
-6.5
 31
0.0
  0
LINE
  8
LY_3
  6
CONTINUOUS
 62
               3
  5
29
 10
103.297898
 20
-7.6117710000000045
 30
0.0
 11
104.433528
 21
-11.849999999999994
 31
0.0
  0
ARC
  8
LY_3
  6
CONTINUOUS
 62
               3
  5
2A
 10
101.84900999999999
 20
-92.0
 30
0.0
 40
1.5
 50
270.0
 51
345.0
  0
LINE
  8
LY_3
  6
CONTINUOUS
 62
               3
  5
2B
 10
103.297898
 20
-92.388228999999995
 30
0.0
 11
104.433528
 21
-88.150000000000006
 31
0.0
  0
LINE
  8
LY_3
  6
CONTINUOUS
 62
               3
  5
2C
 10
103.0
 20
-50.0
 30
0.0
 11
103.0
 21
-92.961883999999998
 31
0.0
  0
LINE
  8
LY_3
  6
CONTINUOUS
 62
               3
  5
2D
 10
100.0
 20
-93.5
 30
0.0
 11
101.84900999999999
 21
-93.5
 31
0.0
  0
LINE
  8
LY_3
  6
CONTINUOUS
 62
               3
  5
2E
 10
100.0
 20
-14.900000000000006
 30
0.0
 11
120.0
 21
-14.900000000000006
 31
0.0
  0
LINE
  8
LY_3
  6
CONTINUOUS
 62
               3
  5
2F
 10
104.433528
 20
-11.849999999999994
 30
0.0
 11
120.0
 21
-11.849999999999994
 31
0.0
  0
LINE
  8
LY_3
  6
CONTINUOUS
 62
               3
  5
30
 10
104.433528
 20
-88.150000000000006
 30
0.0
 11
120.0
 21
-88.150000000000006
 31
0.0
  0
LINE
  8
LY_3
  6
CONTINUOUS
 62
               3
  5
31
 10
120.0
 20
-11.849999999999994
 30
0.0
 11
120.0
 21
-88.150000000000006
 31
0.0
  0
LINE
  8
LY_3
  6
CONTINUOUS
 62
               3
  5
32
 10
100.0
 20
-6.5
 30
0.0
 11
100.0
 21
-93.5
 31
0.0
  0
LINE
  8
LY_3
  6
CENTER
 62
             110
  5
34
 10
95.0
 20
-50.0
 30
0.0
 11
125.0
 21
-50.0
 31
0.0
  0
LINE
  8
LY_3
  6
CONTINUOUS
 62
               3
  5
35
 10
54.942629464101543
 20
-120.25
 30
0.0
 11
54.942629464101543
 21
-90.0
 31
0.0
  0
LINE
  8
LY_3
  6
CONTINUOUS
 62
               3
  5
36
 10
52.999997549038085
 20
-126.96188755161886
 30
0.0
 11
52.999997549038085
 21
-90.0
 31
0.0
  0
TEXT
  8
LY_3
  6
CONTINUOUS
 62
             110
  5
37
 10
47.039999996345522
 20
-131.60000002384186
 30
0.0
 40
3.2000000476837158
  1
VP3050(L)
 41
1.0119999626898772
  7
MX_NOTE_STANDARD
 11
47.039999996345522
 21
-128.39999997615814
 31
0.0
 73
               3
  0
ARC
  8
LY_3
  6
CONTINUOUS
 62
               3
  5
38
 10
51.849009999999993
 20
-54.0
 30
0.0
 40
1.5
 50
15.000048000000001
 51
89.999982000000003
  0
LINE
  8
LY_3
  6
CONTINUOUS
 62
               3
  5
39
 10
52.5
 20
-90.0
 30
0.0
 11
52.5
 21
-62.5
 31
0.0
  0
LINE
  8
LY_3
  6
CONTINUOUS
 62
               3
  5
3A
 10
50.0
 20
-63.900002000000001
 30
0.0
 11
52.5
 21
-63.900002000000001
 31
0.0
  0
LINE
  8
LY_3
  6
CONTINUOUS
 62
               3
  5
3B
 10
52.5
 20
-62.5
 30
0.0
 11
70.0
 21
-62.5
 31
0.0
  0
LINE
  8
LY_3
  6
CONTINUOUS
 62
               3
  5
3C
 10
53.297896000000009
 20
-53.611772000000002
 30
0.0
 11
54.942630000000008
 21
-59.750001999999995
 31
0.0
  0
LINE
  8
LY_3
  6
CONTINUOUS
 62
               3
  5
3D
 10
50.0
 20
-52.5
 30
0.0
 11
51.849009999999993
 21
-52.5
 31
0.0
  0
LINE
  8
LY_3
  6
CONTINUOUS
 62
               3
  5
3E
 10
50.0
 20
-127.5
 30
0.0
 11
50.0
 21
-52.5
 31
0.0
  0
LINE
  8
LY_3
  6
CENTER
 62
             110
  5
3F
 10
45.0
 20
-90.0
 30
0.0
 11
75.0
 21
-90.0
 31
0.0
  0
LINE
  8
LY_3
  6
CONTINUOUS
 62
               3
  5
40
 10
70.0
 20
-120.25
 30
0.0
 11
70.0
 21
-59.75
 31
0.0
  0
LINE
  8
LY_3
  6
CONTINUOUS
 62
               3
  5
41
 10
54.942631000000006
 20
-59.75
 30
0.0
 11
70.0
 21
-59.75
 31
0.0
  0
LINE
  8
LY_3
  6
CONTINUOUS
 62
               3
  5
42
 10
54.942631000000006
 20
-120.25
 30
0.0
 11
70.0
 21
-120.25
 31
0.0
  0
LINE
  8
LY_3
  6
CONTINUOUS
 62
               3
  5
43
 10
50.0
 20
-127.5
 30
0.0
 11
51.849009999999993
 21
-127.5
 31
0.0
  0
LINE
  8
LY_3
  6
CONTINUOUS
 62
               3
  5
44
 10
53.297896000000009
 20
-126.388228
 30
0.0
 11
54.942630000000008
 21
-120.24999800000001
 31
0.0
  0
ARC
  8
LY_3
  6
CONTINUOUS
 62
               3
  5
45
 10
51.849009999999993
 20
-126.0
 30
0.0
 40
1.5
 50
270.00001800000001
 51
344.99995200000001
  0
TEXT
  8
LY_3
  6
CONTINUOUS
 62
             110
  5
46
 10
47.039999996345522
 20
-41.600000023841858
 30
0.0
 40
3.2000000476837158
  1
VP3040(L)
 41
1.0119999626898772
  7
MX_NOTE_STANDARD
 11
47.039999996345522
 21
-38.399999976158142
 31
0.0
 73
               3
  0
LINE
  8
LY_3
  6
CONTINUOUS
 62
               3
  5
47
 10
54.647888000000002
 20
-31.349999999999994
 30
0.0
 11
54.647888000000002
 21
-10.0
 31
0.0
  0
ARC
  8
LY_3
  6
CONTINUOUS
 62
               3
  5
48
 10
51.84901
 20
16.0
 30
0.0
 40
1.5
 50
14.999999999999998
 51
90.0
  0
LINE
  8
LY_3
  6
CONTINUOUS
 62
               3
  5
49
 10
50.0
 20
17.5
 30
0.0
 11
51.84901
 21
17.5
 31
0.0
  0
LINE
  8
LY_3
  6
CONTINUOUS
 62
               3
  5
4A
 10
53.297898000000004
 20
16.388228999999995
 30
0.0
 11
54.647888000000002
 21
11.349999999999994
 31
0.0
  0
ARC
  8
LY_3
  6
CONTINUOUS
 62
               3
  5
4B
 10
51.84901
 20
-36.0
 30
0.0
 40
1.5
 50
270.0
 51
345.0
  0
LINE
  8
LY_3
  6
CONTINUOUS
 62
               3
  5
4C
 10
53.297898000000004
 20
-36.388228999999995
 30
0.0
 11
54.647888000000002
 21
-31.349999999999994
 31
0.0
  0
LINE
  8
LY_3
  6
CONTINUOUS
 62
               3
  5
4D
 10
53.0
 20
-10.0
 30
0.0
 11
53.0
 21
-36.961883999999998
 31
0.0
  0
LINE
  8
LY_3
  6
CONTINUOUS
 62
               3
  5
4E
 10
50.0
 20
-37.5
 30
0.0
 11
51.84901
 21
-37.5
 31
0.0
  0
LINE
  8
LY_3
  6
CONTINUOUS
 62
               3
  5
4F
 10
52.5
 20
10.599999999999994
 30
0.0
 11
52.5
 21
-10.0
 31
0.0
  0
LINE
  8
LY_3
  6
CONTINUOUS
 62
               3
  5
50
 10
50.0
 20
10.599999999999994
 30
0.0
 11
52.5
 21
10.599999999999994
 31
0.0
  0
LINE
  8
LY_3
  6
CONTINUOUS
 62
               3
  5
51
 10
52.5
 20
9.5
 30
0.0
 11
70.0
 21
9.5
 31
0.0
  0
LINE
  8
LY_3
  6
CONTINUOUS
 62
               3
  5
52
 10
54.647888000000002
 20
11.349999999999994
 30
0.0
 11
70.0
 21
11.349999999999994
 31
0.0
  0
LINE
  8
LY_3
  6
CONTINUOUS
 62
               3
  5
53
 10
54.647888000000002
 20
-31.349999999999994
 30
0.0
 11
70.0
 21
-31.349999999999994
 31
0.0
  0
LINE
  8
LY_3
  6
CONTINUOUS
 62
               3
  5
54
 10
70.0
 20
11.349999999999994
 30
0.0
 11
70.0
 21
-31.349999999999994
 31
0.0
  0
LINE
  8
LY_3
  6
CONTINUOUS
 62
               3
  5
55
 10
50.0
 20
17.5
 30
0.0
 11
50.0
 21
-37.5
 31
0.0
  0
LINE
  8
LY_3
  6
CENTER
 62
             110
  5
56
 10
45.0
 20
-10.0
 30
0.0
 11
75.740861618798988
 21
-10.0
 31
0.0
  0
TEXT
  8
LY_3
  6
CONTINUOUS
 62
             110
  5
57
 10
-2.9705882319123966
 20
-131.60000002384186
 30
0.0
 40
3.2000000476837158
  1
VP3025(L)
 41
0.9929999842144112
  7
MX_NOTE_STANDARD
 11
-2.9705882319123966
 21
-128.39999997615814
 31
0.0
 73
               3
  0
LINE
  8
LY_3
  6
CONTINUOUS
 62
               3
  5
58
 10
4.7148750000000001
 20
-113.59999999999999
 30
0.0
 11
4.7148750000000001
 21
-100.0
 31
0.0
  0
ARC
  8
LY_3
  6
CONTINUOUS
 62
               3
  5
59
 10
1.84901
 20
-81.5
 30
0.0
 40
1.5
 50
14.999999999999998
 51
90.0
  0
LINE
  8
LY_3
  6
CONTINUOUS
 62
               3
  5
5A
 10
0.0
 20
-80.0
 30
0.0
 11
1.84901
 21
-80.0
 31
0.0
  0
LINE
  8
LY_3
  6
CONTINUOUS
 62
               3
  5
5B
 10
3.297898
 20
-81.111771000000005
 30
0.0
 11
4.7148750000000001
 21
-86.400000000000006
 31
0.0
  0
ARC
  8
LY_3
  6
CONTINUOUS
 62
               3
  5
5C
 10
1.84901
 20
-118.5
 30
0.0
 40
1.5
 50
270.0
 51
345.0
  0
LINE
  8
LY_3
  6
CONTINUOUS
 62
               3
  5
5D
 10
3.297898
 20
-118.888229
 30
0.0
 11
4.7148750000000001
 21
-113.59999999999999
 31
0.0
  0
LINE
  8
LY_3
  6
CONTINUOUS
 62
               3
  5
5E
 10
3.0
 20
-100.0
 30
0.0
 11
3.0
 21
-119.461884
 31
0.0
  0
LINE
  8
LY_3
  6
CONTINUOUS
 62
               3
  5
5F
 10
0.0
 20
-120.0
 30
0.0
 11
1.84901
 21
-120.0
 31
0.0
  0
LINE
  8
LY_3
  6
CONTINUOUS
 62
               3
  5
60
 10
2.5
 20
-86.900000000000006
 30
0.0
 11
2.5
 21
-100.0
 31
0.0
  0
LINE
  8
LY_3
  6
CONTINUOUS
 62
               3
  5
61
 10
0.0
 20
-86.900000000000006
 30
0.0
 11
2.5
 21
-86.900000000000006
 31
0.0
  0
LINE
  8
LY_3
  6
CONTINUOUS
 62
               3
  5
62
 10
2.5
 20
-88.0
 30
0.0
 11
20.0
 21
-88.0
 31
0.0
  0
LINE
  8
LY_3
  6
CONTINUOUS
 62
               3
  5
63
 10
4.7148750000000001
 20
-86.400000000000006
 30
0.0
 11
20.0
 21
-86.400000000000006
 31
0.0
  0
LINE
  8
LY_3
  6
CONTINUOUS
 62
               3
  5
64
 10
4.7148750000000001
 20
-113.59999999999999
 30
0.0
 11
20.0
 21
-113.59999999999999
 31
0.0
  0
LINE
  8
LY_3
  6
CONTINUOUS
 62
               3
  5
65
 10
20.0
 20
-86.400000000000006
 30
0.0
 11
20.0
 21
-113.59999999999999
 31
0.0
  0
LINE
  8
LY_3
  6
CONTINUOUS
 62
               3
  5
66
 10
0.0
 20
-80.0
 30
0.0
 11
0.0
 21
-120.0
 31
0.0
  0
LINE
  8
LY_3
  6
CENTER
 62
             110
  5
67
 10
-5.0
 20
-100.0
 30
0.0
 11
26.646736292428201
 21
-100.0
 31
0.0
  0
TEXT
  8
LY_3
  6
CONTINUOUS
 62
             110
  5
68
 10
-2.9489795887120276
 20
-71.600000023841858
 30
0.0
 40
3.2000000476837158
  1
VP3016(L)
 41
1.0330000082835247
  7
MX_NOTE_STANDARD
 11
-2.9489795887120276
 21
-68.399999976158142
 31
0.0
 73
               3
  0
LINE
  8
LY_3
  6
CONTINUOUS
 62
               3
  5
69
 10
4.3397459999999999
 20
-60.0
 30
0.0
 11
4.3397459999999999
 21
-50.0
 31
0.0
  0
ARC
  8
LY_3
  6
CONTINUOUS
 62
               3
  5
6A
 10
1.84901
 20
-36.5
 30
0.0
 40
1.5
 50
14.999999999999998
 51
90.0
  0
LINE
  8
LY_3
  6
CONTINUOUS
 62
               3
  5
6B
 10
0.0
 20
-35.0
 30
0.0
 11
1.84901
 21
-35.0
 31
0.0
  0
LINE
  8
LY_3
  6
CONTINUOUS
 62
               3
  5
6C
 10
3.297898
 20
-36.111770999999997
 30
0.0
 11
4.3397459999999999
 21
-40.0
 31
0.0
  0
ARC
  8
LY_3
  6
CONTINUOUS
 62
               3
  5
6D
 10
1.84901
 20
-63.5
 30
0.0
 40
1.5
 50
270.0
 51
345.0
  0
LINE
  8
LY_3
  6
CONTINUOUS
 62
               3
  5
6E
 10
3.297898
 20
-63.888229000000003
 30
0.0
 11
4.3397459999999999
 21
-60.0
 31
0.0
  0
LINE
  8
LY_3
  6
CONTINUOUS
 62
               3
  5
6F
 10
3.0
 20
-50.0
 30
0.0
 11
3.0
 21
-64.461883999999998
 31
0.0
  0
LINE
  8
LY_3
  6
CONTINUOUS
 62
               3
  5
70
 10
0.0
 20
-65.0
 30
0.0
 11
1.84901
 21
-65.0
 31
0.0
  0
LINE
  8
LY_3
  6
CONTINUOUS
 62
               3
  5
71
 10
2.5
 20
-41.399999999999999
 30
0.0
 11
2.5
 21
-50.0
 31
0.0
  0
LINE
  8
LY_3
  6
CONTINUOUS
 62
               3
  5
72
 10
0.0
 20
-41.399999999999999
 30
0.0
 11
2.5
 21
-41.399999999999999
 31
0.0
  0
LINE
  8
LY_3
  6
CONTINUOUS
 62
               3
  5
73
 10
2.5
 20
-42.0
 30
0.0
 11
10.0
 21
-42.0
 31
0.0
  0
LINE
  8
LY_3
  6
CONTINUOUS
 62
               3
  5
74
 10
4.3397459999999999
 20
-40.0
 30
0.0
 11
10.0
 21
-40.0
 31
0.0
  0
LINE
  8
LY_3
  6
CONTINUOUS
 62
               3
  5
75
 10
4.3397459999999999
 20
-60.0
 30
0.0
 11
10.0
 21
-60.0
 31
0.0
  0
LINE
  8
LY_3
  6
CONTINUOUS
 62
               3
  5
76
 10
10.0
 20
-40.0
 30
0.0
 11
10.0
 21
-60.0
 31
0.0
  0
LINE
  8
LY_3
  6
CONTINUOUS
 62
               3
  5
77
 10
0.0
 20
-35.0
 30
0.0
 11
0.0
 21
-65.0
 31
0.0
  0
LINE
  8
LY_3
  6
CENTER
 62
             110
  5
78
 10
-5.0
 20
-50.0
 30
0.0
 11
15.868950999999999
 21
-50.0
 31
0.0
  0
TEXT
  8
LY_3
  6
CONTINUOUS
 62
             110
  5
79
 10
-2.9375000008729595
 20
-21.600000023841858
 30
0.0
 40
3.2000000476837158
  1
VP3010(L)
 41
1.0549999537691483
  7
MX_NOTE_STANDARD
 11
-2.9375000008729595
 21
-18.399999976158142
 31
0.0
 73
               3
  0
ARC
  8
LY_3
  6
CONTINUOUS
 62
               3
  5
7A
 10
1.84901
 20
13.5
 30
0.0
 40
1.5
 50
14.999999999999998
 51
90.0
  0
LINE
  8
LY_3
  6
CONTINUOUS
 62
               3
  5
7B
 10
0.0
 20
15.0
 30
0.0
 11
1.84901
 21
15.0
 31
0.0
  0
LINE
  8
LY_3
  6
CONTINUOUS
 62
               3
  5
7C
 10
3.297898
 20
13.888229000000001
 30
0.0
 11
5.170388
 21
6.9000000000000004
 31
0.0
  0
ARC
  8
LY_3
  6
CONTINUOUS
 62
               3
  5
7D
 10
1.84901
 20
-13.5
 30
0.0
 40
1.5
 50
270.0
 51
345.0
  0
LINE
  8
LY_3
  6
CONTINUOUS
 62
               3
  5
7E
 10
5.170388
 20
-6.9000000000000004
 30
0.0
 11
5.170388
 21
0.0
 31
0.0
  0
LINE
  8
LY_3
  6
CONTINUOUS
 62
               3
  5
7F
 10
3.297898
 20
-13.888229000000001
 30
0.0
 11
5.170388
 21
-6.9000000000000004
 31
0.0
  0
LINE
  8
LY_3
  6
CONTINUOUS
 62
               3
  5
80
 10
3.0
 20
0.0
 30
0.0
 11
3.0
 21
-14.461884
 31
0.0
  0
LINE
  8
LY_3
  6
CONTINUOUS
 62
               3
  5
81
 10
0.0
 20
-15.0
 30
0.0
 11
1.84901
 21
-15.0
 31
0.0
  0
LINE
  8
LY_3
  6
CONTINUOUS
 62
               3
  5
82
 10
2.5
 20
6.0999999999999996
 30
0.0
 11
2.5
 21
0.0
 31
0.0
  0
LINE
  8
LY_3
  6
CONTINUOUS
 62
               3
  5
83
 10
0.0
 20
6.0999999999999996
 30
0.0
 11
2.5
 21
6.0999999999999996
 31
0.0
  0
LINE
  8
LY_3
  6
CONTINUOUS
 62
               3
  5
84
 10
2.5
 20
5.0
 30
0.0
 11
10.0
 21
5.0
 31
0.0
  0
LINE
  8
LY_3
  6
CONTINUOUS
 62
               3
  5
85
 10
5.170388
 20
6.9000000000000004
 30
0.0
 11
10.0
 21
6.9000000000000004
 31
0.0
  0
LINE
  8
LY_3
  6
CONTINUOUS
 62
               3
  5
86
 10
5.170388
 20
-6.9000000000000004
 30
0.0
 11
10.0
 21
-6.9000000000000004
 31
0.0
  0
LINE
  8
LY_3
  6
CONTINUOUS
 62
               3
  5
87
 10
10.0
 20
6.9000000000000004
 30
0.0
 11
10.0
 21
-6.9000000000000004
 31
0.0
  0
LINE
  8
LY_3
  6
CONTINUOUS
 62
               3
  5
88
 10
0.0
 20
15.0
 30
0.0
 11
0.0
 21
-15.0
 31
0.0
  0
LINE
  8
LY_3
  6
CENTER
 62
             110
  5
89
 10
-5.0
 20
0.0
 30
0.0
 11
15.868950999999999
 21
0.0
 31
0.0
  0
ENDSEC
  0
EOF
