  0
SECTION
  2
HEADER
  9
$ACADVER
  1
AC1009
  9
$DWGCODEPAGE
  3
dos932
  9
$INSBASE
 10
0.0
 20
0.0
 30
0.0
  9
$EXTMIN
 10
-5.3748912992450002
 20
-65.875
 30
0.0
  9
$EXTMAX
 10
137.37010763263976
 20
60.417065734906473
 30
0.0
  9
$LIMMIN
 10
-5.3748912992450002
 20
-65.875
  9
$LIMMAX
 10
137.37010763263976
 20
60.417065734906473
  9
$ORTHOMODE
 70
               0
  9
$REGENMODE
 70
               1
  9
$FILLMODE
 70
               1
  9
$QTEXTMODE
 70
               0
  9
$MIRRTEXT
 70
               1
  9
$DRAGMODE
 70
               2
  9
$LTSCALE
 40
1.0
  9
$OSMODE
 70
               0
  9
$ATTMODE
 70
               1
  9
$TEXTSIZE
 40
3.2000000476837158
  9
$TRACEWID
 40
0.05
  9
$TEXTSTYLE
  7
MX_NOTE_STANDARD
  9
$CLAYER
  8
LY_3
  9
$CELTYPE
  6
CONTINUOUS
  9
$CECOLOR
 62
             256
  9
$DIMSCALE
 40
1.0
  9
$DIMASZ
 40
2.5
  9
$DIMEXO
 40
2.0
  9
$DIMDLI
 40
3.75
  9
$DIMRND
 40
0.0
  9
$DIMDLE
 40
0.0
  9
$DIMEXE
 40
1.0
  9
$DIMTP
 40
0.0
  9
$DIMTM
 40
0.0
  9
$DIMTXT
 40
4.1655998229980469
  9
$DIMCEN
 40
2.5
  9
$DIMTSZ
 40
0.0
  9
$DIMTOL
 70
               0
  9
$DIMLIM
 70
               0
  9
$DIMTIH
 70
               0
  9
$DIMTOH
 70
               0
  9
$DIMSE1
 70
               0
  9
$DIMSE2
 70
               0
  9
$DIMTAD
 70
               1
  9
$DIMZIN
 70
               8
  9
$DIMBLK
  1

  9
$DIMASO
 70
               1
  9
$DIMSHO
 70
               1
  9
$DIMPOST
  1

  9
$DIMAPOST
  1

  9
$DIMALT
 70
               0
  9
$DIMALTD
 70
               4
  9
$DIMALTF
 40
0.03937007874016
  9
$DIMLFAC
 40
1.0
  9
$DIMTOFL
 70
               1
  9
$DIMTVP
 40
0.0
  9
$DIMTIX
 70
               0
  9
$DIMSOXD
 70
               0
  9
$DIMSAH
 70
               1
  9
$DIMBLK1
  1
_OPEN30
  9
$DIMBLK2
  1
_OPEN30
  9
$DIMSTYLE
  2
MXDIMSTYLE
  9
$DIMCLRD
 70
               0
  9
$DIMCLRE
 70
               0
  9
$DIMCLRT
 70
               0
  9
$DIMTFAC
 40
1.0
  9
$DIMGAP
 40
1.0
  9
$LUNITS
 70
               2
  9
$LUPREC
 70
               4
  9
$AXISMODE
 70
               0
  9
$AXISUNIT
 10
0.0
 20
0.0
  9
$SKETCHINC
 40
0.1
  9
$FILLETRAD
 40
0.0
  9
$AUNITS
 70
               0
  9
$AUPREC
 70
               0
  9
$MENU
  1
acad
  9
$ELEVATION
 40
0.0
  9
$PELEVATION
 40
0.0
  9
$THICKNESS
 40
0.0
  9
$LIMCHECK
 70
               0
  9
$BLIPMODE
 70
               1
  9
$CHAMFERA
 40
0.0
  9
$CHAMFERB
 40
0.0
  9
$SKPOLY
 70
               0
  9
$TDCREATE
 40
2455163.527071759
  9
$TDUPDATE
 40
2455163.527071759
  9
$TDINDWG
 40
0.0000000000
  9
$TDUSRTIMER
 40
0.0000000000
  9
$USRTIMER
 70
               1
  9
$ANGBASE
 50
0.0
  9
$ANGDIR
 70
               0
  9
$PDMODE
 70
               0
  9
$PDSIZE
 40
0.0
  9
$PLINEWID
 40
0.0
  9
$COORDS
 70
               1
  9
$SPLFRAME
 70
               0
  9
$SPLINETYPE
 70
               6
  9
$SPLINESEGS
 70
               8
  9
$ATTDIA
 70
               0
  9
$ATTREQ
 70
               1
  9
$HANDLING
 70
               1
  9
$HANDSEED
  5
4E3
  9
$SURFTAB1
 70
               6
  9
$SURFTAB2
 70
               6
  9
$SURFTYPE
 70
               6
  9
$SURFU
 70
               6
  9
$SURFV
 70
               6
  9
$UCSNAME
  2

  9
$UCSORG
 10
0.0
 20
0.0
 30
0.0
  9
$UCSXDIR
 10
1.0
 20
0.0
 30
0.0
  9
$UCSYDIR
 10
0.0
 20
1.0
 30
0.0
  9
$PUCSNAME
  2

  9
$PUCSORG
 10
0.0
 20
0.0
 30
0.0
  9
$PUCSXDIR
 10
1.0
 20
0.0
 30
0.0
  9
$PUCSYDIR
 10
0.0
 20
1.0
 30
0.0
  9
$USERI1
 70
               0
  9
$USERI2
 70
               0
  9
$USERI3
 70
               0
  9
$USERI4
 70
               0
  9
$USERI5
 70
               0
  9
$USERR1
 40
0.0
  9
$USERR2
 40
0.0
  9
$USERR3
 40
0.0
  9
$USERR4
 40
0.0
  9
$USERR5
 40
0.0
  9
$WORLDVIEW
 70
               1
  9
$SHADEDGE
 70
               3
  9
$SHADEDIF
 70
              70
  9
$TILEMODE
 70
               1
  9
$MAXACTVP
 70
              16
  9
$PINSBASE
 10
0.0
 20
0.0
 30
0.0
  9
$PLIMCHECK
 70
               0
  9
$PEXTMIN
 10
1.0000000000000000E+20
 20
1.0000000000000000E+20
 30
1.0000000000000000E+20
  9
$PEXTMAX
 10
-1.0000000000000000E+20
 20
-1.0000000000000000E+20
 30
-1.0000000000000000E+20
  9
$PLIMMIN
 10
0.0
 20
0.0
  9
$PLIMMAX
 10
12.0
 20
9.0
  9
$UNITMODE
 70
               0
  9
$VISRETAIN
 70
               0
  9
$PLINEGEN
 70
               1
  9
$PSLTSCALE
 70
               0
  9
$TREEDEPTH
 70
            3020
  0
ENDSEC
  0
SECTION
  2
TABLES
  0
TABLE
  2
VPORT
 70
               1
  0
VPORT
  2
*ACTIVE
 70
               0
 10
0.0
 20
0.0
 11
1.0
 21
1.0
 12
65.997608166697376
 22
-2.7289671325467637
 13
0.0
 23
0.0
 14
1.0
 24
1.0
 15
0.0
 25
0.0
 16
0.0
 26
0.0
 36
1.0
 17
0.0
 27
0.0
 37
0.0
 40
127.55498639225554
 41
1.7320508075688772
 42
50.0
 43
0.0
 44
0.0
 50
0.0
 51
0.0
 71
               0
 72
             100
 73
               1
 74
               1
 75
               0
 76
               0
 77
               0
 78
               0
  0
ENDTAB
  0
TABLE
  2
LTYPE
 70
               3
  0
LTYPE
  2
CONTINUOUS
 70
              64
  3
Solid line
 72
              65
 73
               0
 40
0.0
  0
LTYPE
  2
PHANTOM
 70
              64
  3
Phantom ______  __  __  ______  __  __  ______
 72
              65
 73
               6
 40
63.500000000000007
 49
31.75
 49
-6.3499999999999996
 49
6.3499999999999996
 49
-6.3499999999999996
 49
6.3499999999999996
 49
-6.3499999999999996
  0
LTYPE
  2
CENTER
 70
              64
  3
Center ____ _ ____ _ ____ _ ____ _ ____ _ ____
 72
              65
 73
               4
 40
50.800000000000004
 49
31.75
 49
-6.3499999999999996
 49
6.3499999999999996
 49
-6.3499999999999996
  0
ENDTAB
  0
TABLE
  2
LAYER
 70
               3
  0
LAYER
  2
0
 70
               0
 62
               7
  6
CONTINUOUS
  0
LAYER
  2
DEFPOINTS
 70
               0
 62
               7
  6
CONTINUOUS
  0
LAYER
  2
LY_3
 70
               0
 62
               7
  6
CONTINUOUS
  0
ENDTAB
  0
TABLE
  2
STYLE
 70
               1
  0
STYLE
  2
MX_NOTE_STANDARD
 70
               0
 40
0.0
 41
1.0
 50
0.0
 71
               0
 42
3.2000000476837158
  3
txt.shx
  4
extfont.shx
  0
ENDTAB
  0
TABLE
  2
VIEW
 70
               0
  0
ENDTAB
  0
TABLE
  2
UCS
 70
               0
  0
ENDTAB
  0
TABLE
  2
APPID
 70
               1
  0
APPID
  2
ACAD
 70
               0
  0
ENDTAB
  0
TABLE
  2
DIMSTYLE
 70
               1
  0
DIMSTYLE
  2
MXDIMSTYLE
 70
               0
  3

  4

  5

  6
_OPEN30
  7
_OPEN30
 40
1.0
 41
2.5
 42
2.0
 43
3.75
 44
1.0
 45
0.0
 46
0.0
 47
0.0
 48
0.0
 71
               0
 72
               0
 73
               0
 74
               0
 75
               0
 76
               0
 77
               1
 78
               8
140
4.1655998229980469
141
2.5
142
0.0
143
0.03937007874016
144
1.0
145
0.0
146
1.0
147
1.0
170
               0
171
               4
172
               1
173
               1
174
               0
175
               0
176
               0
177
               0
178
               0
  0
ENDTAB
  0
ENDSEC
  0
SECTION
  2
BLOCKS
  0
BLOCK
  8
0
  6
BYBLOCK
 62
               0
  5
20
  2
_OPEN30
 70
               2
 10
0.0
 20
0.0
 30
0.0
  3
_OPEN30
  0
LINE
  8
0
  6
BYBLOCK
 62
               0
  5
21
 10
-1.0
 20
0.267949
 30
0.0
 11
0.0
 21
0.0
 31
0.0
  0
LINE
  8
0
  6
BYBLOCK
 62
               0
  5
22
 10
0.0
 20
0.0
 30
0.0
 11
-1.0
 21
-0.267949
 31
0.0
  0
LINE
  8
0
  6
BYBLOCK
 62
               0
  5
23
 10
0.0
 20
0.0
 30
0.0
 11
-1.0
 21
0.0
 31
0.0
  0
ENDBLK
  8
0
  6
BYBLOCK
 62
               0
  5
24
  0
BLOCK
  8
0
  6
BYBLOCK
 62
               0
  5
27
  2
*X1
 70
               1
 10
0.0
 20
0.0
 30
0.0
  3
*X1
  0
LINE
  8
0
  6
CONTINUOUS
 62
               0
  5
28
 10
133.47414423292764
 20
46.5
 30
0.0
 11
133.99999968969726
 21
47.025855456769612
 31
0.0
  0
LINE
  8
0
  6
CONTINUOUS
 62
               0
  5
29
 10
131.35282364188063
 20
46.5
 30
0.0
 11
133.99999968969726
 21
49.147176047816629
 31
0.0
  0
LINE
  8
0
  6
CONTINUOUS
 62
               0
  5
2A
 10
129.23150305083362
 20
46.5
 30
0.0
 11
133.53150305083361
 21
50.79999999999999
 31
0.0
  0
LINE
  8
0
  6
CONTINUOUS
 62
               0
  5
2B
 10
128.99999968969726
 20
48.389817229910655
 30
0.0
 11
131.4101824597866
 21
50.79999999999999
 31
0.0
  0
LINE
  8
0
  6
CONTINUOUS
 62
               0
  5
2C
 10
128.4888618687396
 20
50.0
 30
0.0
 11
129.94999968969725
 21
51.461137820957646
 31
0.0
  0
LINE
  8
0
  6
CONTINUOUS
 62
               0
  5
2D
 10
126.36754127769258
 20
50.0
 30
0.0
 11
129.94999968969725
 21
53.582458412004669
 31
0.0
  0
LINE
  8
0
  6
CONTINUOUS
 62
               0
  5
2E
 10
124.24622068664556
 20
50.0
 30
0.0
 11
125.04622068664555
 21
50.799999999999997
 31
0.0
  0
LINE
  8
0
  6
CONTINUOUS
 62
               0
  5
2F
 10
126.04999968969727
 20
51.803779003051716
 30
0.0
 11
129.85828304001285
 21
55.612062353367293
 31
0.0
  0
LINE
  8
0
  6
CONTINUOUS
 62
               0
  5
30
 10
122.12490009559855
 20
50.0
 30
0.0
 11
122.92490009559855
 21
50.79999999999999
 31
0.0
  0
LINE
  8
0
  6
CONTINUOUS
 62
               0
  5
31
 10
126.04999968969727
 20
53.925099594098732
 30
0.0
 11
127.24244203670402
 21
55.117541941105479
 31
0.0
  0
ENDBLK
  8
0
  6
BYBLOCK
 62
               0
  5
32
  0
BLOCK
  8
0
  6
BYBLOCK
 62
               0
  5
210
  2
*X2
 70
               1
 10
0.0
 20
0.0
 30
0.0
  3
*X2
  0
LINE
  8
0
  6
CONTINUOUS
 62
               0
  5
211
 10
109.12490009559853
 20
37.0
 30
0.0
 11
109.99999968969726
 21
37.875099594098728
 31
0.0
  0
LINE
  8
0
  6
CONTINUOUS
 62
               0
  5
212
 10
107.00357950455151
 20
37.0
 30
0.0
 11
109.99999968969726
 21
39.996420185145752
 31
0.0
  0
LINE
  8
0
  6
CONTINUOUS
 62
               0
  5
213
 10
104.99999968969726
 20
37.117740776192768
 30
0.0
 11
109.18225891350448
 21
41.29999999999999
 31
0.0
  0
LINE
  8
0
  6
CONTINUOUS
 62
               0
  5
214
 10
104.99999968969726
 20
39.239061367239778
 30
0.0
 11
107.06093832245747
 21
41.29999999999999
 31
0.0
  0
LINE
  8
0
  6
CONTINUOUS
 62
               0
  5
215
 10
104.13961773141047
 20
40.499999999999993
 30
0.0
 11
105.94999968969725
 21
42.310381958286776
 31
0.0
  0
LINE
  8
0
  6
CONTINUOUS
 62
               0
  5
216
 10
102.01829714036344
 20
40.499999999999993
 30
0.0
 11
105.94999968969725
 21
44.431702549333792
 31
0.0
  0
LINE
  8
0
  6
CONTINUOUS
 62
               0
  5
217
 10
99.89697654931642
 20
40.499999999999993
 30
0.0
 11
100.69697654931642
 21
41.29999999999999
 31
0.0
  0
LINE
  8
0
  6
CONTINUOUS
 62
               0
  5
218
 10
102.04999968969727
 20
42.653023140380839
 30
0.0
 11
105.20845031096249
 21
45.811473761646056
 31
0.0
  0
LINE
  8
0
  6
CONTINUOUS
 62
               0
  5
219
 10
97.999999689697262
 20
40.724343731427844
 30
0.0
 11
98.575655958269408
 21
41.29999999999999
 31
0.0
  0
LINE
  8
0
  6
CONTINUOUS
 62
               0
  5
21A
 10
102.04999968969727
 20
44.774343731427855
 30
0.0
 11
102.98913886874855
 21
45.713482910479136
 31
0.0
  0
ENDBLK
  8
0
  6
BYBLOCK
 62
               0
  5
21B
  0
BLOCK
  8
0
  6
BYBLOCK
 62
               0
  5
2DA
  2
*X3
 70
               1
 10
0.0
 20
0.0
 30
0.0
  3
*X3
  0
LINE
  8
0
  6
CONTINUOUS
 62
               0
  5
2DB
 10
86.154335367222401
 20
31.0
 30
0.0
 11
87.999999689697262
 21
32.84566432247486
 31
0.0
  0
LINE
  8
0
  6
CONTINUOUS
 62
               0
  5
2DC
 10
84.999999689697262
 20
31.96698491352187
 30
0.0
 11
87.833014776175389
 21
34.799999999999997
 31
0.0
  0
LINE
  8
0
  6
CONTINUOUS
 62
               0
  5
2DD
 10
84.911694185128383
 20
34.0
 30
0.0
 11
85.949999689697279
 21
35.038305504568896
 31
0.0
  0
LINE
  8
0
  6
CONTINUOUS
 62
               0
  5
2DE
 10
82.790373594081359
 20
34.0
 30
0.0
 11
85.949999689697279
 21
37.159626095615913
 31
0.0
  0
LINE
  8
0
  6
CONTINUOUS
 62
               0
  5
2DF
 10
80.669053003034335
 20
34.0
 30
0.0
 11
81.469053003034333
 21
34.799999999999997
 31
0.0
  0
LINE
  8
0
  6
CONTINUOUS
 62
               0
  5
2E0
 10
82.049999689697273
 20
35.380946686662938
 30
0.0
 11
84.800769193730602
 21
38.13171619069626
 31
0.0
  0
LINE
  8
0
  6
CONTINUOUS
 62
               0
  5
2E1
 10
82.049999689697273
 20
37.50226727770994
 30
0.0
 11
82.835504704548001
 21
38.287772292560668
 31
0.0
  0
ENDBLK
  8
0
  6
BYBLOCK
 62
               0
  5
2E2
  0
BLOCK
  8
0
  6
BYBLOCK
 62
               0
  5
2E8
  2
*X4
 70
               1
 10
0.0
 20
0.0
 30
0.0
  3
*X4
  0
LINE
  8
0
  6
CONTINUOUS
 62
               0
  5
2E9
 10
70.790373594081359
 20
22.0
 30
0.0
 11
71.999999689697262
 21
23.209626095615903
 31
0.0
  0
LINE
  8
0
  6
CONTINUOUS
 62
               0
  5
2EA
 10
68.999999689697262
 20
22.330946686662923
 30
0.0
 11
71.999999689697262
 21
25.330946686662923
 31
0.0
  0
LINE
  8
0
  6
CONTINUOUS
 62
               0
  5
2EB
 10
68.999999689697262
 20
24.452267277709936
 30
0.0
 11
70.347732411987323
 21
25.799999999999997
 31
0.0
  0
LINE
  8
0
  6
CONTINUOUS
 62
               0
  5
2EC
 10
67.426411820940316
 20
25.000000000000004
 30
0.0
 11
69.949999689697279
 21
27.523587868756966
 31
0.0
  0
LINE
  8
0
  6
CONTINUOUS
 62
               0
  5
2ED
 10
65.305091229893307
 20
25.000000000000004
 30
0.0
 11
68.055712081095592
 21
27.750620851202292
 31
0.0
  0
LINE
  8
0
  6
CONTINUOUS
 62
               0
  5
2EE
 10
66.049999689697273
 20
27.866229050850993
 30
0.0
 11
66.453252847547759
 21
28.269482208701483
 31
0.0
  0
ENDBLK
  8
0
  6
BYBLOCK
 62
               0
  5
2EF
  0
BLOCK
  8
0
  6
BYBLOCK
 62
               0
  5
382
  2
*X5
 70
               1
 10
0.0
 20
0.0
 30
0.0
  3
*X5
  0
LINE
  8
0
  6
CONTINUOUS
 62
               0
  5
383
 10
55.683770638846291
 20
17.5
 30
0.0
 11
55.999999689697269
 21
17.816229050850978
 31
0.0
  0
LINE
  8
0
  6
CONTINUOUS
 62
               0
  5
384
 10
53.562450047799267
 20
17.5
 30
0.0
 11
55.999999689697269
 21
19.937549641898002
 31
0.0
  0
LINE
  8
0
  6
CONTINUOUS
 62
               0
  5
385
 10
52.999999689697269
 20
19.058870232945011
 30
0.0
 11
54.241129456752255
 21
20.299999999999997
 31
0.0
  0
LINE
  8
0
  6
CONTINUOUS
 62
               0
  5
386
 10
51.319808865705234
 20
19.5
 30
0.0
 11
53.727331936738452
 21
21.907523071033214
 31
0.0
  0
LINE
  8
0
  6
CONTINUOUS
 62
               0
  5
387
 10
49.198488274658217
 20
19.5
 30
0.0
 11
49.998488274658214
 21
20.299999999999997
 31
0.0
  0
LINE
  8
0
  6
CONTINUOUS
 62
               0
  5
388
 10
50.049999689697266
 20
20.351511415039045
 30
0.0
 11
51.298829801486235
 21
21.600341526828011
 31
0.0
  0
ENDBLK
  8
0
  6
BYBLOCK
 62
               0
  5
389
  0
BLOCK
  8
0
  6
BYBLOCK
 62
               0
  5
402
  2
*X6
 70
               1
 10
0.0
 20
0.0
 30
0.0
  3
*X6
  0
LINE
  8
0
  6
CONTINUOUS
 62
               0
  5
403
 10
39.698488274658217
 20
10.0
 30
0.0
 11
39.999999689697262
 21
10.301511415039045
 31
0.0
  0
LINE
  8
0
  6
CONTINUOUS
 62
               0
  5
404
 10
37.577167683611201
 20
10.0
 30
0.0
 11
39.999999689697262
 21
12.422832006086063
 31
0.0
  0
LINE
  8
0
  6
CONTINUOUS
 62
               0
  5
405
 10
36.999999689697262
 20
11.544152597133074
 30
0.0
 11
38.305847092564186
 21
12.849999999999998
 31
0.0
  0
LINE
  8
0
  6
CONTINUOUS
 62
               0
  5
406
 10
35.334526501517168
 20
12.0
 30
0.0
 11
37.871496918607896
 21
14.536970417090728
 31
0.0
  0
LINE
  8
0
  6
CONTINUOUS
 62
               0
  5
407
 10
33.213205910470158
 20
12.0
 30
0.0
 11
35.511413923211201
 21
14.298208012741039
 31
0.0
  0
ENDBLK
  8
0
  6
BYBLOCK
 62
               0
  5
408
  0
BLOCK
  8
0
  6
BYBLOCK
 62
               0
  5
45D
  2
*X7
 70
               1
 10
0.0
 20
0.0
 30
0.0
  3
*X7
  0
LINE
  8
0
  6
CONTINUOUS
 62
               0
  5
45E
 10
23.470564728376129
 20
6.5
 30
0.0
 11
23.999999689697265
 21
7.0294349613211375
 31
0.0
  0
LINE
  8
0
  6
CONTINUOUS
 62
               0
  5
45F
 10
21.349244137329116
 20
6.5
 30
0.0
 11
23.199244137329114
 21
8.3499999999999979
 31
0.0
  0
LINE
  8
0
  6
CONTINUOUS
 62
               0
  5
460
 10
20.727923546282096
 20
8.0
 30
0.0
 11
21.949999689697268
 21
9.2220761434151726
 31
0.0
  0
LINE
  8
0
  6
CONTINUOUS
 62
               0
  5
461
 10
18.606602955235083
 20
8.0
 30
0.0
 11
19.860498126911491
 21
9.2538951716764082
 31
0.0
  0
LINE
  8
0
  6
CONTINUOUS
 62
               0
  5
462
 10
16.485282364188066
 20
8.0
 30
0.0
 11
16.835282364188068
 21
8.3499999999999996
 31
0.0
  0
ENDBLK
  8
0
  6
BYBLOCK
 62
               0
  5
463
  0
BLOCK
  8
0
  6
BYBLOCK
 62
               0
  5
4D8
  2
*X8
 70
               1
 10
0.0
 20
0.0
 30
0.0
  3
*X8
  0
LINE
  8
0
  6
CONTINUOUS
 62
               0
  5
4D9
 10
7.7426411820940313
 20
3.5
 30
0.0
 11
7.9999996896972654
 21
3.7573585076032336
 31
0.0
  0
LINE
  8
0
  6
CONTINUOUS
 62
               0
  5
4DA
 10
5.6213205910470165
 20
3.5
 30
0.0
 11
7.9713205910470091
 21
5.8499999999999925
 31
0.0
  0
LINE
  8
0
  6
CONTINUOUS
 62
               0
  5
4DB
 10
4.9999996896972654
 20
4.9999996896972645
 30
0.0
 11
5.9499996896972682
 21
5.9499996896972664
 31
0.0
  0
LINE
  8
0
  6
CONTINUOUS
 62
               0
  5
4DC
 10
2.8786794089529804
 20
4.9999999999999947
 30
0.0
 11
5.8022891119381033
 21
7.9236097029851171
 31
0.0
  0
LINE
  8
0
  6
CONTINUOUS
 62
               0
  5
4DD
 10
0.7573588179059649
 20
4.9999999999999947
 30
0.0
 11
1.6073588179059648
 21
5.8499999999999943
 31
0.0
  0
LINE
  8
0
  6
CONTINUOUS
 62
               0
  5
4DE
 10
2.049999689697263
 20
6.2926408717912921
 30
0.0
 11
3.4652252608916139
 21
7.7078664429856429
 31
0.0
  0
ENDBLK
  8
0
  6
BYBLOCK
 62
               0
  5
4DF
  0
ENDSEC
  0
SECTION
  2
ENTITIES
  0
TEXT
  8
LY_3
  6
CONTINUOUS
 62
             110
  5
25
 10
119.03260867647906
 20
-65.25
 30
0.0
 40
2.5
  1
VP2100-M
 41
0.9779999417377556
  7
MX_NOTE_STANDARD
 11
119.03260867647906
 21
-62.75
 31
0.0
 73
               3
  0
INSERT
  8
LY_3
  6
BYBLOCK
 62
             110
  5
33
  2
*X1
 10
0.0
 20
0.0
 30
0.0
  0
ARC
  8
LY_3
  6
CONTINUOUS
 62
               3
  5
34
 10
128.0
 20
-57.5
 30
0.0
 40
2.5
 50
38.739424597855589
 51
141.26057540214444
  0
LINE
  8
LY_3
  6
PHANTOM
 62
             110
  5
36
 10
127.80000299999999
 20
49.899999999999999
 30
0.0
 11
129.0
 21
49.899999999999999
 31
0.0
  0
LINE
  8
LY_3
  6
CONTINUOUS
 62
               3
  5
37
 10
125.80000299999999
 20
49.950000000000003
 30
0.0
 11
127.80000299999999
 21
49.950000000000003
 31
0.0
  0
LINE
  8
LY_3
  6
CONTINUOUS
 62
               3
  5
38
 10
125.80000299999999
 20
46.5
 30
0.0
 11
127.80000299999999
 21
46.5
 31
0.0
  0
ARC
  8
LY_3
  6
CONTINUOUS
 62
             110
  5
39
 10
128.17231799999999
 20
49.499983999999998
 30
0.0
 40
0.75
 50
334.983476
 51
25.016825000000011
  0
LINE
  8
LY_3
  6
CONTINUOUS
 62
             110
  5
3A
 10
128.851966
 20
48.317144999999996
 30
0.0
 11
128.34931399999999
 21
49.394261999999998
 31
0.0
  0
LINE
  8
LY_3
  6
CONTINUOUS
 62
             110
  5
3B
 10
128.34930199999999
 20
49.605699999999999
 30
0.0
 11
128.48664199999999
 21
49.899999999999999
 31
0.0
  0
LINE
  8
LY_3
  6
CONTINUOUS
 62
             110
  5
3C
 10
128.45062799999999
 20
48.105691999999998
 30
0.0
 11
127.947969
 21
49.182822000000002
 31
0.0
  0
LINE
  8
LY_3
  6
CONTINUOUS
 62
             110
  5
3D
 10
127.947975
 20
49.817140000000002
 30
0.0
 11
127.986643
 21
49.899999999999999
 31
0.0
  0
LINE
  8
LY_3
  6
CONTINUOUS
 62
             110
  5
3E
 10
127.947986
 20
48.317143999999999
 30
0.0
 11
128.14997499999998
 21
48.749979000000003
 31
0.0
  0
LINE
  8
LY_3
  6
CONTINUOUS
 62
             110
  5
3F
 10
128.64998
 20
48.749983999999998
 30
0.0
 11
128.85197499999998
 21
49.182831999999998
 31
0.0
  0
LINE
  8
LY_3
  6
CONTINUOUS
 62
             110
  5
40
 10
128.851966
 20
49.817137000000002
 30
0.0
 11
128.81329699999998
 21
49.899999999999999
 31
0.0
  0
CIRCLE
  8
LY_3
  6
CONTINUOUS
 62
             110
  5
41
 10
128.575852
 20
49.499977000000001
 30
0.0
 40
0.25
  0
CIRCLE
  8
LY_3
  6
CONTINUOUS
 62
             110
  5
42
 10
128.22409099999999
 20
47.999977000000001
 30
0.0
 40
0.25
  0
ARC
  8
LY_3
  6
CONTINUOUS
 62
             110
  5
43
 10
128.62760900000001
 20
49.499983999999998
 30
0.0
 40
0.75
 50
154.98319400000003
 51
205.01654300000001
  0
ARC
  8
LY_3
  6
CONTINUOUS
 62
             110
  5
44
 10
128.62762499999999
 20
47.999977000000001
 30
0.0
 40
0.75
 50
154.98331700000003
 51
205.01659699999999
  0
ARC
  8
LY_3
  6
CONTINUOUS
 62
             110
  5
45
 10
128.17231799999999
 20
47.999977000000001
 30
0.0
 40
0.75
 50
334.98342300000002
 51
25.0167
  0
ARC
  8
LY_3
  6
CONTINUOUS
 62
             110
  5
46
 10
128.17232999999999
 20
46.499986999999997
 30
0.0
 40
0.75
 50
334.983476
 51
25.016825000000011
  0
LINE
  8
LY_3
  6
CONTINUOUS
 62
             110
  5
47
 10
128.851978
 20
45.317148000000003
 30
0.0
 11
128.34932499999999
 21
46.394264
 31
0.0
  0
LINE
  8
LY_3
  6
CONTINUOUS
 62
             110
  5
48
 10
128.34931399999999
 20
46.605702999999998
 30
0.0
 11
128.851966
 21
47.68282
 31
0.0
  0
LINE
  8
LY_3
  6
CONTINUOUS
 62
             110
  5
49
 10
128.45063999999999
 20
45.105694999999997
 30
0.0
 11
127.947981
 21
46.182825000000001
 31
0.0
  0
LINE
  8
LY_3
  6
CONTINUOUS
 62
             110
  5
4A
 10
127.947987
 20
46.817143000000002
 30
0.0
 11
128.450639
 21
47.894260000000003
 31
0.0
  0
LINE
  8
LY_3
  6
CONTINUOUS
 62
             110
  5
4B
 10
127.947998
 20
45.317146000000001
 30
0.0
 11
128.14998700000001
 21
45.749980999999998
 31
0.0
  0
LINE
  8
LY_3
  6
CONTINUOUS
 62
             110
  5
4C
 10
128.649992
 20
45.749986
 30
0.0
 11
128.85198700000001
 21
46.182834999999997
 31
0.0
  0
LINE
  8
LY_3
  6
CONTINUOUS
 62
             110
  5
4D
 10
128.851978
 20
46.817140000000002
 30
0.0
 11
128.64998299999999
 21
47.249988999999999
 31
0.0
  0
CIRCLE
  8
LY_3
  6
CONTINUOUS
 62
             110
  5
4E
 10
128.575863
 20
46.499979000000003
 30
0.0
 40
0.25
  0
CIRCLE
  8
LY_3
  6
CONTINUOUS
 62
             110
  5
4F
 10
128.22410300000001
 20
44.999979000000003
 30
0.0
 40
0.25
  0
LINE
  8
LY_3
  6
CONTINUOUS
 62
             110
  5
50
 10
128.14998399999999
 20
47.249972999999997
 30
0.0
 11
127.947988
 21
47.682822000000002
 31
0.0
  0
ARC
  8
LY_3
  6
CONTINUOUS
 62
             110
  5
51
 10
128.62762099999998
 20
46.499986999999997
 30
0.0
 40
0.75
 50
154.98319400000003
 51
205.01654300000001
  0
ARC
  8
LY_3
  6
CONTINUOUS
 62
             110
  5
52
 10
128.62763699999999
 20
44.999979000000003
 30
0.0
 40
0.75
 50
154.98331700000003
 51
205.01659699999999
  0
ARC
  8
LY_3
  6
CONTINUOUS
 62
             110
  5
53
 10
128.17232999999999
 20
44.999979000000003
 30
0.0
 40
0.75
 50
334.98342300000002
 51
25.0167
  0
ARC
  8
LY_3
  6
CONTINUOUS
 62
             110
  5
54
 10
128.17234100000002
 20
43.499989999999997
 30
0.0
 40
0.75
 50
334.983476
 51
25.016825000000011
  0
LINE
  8
LY_3
  6
CONTINUOUS
 62
             110
  5
55
 10
128.851989
 20
42.317151000000003
 30
0.0
 11
128.34933699999999
 21
43.394266999999999
 31
0.0
  0
LINE
  8
LY_3
  6
CONTINUOUS
 62
             110
  5
56
 10
128.34932599999999
 20
43.605705999999998
 30
0.0
 11
128.851978
 21
44.682822000000002
 31
0.0
  0
LINE
  8
LY_3
  6
CONTINUOUS
 62
             110
  5
57
 10
128.45065199999999
 20
42.105696999999999
 30
0.0
 11
127.947993
 21
43.182828000000001
 31
0.0
  0
LINE
  8
LY_3
  6
CONTINUOUS
 62
             110
  5
58
 10
127.947999
 20
43.817146000000001
 30
0.0
 11
128.45065099999999
 21
44.894261999999998
 31
0.0
  0
LINE
  8
LY_3
  6
CONTINUOUS
 62
             110
  5
59
 10
127.94801
 20
42.317149000000001
 30
0.0
 11
128.14999899999998
 21
42.749983999999998
 31
0.0
  0
LINE
  8
LY_3
  6
CONTINUOUS
 62
             110
  5
5A
 10
128.650004
 20
42.749988999999999
 30
0.0
 11
128.85199899999998
 21
43.182837999999997
 31
0.0
  0
LINE
  8
LY_3
  6
CONTINUOUS
 62
             110
  5
5B
 10
128.85199
 20
43.817143000000002
 30
0.0
 11
128.64999499999999
 21
44.249991000000001
 31
0.0
  0
CIRCLE
  8
LY_3
  6
CONTINUOUS
 62
             110
  5
5C
 10
128.575875
 20
43.499982000000003
 30
0.0
 40
0.25
  0
CIRCLE
  8
LY_3
  6
CONTINUOUS
 62
             110
  5
5D
 10
128.22411499999998
 20
41.999982000000003
 30
0.0
 40
0.25
  0
LINE
  8
LY_3
  6
CONTINUOUS
 62
             110
  5
5E
 10
128.14999599999999
 20
44.249975999999997
 30
0.0
 11
127.94799999999999
 21
44.682825000000001
 31
0.0
  0
ARC
  8
LY_3
  6
CONTINUOUS
 62
             110
  5
5F
 10
128.627633
 20
43.499989999999997
 30
0.0
 40
0.75
 50
154.98319400000003
 51
205.01654300000001
  0
ARC
  8
LY_3
  6
CONTINUOUS
 62
             110
  5
60
 10
128.62764799999999
 20
41.999982000000003
 30
0.0
 40
0.75
 50
154.98331700000003
 51
205.01659699999999
  0
ARC
  8
LY_3
  6
CONTINUOUS
 62
             110
  5
61
 10
128.17234100000002
 20
41.999982000000003
 30
0.0
 40
0.75
 50
334.98342300000002
 51
25.0167
  0
ARC
  8
LY_3
  6
CONTINUOUS
 62
             110
  5
62
 10
128.17235299999999
 20
40.499993000000003
 30
0.0
 40
0.75
 50
334.983476
 51
25.016825000000011
  0
LINE
  8
LY_3
  6
CONTINUOUS
 62
             110
  5
63
 10
128.852001
 20
39.317152999999998
 30
0.0
 11
128.34934899999999
 21
40.394269999999999
 31
0.0
  0
LINE
  8
LY_3
  6
CONTINUOUS
 62
             110
  5
64
 10
128.34933799999999
 20
40.605708999999997
 30
0.0
 11
128.85199
 21
41.682825000000001
 31
0.0
  0
LINE
  8
LY_3
  6
CONTINUOUS
 62
             110
  5
65
 10
128.45066400000002
 20
39.105699999999999
 30
0.0
 11
127.94800499999999
 21
40.182830000000003
 31
0.0
  0
LINE
  8
LY_3
  6
CONTINUOUS
 62
             110
  5
66
 10
127.94801099999999
 20
40.817149000000001
 30
0.0
 11
128.45066299999999
 21
41.894264999999997
 31
0.0
  0
LINE
  8
LY_3
  6
CONTINUOUS
 62
             110
  5
67
 10
127.94802199999999
 20
39.317152
 30
0.0
 11
128.15001100000001
 21
39.749986999999997
 31
0.0
  0
LINE
  8
LY_3
  6
CONTINUOUS
 62
             110
  5
68
 10
128.65001599999999
 20
39.749991999999999
 30
0.0
 11
128.852011
 21
40.182841000000003
 31
0.0
  0
LINE
  8
LY_3
  6
CONTINUOUS
 62
             110
  5
69
 10
128.852002
 20
40.817144999999996
 30
0.0
 11
128.65000700000002
 21
41.249994000000001
 31
0.0
  0
CIRCLE
  8
LY_3
  6
CONTINUOUS
 62
             110
  5
6A
 10
128.57588699999999
 20
40.499985000000002
 30
0.0
 40
0.25
  0
CIRCLE
  8
LY_3
  6
CONTINUOUS
 62
             110
  5
6B
 10
128.22412600000001
 20
38.999985000000002
 30
0.0
 40
0.25
  0
LINE
  8
LY_3
  6
CONTINUOUS
 62
             110
  5
6C
 10
128.15000700000002
 20
41.249979000000003
 30
0.0
 11
127.94801199999999
 21
41.682827000000003
 31
0.0
  0
ARC
  8
LY_3
  6
CONTINUOUS
 62
             110
  5
6D
 10
128.627645
 20
40.499993000000003
 30
0.0
 40
0.75
 50
154.98319400000003
 51
205.01654300000001
  0
ARC
  8
LY_3
  6
CONTINUOUS
 62
             110
  5
6E
 10
128.62765999999999
 20
38.999985000000002
 30
0.0
 40
0.75
 50
154.98331700000003
 51
205.01659699999999
  0
ARC
  8
LY_3
  6
CONTINUOUS
 62
             110
  5
6F
 10
128.17235299999999
 20
38.999985000000002
 30
0.0
 40
0.75
 50
334.98342300000002
 51
25.0167
  0
ARC
  8
LY_3
  6
CONTINUOUS
 62
             110
  5
70
 10
128.627657
 20
37.499994999999998
 30
0.0
 40
0.75
 50
154.98319400000003
 51
205.01654300000001
  0
ARC
  8
LY_3
  6
CONTINUOUS
 62
             110
  5
71
 10
128.627657
 20
34.499988000000002
 30
0.0
 40
0.75
 50
154.98319400000003
 51
205.01678899999999
  0
ARC
  8
LY_3
  6
CONTINUOUS
 62
             110
  5
72
 10
128.62767199999999
 20
32.999994999999998
 30
0.0
 40
0.75
 50
154.98331700000003
 51
205.01671999999999
  0
ARC
  8
LY_3
  6
CONTINUOUS
 62
             110
  5
73
 10
128.62767199999999
 20
35.999988000000002
 30
0.0
 40
0.75
 50
154.98331700000003
 51
205.01659699999999
  0
LINE
  8
LY_3
  6
CONTINUOUS
 62
             110
  5
74
 10
128.15001899999999
 20
38.249980999999998
 30
0.0
 11
127.94802399999999
 21
38.682830000000003
 31
0.0
  0
CIRCLE
  8
LY_3
  6
CONTINUOUS
 62
             110
  5
75
 10
128.22413799999998
 20
35.999988000000002
 30
0.0
 40
0.25
  0
CIRCLE
  8
LY_3
  6
CONTINUOUS
 62
             110
  5
76
 10
128.22413799999998
 20
32.999988000000002
 30
0.0
 40
0.25
  0
CIRCLE
  8
LY_3
  6
CONTINUOUS
 62
             110
  5
77
 10
128.57589899999999
 20
37.499988000000002
 30
0.0
 40
0.25
  0
CIRCLE
  8
LY_3
  6
CONTINUOUS
 62
             110
  5
78
 10
128.57589899999999
 20
34.499988000000002
 30
0.0
 40
0.25
  0
LINE
  8
LY_3
  6
CONTINUOUS
 62
             110
  5
79
 10
128.852014
 20
37.817148000000003
 30
0.0
 11
128.65001899999999
 21
38.249997
 31
0.0
  0
LINE
  8
LY_3
  6
CONTINUOUS
 62
             110
  5
7A
 10
128.65002799999999
 20
36.749994999999998
 30
0.0
 11
128.852023
 21
37.182842999999998
 31
0.0
  0
LINE
  8
LY_3
  6
CONTINUOUS
 62
             110
  5
7B
 10
127.94803399999999
 20
36.317155
 30
0.0
 11
128.15002299999998
 21
36.749989999999997
 31
0.0
  0
LINE
  8
LY_3
  6
CONTINUOUS
 62
             110
  5
7C
 10
128.15000800000001
 20
35.249991000000001
 30
0.0
 11
127.948019
 21
35.682825999999999
 31
0.0
  0
LINE
  8
LY_3
  6
CONTINUOUS
 62
             110
  5
7D
 10
128.85199499999999
 20
34.817155999999997
 30
0.0
 11
128.65000700000002
 21
35.249991000000001
 31
0.0
  0
LINE
  8
LY_3
  6
CONTINUOUS
 62
             110
  5
7E
 10
128.65001999999998
 20
33.749980999999998
 30
0.0
 11
128.85200800000001
 21
34.182816000000003
 31
0.0
  0
LINE
  8
LY_3
  6
CONTINUOUS
 62
             110
  5
7F
 10
127.94803899999999
 20
33.317160999999999
 30
0.0
 11
128.15003100000001
 21
33.750002000000002
 31
0.0
  0
LINE
  8
LY_3
  6
CONTINUOUS
 62
             110
  5
80
 10
127.94802299999999
 20
37.817151000000003
 30
0.0
 11
128.45067499999999
 21
38.894267999999997
 31
0.0
  0
LINE
  8
LY_3
  6
CONTINUOUS
 62
             110
  5
81
 10
128.45067599999999
 20
36.105702999999998
 30
0.0
 11
127.94801699999999
 21
37.182833000000002
 31
0.0
  0
LINE
  8
LY_3
  6
CONTINUOUS
 62
             110
  5
82
 10
127.94803499999999
 20
34.817154000000002
 30
0.0
 11
128.45068700000002
 21
35.894271000000003
 31
0.0
  0
LINE
  8
LY_3
  6
CONTINUOUS
 62
             110
  5
83
 10
128.45067699999998
 20
33.105704000000003
 30
0.0
 11
127.948025
 21
34.18282
 31
0.0
  0
LINE
  8
LY_3
  6
CONTINUOUS
 62
             110
  5
84
 10
128.34935000000002
 20
37.605710999999999
 30
0.0
 11
128.852002
 21
38.682828000000001
 31
0.0
  0
LINE
  8
LY_3
  6
CONTINUOUS
 62
             110
  5
85
 10
128.852013
 20
36.317155999999997
 30
0.0
 11
128.34936099999999
 21
37.394272999999998
 31
0.0
  0
LINE
  8
LY_3
  6
CONTINUOUS
 62
             110
  5
86
 10
128.34936199999999
 20
34.605713999999999
 30
0.0
 11
128.852014
 21
35.682831
 31
0.0
  0
LINE
  8
LY_3
  6
CONTINUOUS
 62
             110
  5
87
 10
128.85199799999998
 20
33.317157000000002
 30
0.0
 11
128.34934899999999
 21
34.394266999999999
 31
0.0
  0
ARC
  8
LY_3
  6
CONTINUOUS
 62
             110
  5
88
 10
128.17236500000001
 20
37.499994999999998
 30
0.0
 40
0.75
 50
334.983476
 51
25.016825000000011
  0
ARC
  8
LY_3
  6
CONTINUOUS
 62
             110
  5
89
 10
128.17236500000001
 20
34.499988000000002
 30
0.0
 40
0.75
 50
334.98322999999999
 51
25.016825000000011
  0
ARC
  8
LY_3
  6
CONTINUOUS
 62
             110
  5
8A
 10
128.17236500000001
 20
32.999994999999998
 30
0.0
 40
0.75
 50
334.98329999999999
 51
25.0167
  0
ARC
  8
LY_3
  6
CONTINUOUS
 62
             110
  5
8B
 10
128.17236500000001
 20
35.999988000000002
 30
0.0
 40
0.75
 50
334.98342300000002
 51
25.0167
  0
LINE
  8
LY_3
  6
CONTINUOUS
 62
             110
  5
8C
 10
128.85198800000001
 20
24.317160000000001
 30
0.0
 11
128.34933899999999
 21
25.394269000000001
 31
0.0
  0
LINE
  8
LY_3
  6
CONTINUOUS
 62
             110
  5
8D
 10
128.34935200000001
 20
25.605716000000001
 30
0.0
 11
128.85200399999999
 21
26.682832999999999
 31
0.0
  0
LINE
  8
LY_3
  6
CONTINUOUS
 62
             110
  5
8E
 10
128.85200399999999
 20
27.317159
 30
0.0
 11
128.34935200000001
 21
28.394275
 31
0.0
  0
LINE
  8
LY_3
  6
CONTINUOUS
 62
             110
  5
8F
 10
128.34933999999998
 20
28.605713999999999
 30
0.0
 11
128.85199299999999
 21
29.682829999999999
 31
0.0
  0
LINE
  8
LY_3
  6
CONTINUOUS
 62
             110
  5
90
 10
128.45066800000001
 20
24.105706000000001
 30
0.0
 11
127.948016
 21
25.182822000000002
 31
0.0
  0
LINE
  8
LY_3
  6
CONTINUOUS
 62
             110
  5
91
 10
127.948025
 20
25.817156000000001
 30
0.0
 11
128.45067699999998
 21
26.894272999999998
 31
0.0
  0
LINE
  8
LY_3
  6
CONTINUOUS
 62
             110
  5
92
 10
128.45066600000001
 20
27.105705
 30
0.0
 11
127.94800699999999
 21
28.182836000000002
 31
0.0
  0
LINE
  8
LY_3
  6
CONTINUOUS
 62
             110
  5
93
 10
127.948013
 20
28.817153999999999
 30
0.0
 11
128.45066500000001
 21
29.894269999999999
 31
0.0
  0
LINE
  8
LY_3
  6
CONTINUOUS
 62
             110
  5
94
 10
127.94802899999999
 20
24.317163000000001
 30
0.0
 11
128.15002099999998
 21
24.750005000000002
 31
0.0
  0
LINE
  8
LY_3
  6
CONTINUOUS
 62
             110
  5
95
 10
128.65001000000001
 20
24.749984000000001
 30
0.0
 11
128.85199899999998
 21
25.182818999999999
 31
0.0
  0
LINE
  8
LY_3
  6
CONTINUOUS
 62
             110
  5
96
 10
128.85198600000001
 20
25.817159
 30
0.0
 11
128.64999699999998
 21
26.249994000000001
 31
0.0
  0
LINE
  8
LY_3
  6
CONTINUOUS
 62
             110
  5
97
 10
128.14999899999998
 20
26.249993
 30
0.0
 11
127.94801
 21
26.682828000000001
 31
0.0
  0
LINE
  8
LY_3
  6
CONTINUOUS
 62
             110
  5
98
 10
127.94802399999999
 20
27.317157000000002
 30
0.0
 11
128.150013
 21
27.749991999999999
 31
0.0
  0
LINE
  8
LY_3
  6
CONTINUOUS
 62
             110
  5
99
 10
128.65001799999999
 20
27.749997
 30
0.0
 11
128.852013
 21
28.182846000000001
 31
0.0
  0
LINE
  8
LY_3
  6
CONTINUOUS
 62
             110
  5
9A
 10
128.85200399999999
 20
28.817150999999999
 30
0.0
 11
128.65000900000001
 21
29.249998999999999
 31
0.0
  0
CIRCLE
  8
LY_3
  6
CONTINUOUS
 62
             110
  5
9B
 10
128.57589000000002
 20
25.49999
 30
0.0
 40
0.25
  0
CIRCLE
  8
LY_3
  6
CONTINUOUS
 62
             110
  5
9C
 10
128.57589000000002
 20
28.49999
 30
0.0
 40
0.25
  0
CIRCLE
  8
LY_3
  6
CONTINUOUS
 62
             110
  5
9D
 10
128.224129
 20
23.99999
 30
0.0
 40
0.25
  0
CIRCLE
  8
LY_3
  6
CONTINUOUS
 62
             110
  5
9E
 10
128.224129
 20
26.99999
 30
0.0
 40
0.25
  0
LINE
  8
LY_3
  6
CONTINUOUS
 62
             110
  5
9F
 10
128.15001000000001
 20
29.249984000000001
 30
0.0
 11
127.948015
 21
29.682832999999999
 31
0.0
  0
CIRCLE
  8
LY_3
  6
CONTINUOUS
 62
             110
  5
A0
 10
128.22412600000001
 20
29.999983
 30
0.0
 40
0.25
  0
CIRCLE
  8
LY_3
  6
CONTINUOUS
 62
             110
  5
A1
 10
128.57588699999999
 20
31.499991000000001
 30
0.0
 40
0.25
  0
LINE
  8
LY_3
  6
CONTINUOUS
 62
             110
  5
A2
 10
127.948013
 20
32.682822999999999
 30
0.0
 11
128.15000800000001
 21
32.249974999999999
 31
0.0
  0
LINE
  8
LY_3
  6
CONTINUOUS
 62
             110
  5
A3
 10
128.85199499999999
 20
31.817139999999998
 30
0.0
 11
128.650003
 21
32.249982000000003
 31
0.0
  0
LINE
  8
LY_3
  6
CONTINUOUS
 62
             110
  5
A4
 10
127.94801799999999
 20
30.317160000000001
 30
0.0
 11
128.150004
 21
30.749987999999998
 31
0.0
  0
LINE
  8
LY_3
  6
CONTINUOUS
 62
             110
  5
A5
 10
128.65000599999999
 20
30.749994000000001
 30
0.0
 11
128.85199399999999
 21
31.182829000000002
 31
0.0
  0
LINE
  8
LY_3
  6
CONTINUOUS
 62
             110
  5
A6
 10
127.948021
 20
31.817150000000002
 30
0.0
 11
128.45067299999999
 21
32.894266999999999
 31
0.0
  0
LINE
  8
LY_3
  6
CONTINUOUS
 62
             110
  5
A7
 10
128.450671
 20
30.105701
 30
0.0
 11
127.948015
 21
31.182825000000001
 31
0.0
  0
LINE
  8
LY_3
  6
CONTINUOUS
 62
             110
  5
A8
 10
128.85200399999999
 20
32.682834
 30
0.0
 11
128.34935100000001
 21
31.605716999999999
 31
0.0
  0
LINE
  8
LY_3
  6
CONTINUOUS
 62
             110
  5
A9
 10
128.851991
 20
30.317155
 30
0.0
 11
128.36420299999997
 21
31.36242
 31
0.0
  0
ARC
  8
LY_3
  6
CONTINUOUS
 62
             110
  5
AA
 10
128.627645
 20
31.499983
 30
0.0
 40
0.75
 50
154.98319400000003
 51
205.01678899999999
  0
ARC
  8
LY_3
  6
CONTINUOUS
 62
             110
  5
AB
 10
128.62765999999999
 20
29.999991000000001
 30
0.0
 40
0.75
 50
154.98331700000003
 51
205.01659699999999
  0
ARC
  8
LY_3
  6
CONTINUOUS
 62
             110
  5
AC
 10
128.17235299999999
 20
31.499983
 30
0.0
 40
0.75
 50
334.98322999999999
 51
25.016825000000011
  0
ARC
  8
LY_3
  6
CONTINUOUS
 62
             110
  5
AD
 10
128.17235299999999
 20
29.999991000000001
 30
0.0
 40
0.75
 50
334.98342300000002
 51
25.0167
  0
ARC
  8
LY_3
  6
CONTINUOUS
 62
             110
  5
AE
 10
128.17235599999998
 20
28.499998000000001
 30
0.0
 40
0.75
 50
334.983476
 51
25.016825000000011
  0
ARC
  8
LY_3
  6
CONTINUOUS
 62
             110
  5
AF
 10
128.62766299999998
 20
26.99999
 30
0.0
 40
0.75
 50
154.98331700000003
 51
205.01659699999999
  0
ARC
  8
LY_3
  6
CONTINUOUS
 62
             110
  5
B0
 10
128.17235599999998
 20
25.49999
 30
0.0
 40
0.75
 50
334.98322999999999
 51
25.016825000000011
  0
ARC
  8
LY_3
  6
CONTINUOUS
 62
             110
  5
B1
 10
128.62766299999998
 20
23.999998000000001
 30
0.0
 40
0.75
 50
154.98331700000003
 51
205.01671999999999
  0
ARC
  8
LY_3
  6
CONTINUOUS
 62
             110
  5
B2
 10
128.17235599999998
 20
23.999998000000001
 30
0.0
 40
0.75
 50
334.98329999999999
 51
25.0167
  0
ARC
  8
LY_3
  6
CONTINUOUS
 62
             110
  5
B3
 10
128.17235599999998
 20
26.99999
 30
0.0
 40
0.75
 50
334.98342300000002
 51
25.0167
  0
ARC
  8
LY_3
  6
CONTINUOUS
 62
             110
  5
B4
 10
128.627647
 20
25.49999
 30
0.0
 40
0.75
 50
154.98319400000003
 51
205.01678899999999
  0
ARC
  8
LY_3
  6
CONTINUOUS
 62
             110
  5
B5
 10
128.627647
 20
28.499998000000001
 30
0.0
 40
0.75
 50
154.98319400000003
 51
205.01654300000001
  0
LINE
  8
LY_3
  6
CONTINUOUS
 62
             110
  5
B6
 10
128.85198299999999
 20
18.317164999999999
 30
0.0
 11
128.364195
 21
19.36243
 31
0.0
  0
LINE
  8
LY_3
  6
CONTINUOUS
 62
             110
  5
B7
 10
128.85199599999999
 20
20.682842999999998
 30
0.0
 11
128.34934299999998
 21
19.605727000000002
 31
0.0
  0
LINE
  8
LY_3
  6
CONTINUOUS
 62
             110
  5
B8
 10
128.851978
 20
21.317163000000001
 30
0.0
 11
128.34932900000001
 21
22.394272000000001
 31
0.0
  0
LINE
  8
LY_3
  6
CONTINUOUS
 62
             110
  5
B9
 10
128.34934199999998
 20
22.605719000000001
 30
0.0
 11
128.85199399999999
 21
23.682836000000002
 31
0.0
  0
LINE
  8
LY_3
  6
CONTINUOUS
 62
             110
  5
BA
 10
128.45066299999999
 20
18.105710999999999
 30
0.0
 11
127.94800699999999
 21
19.182834
 31
0.0
  0
LINE
  8
LY_3
  6
CONTINUOUS
 62
             110
  5
BB
 10
127.948013
 20
19.817160000000001
 30
0.0
 11
128.45066500000001
 21
20.894276999999999
 31
0.0
  0
LINE
  8
LY_3
  6
CONTINUOUS
 62
             110
  5
BC
 10
128.45065799999998
 20
21.105709000000001
 30
0.0
 11
127.94800499999999
 21
22.182825000000001
 31
0.0
  0
LINE
  8
LY_3
  6
CONTINUOUS
 62
             110
  5
BD
 10
127.948015
 20
22.817159
 30
0.0
 11
128.45066700000001
 21
23.894276000000001
 31
0.0
  0
LINE
  8
LY_3
  6
CONTINUOUS
 62
             110
  5
BE
 10
128.64999799999998
 20
18.750004000000001
 30
0.0
 11
128.85198600000001
 21
19.182839000000001
 31
0.0
  0
LINE
  8
LY_3
  6
CONTINUOUS
 62
             110
  5
BF
 10
127.94801
 20
18.317170000000001
 30
0.0
 11
128.14999599999999
 21
18.749998000000001
 31
0.0
  0
LINE
  8
LY_3
  6
CONTINUOUS
 62
             110
  5
C0
 10
128.85198700000001
 20
19.817150000000002
 30
0.0
 11
128.64999499999999
 21
20.249991999999999
 31
0.0
  0
LINE
  8
LY_3
  6
CONTINUOUS
 62
             110
  5
C1
 10
127.94800499999999
 20
20.682832999999999
 30
0.0
 11
128.14999999999998
 21
20.249984999999999
 31
0.0
  0
LINE
  8
LY_3
  6
CONTINUOUS
 62
             110
  5
C2
 10
127.948019
 20
21.317166
 30
0.0
 11
128.15001100000001
 21
21.750008000000001
 31
0.0
  0
LINE
  8
LY_3
  6
CONTINUOUS
 62
             110
  5
C3
 10
128.64999999999998
 20
21.749987000000001
 30
0.0
 11
128.851989
 21
22.182822000000002
 31
0.0
  0
LINE
  8
LY_3
  6
CONTINUOUS
 62
             110
  5
C4
 10
128.85197599999998
 20
22.817160999999999
 30
0.0
 11
128.64998700000001
 21
23.249995999999999
 31
0.0
  0
LINE
  8
LY_3
  6
CONTINUOUS
 62
             110
  5
C5
 10
128.14998800000001
 20
23.249995999999999
 30
0.0
 11
127.94799999999999
 21
23.682831
 31
0.0
  0
CIRCLE
  8
LY_3
  6
CONTINUOUS
 62
             110
  5
C6
 10
128.57587899999999
 20
19.500001000000001
 30
0.0
 40
0.25
  0
CIRCLE
  8
LY_3
  6
CONTINUOUS
 62
             110
  5
C7
 10
128.57587899999999
 20
22.499993
 30
0.0
 40
0.25
  0
CIRCLE
  8
LY_3
  6
CONTINUOUS
 62
             110
  5
C8
 10
128.22411799999998
 20
17.999993
 30
0.0
 40
0.25
  0
CIRCLE
  8
LY_3
  6
CONTINUOUS
 62
             110
  5
C9
 10
128.22411799999998
 20
20.999993
 30
0.0
 40
0.25
  0
ARC
  8
LY_3
  6
CONTINUOUS
 62
             110
  5
CA
 10
128.62763699999999
 20
22.499993
 30
0.0
 40
0.75
 50
154.98319400000003
 51
205.01678899999999
  0
ARC
  8
LY_3
  6
CONTINUOUS
 62
             110
  5
CB
 10
128.62763699999999
 20
19.499993
 30
0.0
 40
0.75
 50
154.98319400000003
 51
205.01678899999999
  0
ARC
  8
LY_3
  6
CONTINUOUS
 62
             110
  5
CC
 10
128.62765200000001
 20
18.000001000000001
 30
0.0
 40
0.75
 50
154.98331700000003
 51
205.01659699999999
  0
ARC
  8
LY_3
  6
CONTINUOUS
 62
             110
  5
CD
 10
128.62765200000001
 20
21.000001000000001
 30
0.0
 40
0.75
 50
154.98331700000003
 51
205.01671999999999
  0
ARC
  8
LY_3
  6
CONTINUOUS
 62
             110
  5
CE
 10
128.17234500000001
 20
22.499993
 30
0.0
 40
0.75
 50
334.98322999999999
 51
25.016825000000011
  0
ARC
  8
LY_3
  6
CONTINUOUS
 62
             110
  5
CF
 10
128.17234500000001
 20
19.499993
 30
0.0
 40
0.75
 50
334.98322999999999
 51
25.016825000000011
  0
ARC
  8
LY_3
  6
CONTINUOUS
 62
             110
  5
D0
 10
128.17234500000001
 20
18.000001000000001
 30
0.0
 40
0.75
 50
334.98342300000002
 51
25.0167
  0
ARC
  8
LY_3
  6
CONTINUOUS
 62
             110
  5
D1
 10
128.17234500000001
 20
21.000001000000001
 30
0.0
 40
0.75
 50
334.98329999999999
 51
25.0167
  0
LINE
  8
LY_3
  6
CONTINUOUS
 62
             110
  5
D2
 10
128.150002
 20
17.249994000000001
 30
0.0
 11
127.94800699999999
 21
17.682842999999998
 31
0.0
  0
LINE
  8
LY_3
  6
CONTINUOUS
 62
               3
  5
D3
 10
126.05
 20
50.799999999999997
 30
0.0
 11
126.05
 21
55.935551215283802
 31
0.0
  0
LINE
  8
LY_3
  6
CONTINUOUS
 62
               3
  5
D4
 10
129.94999999999999
 20
50.799999999999997
 30
0.0
 11
129.94999999999999
 21
55.935551215283802
 31
0.0
  0
ARC
  8
LY_3
  6
CONTINUOUS
 62
             110
  5
D5
 10
128.172348
 20
16.500008000000001
 30
0.0
 40
0.75
 50
334.983476
 51
25.016825000000011
  0
ARC
  8
LY_3
  6
CONTINUOUS
 62
             110
  5
D6
 10
128.627655
 20
15.0
 30
0.0
 40
0.75
 50
154.98331700000003
 51
205.01659699999999
  0
ARC
  8
LY_3
  6
CONTINUOUS
 62
             110
  5
D7
 10
128.172348
 20
13.5
 30
0.0
 40
0.75
 50
334.98322999999999
 51
25.016825000000011
  0
ARC
  8
LY_3
  6
CONTINUOUS
 62
             110
  5
D8
 10
128.627655
 20
12.000007999999999
 30
0.0
 40
0.75
 50
154.98331700000003
 51
205.01671999999999
  0
ARC
  8
LY_3
  6
CONTINUOUS
 62
             110
  5
D9
 10
128.172348
 20
10.5
 30
0.0
 40
0.75
 50
334.98322999999999
 51
25.016825000000011
  0
ARC
  8
LY_3
  6
CONTINUOUS
 62
             110
  5
DA
 10
128.627655
 20
9.0000079999999993
 30
0.0
 40
0.75
 50
154.98331700000003
 51
205.01659699999999
  0
ARC
  8
LY_3
  6
CONTINUOUS
 62
             110
  5
DB
 10
128.172348
 20
7.5
 30
0.0
 40
0.75
 50
334.98335300000002
 51
25.016702000000009
  0
ARC
  8
LY_3
  6
CONTINUOUS
 62
             110
  5
DC
 10
128.627655
 20
6.0
 30
0.0
 40
0.75
 50
154.98331700000003
 51
205.01671999999999
  0
ARC
  8
LY_3
  6
CONTINUOUS
 62
             110
  5
DD
 10
128.172348
 20
4.5000080000000002
 30
0.0
 40
0.75
 50
334.983476
 51
25.016825000000011
  0
ARC
  8
LY_3
  6
CONTINUOUS
 62
             110
  5
DE
 10
128.627655
 20
3.0
 30
0.0
 40
0.75
 50
154.98331700000003
 51
205.01659699999999
  0
ARC
  8
LY_3
  6
CONTINUOUS
 62
             110
  5
DF
 10
128.172348
 20
1.5
 30
0.0
 40
0.75
 50
334.98322999999999
 51
25.016825000000011
  0
ARC
  8
LY_3
  6
CONTINUOUS
 62
             110
  5
E0
 10
128.627655
 20
0.000008
 30
0.0
 40
0.75
 50
154.98331700000003
 51
180.00059200000001
  0
ARC
  8
LY_3
  6
CONTINUOUS
 62
             110
  5
E1
 10
128.172348
 20
0.000008
 30
0.0
 40
0.75
 50
359.99941699999999
 51
25.0167
  0
ARC
  8
LY_3
  6
CONTINUOUS
 62
             110
  5
E2
 10
128.62763899999999
 20
1.5
 30
0.0
 40
0.75
 50
154.98319400000003
 51
205.01678899999999
  0
ARC
  8
LY_3
  6
CONTINUOUS
 62
             110
  5
E3
 10
128.172348
 20
3.0
 30
0.0
 40
0.75
 50
334.98342300000002
 51
25.0167
  0
ARC
  8
LY_3
  6
CONTINUOUS
 62
             110
  5
E4
 10
128.62763899999999
 20
4.5000080000000002
 30
0.0
 40
0.75
 50
154.98319400000003
 51
205.01654300000001
  0
ARC
  8
LY_3
  6
CONTINUOUS
 62
             110
  5
E5
 10
128.172348
 20
6.0
 30
0.0
 40
0.75
 50
334.98329999999999
 51
25.0167
  0
ARC
  8
LY_3
  6
CONTINUOUS
 62
             110
  5
E6
 10
128.627655
 20
7.5
 30
0.0
 40
0.75
 50
154.98331700000003
 51
205.01666599999999
  0
ARC
  8
LY_3
  6
CONTINUOUS
 62
             110
  5
E7
 10
128.172348
 20
9.0000079999999993
 30
0.0
 40
0.75
 50
334.98342300000002
 51
25.0167
  0
ARC
  8
LY_3
  6
CONTINUOUS
 62
             110
  5
E8
 10
128.62763899999999
 20
10.5
 30
0.0
 40
0.75
 50
154.98319400000003
 51
205.01678899999999
  0
ARC
  8
LY_3
  6
CONTINUOUS
 62
             110
  5
E9
 10
128.172348
 20
12.000007999999999
 30
0.0
 40
0.75
 50
334.98329999999999
 51
25.0167
  0
ARC
  8
LY_3
  6
CONTINUOUS
 62
             110
  5
EA
 10
128.172348
 20
15.0
 30
0.0
 40
0.75
 50
334.98342300000002
 51
25.0167
  0
ARC
  8
LY_3
  6
CONTINUOUS
 62
             110
  5
EB
 10
128.62763899999999
 20
13.5
 30
0.0
 40
0.75
 50
154.98319400000003
 51
205.01678899999999
  0
ARC
  8
LY_3
  6
CONTINUOUS
 62
             110
  5
EC
 10
128.62763899999999
 20
16.500008000000001
 30
0.0
 40
0.75
 50
154.98319400000003
 51
205.01654300000001
  0
ARC
  8
LY_3
  6
CONTINUOUS
 62
             110
  5
ED
 10
128.224121
 20
0.0
 30
0.0
 40
0.25
 50
0.0
 51
181.050884
  0
CIRCLE
  8
LY_3
  6
CONTINUOUS
 62
             110
  5
EE
 10
128.224121
 20
15.0
 30
0.0
 40
0.25
  0
CIRCLE
  8
LY_3
  6
CONTINUOUS
 62
             110
  5
EF
 10
128.224121
 20
12.0
 30
0.0
 40
0.25
  0
CIRCLE
  8
LY_3
  6
CONTINUOUS
 62
             110
  5
F0
 10
128.224121
 20
9.0
 30
0.0
 40
0.25
  0
CIRCLE
  8
LY_3
  6
CONTINUOUS
 62
             110
  5
F1
 10
128.22410600000001
 20
6.0000080000000002
 30
0.0
 40
0.25
  0
CIRCLE
  8
LY_3
  6
CONTINUOUS
 62
             110
  5
F2
 10
128.224121
 20
3.0
 30
0.0
 40
0.25
  0
CIRCLE
  8
LY_3
  6
CONTINUOUS
 62
             110
  5
F3
 10
128.57588199999998
 20
16.5
 30
0.0
 40
0.25
  0
CIRCLE
  8
LY_3
  6
CONTINUOUS
 62
             110
  5
F4
 10
128.57588199999998
 20
13.5
 30
0.0
 40
0.25
  0
CIRCLE
  8
LY_3
  6
CONTINUOUS
 62
             110
  5
F5
 10
128.57588199999998
 20
10.500007999999999
 30
0.0
 40
0.25
  0
CIRCLE
  8
LY_3
  6
CONTINUOUS
 62
             110
  5
F6
 10
128.57588199999998
 20
7.5000080000000002
 30
0.0
 40
0.25
  0
CIRCLE
  8
LY_3
  6
CONTINUOUS
 62
             110
  5
F7
 10
128.57588199999998
 20
4.5
 30
0.0
 40
0.25
  0
CIRCLE
  8
LY_3
  6
CONTINUOUS
 62
             110
  5
F8
 10
128.57588199999998
 20
1.5
 30
0.0
 40
0.25
  0
ARC
  8
LY_3
  6
CONTINUOUS
 62
               3
  5
F9
 10
128.0
 20
57.5
 30
0.0
 40
2.5
 50
218.73942459785559
 51
321.26057540214441
  0
LINE
  8
LY_3
  6
CENTER
 62
             110
  5
FB
 10
119.975465
 20
0.0
 30
0.0
 11
135.222915
 21
0.0
 31
0.0
  0
LINE
  8
LY_3
  6
CONTINUOUS
 62
             110
  5
FC
 10
128.85199599999999
 20
16.817160000000001
 30
0.0
 11
128.650001
 21
17.250008999999999
 31
0.0
  0
LINE
  8
LY_3
  6
CONTINUOUS
 62
             110
  5
FD
 10
128.65001000000001
 20
15.750007
 30
0.0
 11
128.85200499999999
 21
16.182856000000001
 31
0.0
  0
LINE
  8
LY_3
  6
CONTINUOUS
 62
             110
  5
FE
 10
127.948016
 20
15.317167
 30
0.0
 11
128.15000499999999
 21
15.750002
 31
0.0
  0
LINE
  8
LY_3
  6
CONTINUOUS
 62
             110
  5
FF
 10
128.149991
 20
14.250003
 30
0.0
 11
127.948002
 21
14.682838
 31
0.0
  0
LINE
  8
LY_3
  6
CONTINUOUS
 62
             110
  5
100
 10
128.851978
 20
13.817169
 30
0.0
 11
128.64998900000001
 21
14.250003
 31
0.0
  0
LINE
  8
LY_3
  6
CONTINUOUS
 62
             110
  5
101
 10
128.650002
 20
12.749993999999999
 30
0.0
 11
128.851991
 21
13.182829
 31
0.0
  0
LINE
  8
LY_3
  6
CONTINUOUS
 62
             110
  5
102
 10
127.948021
 20
12.317173
 30
0.0
 11
128.150013
 21
12.750014999999999
 31
0.0
  0
LINE
  8
LY_3
  6
CONTINUOUS
 62
             110
  5
103
 10
127.94800699999999
 20
11.682840000000001
 30
0.0
 11
128.150002
 21
11.249992000000001
 31
0.0
  0
LINE
  8
LY_3
  6
CONTINUOUS
 62
             110
  5
104
 10
128.851989
 20
10.817157
 30
0.0
 11
128.64999699999998
 21
11.249999000000001
 31
0.0
  0
LINE
  8
LY_3
  6
CONTINUOUS
 62
             110
  5
105
 10
127.948013
 20
9.3171769999999992
 30
0.0
 11
128.14999799999998
 21
9.7500049999999998
 31
0.0
  0
LINE
  8
LY_3
  6
CONTINUOUS
 62
             110
  5
106
 10
128.64999999999998
 20
9.7500110000000006
 30
0.0
 11
128.851989
 21
10.182846
 31
0.0
  0
LINE
  8
LY_3
  6
CONTINUOUS
 62
             110
  5
107
 10
128.150004
 20
8.2500009999999993
 30
0.0
 11
127.948009
 21
8.6828500000000002
 31
0.0
  0
LINE
  8
LY_3
  6
CONTINUOUS
 62
             110
  5
108
 10
128.85199499999999
 20
7.8171590000000002
 30
0.0
 11
128.654269
 21
8.2408599999999996
 31
0.0
  0
LINE
  8
LY_3
  6
CONTINUOUS
 62
             110
  5
109
 10
128.649992
 20
6.7500070000000001
 30
0.0
 11
128.85198
 21
7.1828419999999999
 31
0.0
  0
LINE
  8
LY_3
  6
CONTINUOUS
 62
             110
  5
10A
 10
127.948004
 20
6.3171720000000002
 30
0.0
 11
128.14999299999999
 21
6.7500070000000001
 31
0.0
  0
LINE
  8
LY_3
  6
CONTINUOUS
 62
             110
  5
10B
 10
128.85199
 20
4.8171739999999996
 30
0.0
 11
128.650001
 21
5.2500090000000004
 31
0.0
  0
LINE
  8
LY_3
  6
CONTINUOUS
 62
             110
  5
10C
 10
128.14999
 20
5.2500030000000004
 30
0.0
 11
127.948002
 21
5.6828380000000003
 31
0.0
  0
LINE
  8
LY_3
  6
CONTINUOUS
 62
             110
  5
10D
 10
128.65000700000002
 20
3.7500079999999998
 30
0.0
 11
128.85199899999998
 21
4.1828500000000002
 31
0.0
  0
LINE
  8
LY_3
  6
CONTINUOUS
 62
             110
  5
10E
 10
127.948013
 20
3.3171590000000002
 30
0.0
 11
128.150002
 21
3.749994
 31
0.0
  0
LINE
  8
LY_3
  6
CONTINUOUS
 62
             110
  5
10F
 10
128.85198400000002
 20
1.8171630000000001
 30
0.0
 11
128.64999599999999
 21
2.2499980000000002
 31
0.0
  0
LINE
  8
LY_3
  6
CONTINUOUS
 62
             110
  5
110
 10
128.14999699999998
 20
2.249997
 30
0.0
 11
127.94800499999999
 21
2.682839
 31
0.0
  0
LINE
  8
LY_3
  6
CONTINUOUS
 62
             110
  5
111
 10
128.650002
 20
0.750002
 30
0.0
 11
128.851991
 21
1.1828369999999999
 31
0.0
  0
LINE
  8
LY_3
  6
CONTINUOUS
 62
             110
  5
112
 10
127.94803499999999
 20
0.317166
 30
0.0
 11
128.15002099999998
 21
0.7499940000000001
 31
0.0
  0
LINE
  8
LY_3
  6
CONTINUOUS
 62
             110
  5
113
 10
127.94800499999999
 20
16.817163999999998
 30
0.0
 11
128.45065699999998
 21
17.894279999999998
 31
0.0
  0
LINE
  8
LY_3
  6
CONTINUOUS
 62
             110
  5
114
 10
128.45065799999998
 20
15.105715
 30
0.0
 11
127.947999
 21
16.182846000000001
 31
0.0
  0
LINE
  8
LY_3
  6
CONTINUOUS
 62
             110
  5
115
 10
127.94801699999999
 20
13.817166
 30
0.0
 11
128.450669
 21
14.894283
 31
0.0
  0
LINE
  8
LY_3
  6
CONTINUOUS
 62
             110
  5
116
 10
128.45066
 20
12.105715999999999
 30
0.0
 11
127.948008
 21
13.182831999999999
 31
0.0
  0
LINE
  8
LY_3
  6
CONTINUOUS
 62
             110
  5
117
 10
127.948015
 20
10.817167
 30
0.0
 11
128.45066800000001
 21
11.894284000000001
 31
0.0
  0
LINE
  8
LY_3
  6
CONTINUOUS
 62
             110
  5
118
 10
128.45066500000001
 20
9.1057179999999995
 30
0.0
 11
127.94801
 21
10.182842000000001
 31
0.0
  0
LINE
  8
LY_3
  6
CONTINUOUS
 62
             110
  5
119
 10
127.94802399999999
 20
7.8171540000000004
 30
0.0
 11
128.45067699999998
 21
8.8942709999999998
 31
0.0
  0
LINE
  8
LY_3
  6
CONTINUOUS
 62
             110
  5
11A
 10
128.45066400000002
 20
6.105734
 30
0.0
 11
127.94801799999999
 21
7.1828370000000001
 31
0.0
  0
LINE
  8
LY_3
  6
CONTINUOUS
 62
             110
  5
11B
 10
127.948026
 20
4.8171710000000001
 30
0.0
 11
128.450681
 21
5.8942940000000004
 31
0.0
  0
LINE
  8
LY_3
  6
CONTINUOUS
 62
             110
  5
11C
 10
128.45065599999998
 20
3.1057220000000001
 30
0.0
 11
127.947998
 21
4.1828529999999997
 31
0.0
  0
LINE
  8
LY_3
  6
CONTINUOUS
 62
             110
  5
11D
 10
127.948014
 20
1.817167
 30
0.0
 11
128.45066600000001
 21
2.8942839999999999
 31
0.0
  0
LINE
  8
LY_3
  6
CONTINUOUS
 62
             110
  5
11E
 10
128.45065799999998
 20
0.105723
 30
0.0
 11
127.948003
 21
1.1828460000000001
 31
0.0
  0
LINE
  8
LY_3
  6
CONTINUOUS
 62
             110
  5
11F
 10
128.349332
 20
16.605723999999999
 30
0.0
 11
128.85198500000001
 21
17.682839999999999
 31
0.0
  0
LINE
  8
LY_3
  6
CONTINUOUS
 62
             110
  5
120
 10
128.85199599999999
 20
15.317169
 30
0.0
 11
128.349344
 21
16.394285
 31
0.0
  0
LINE
  8
LY_3
  6
CONTINUOUS
 62
             110
  5
121
 10
128.349344
 20
13.605726000000001
 30
0.0
 11
128.85199599999999
 21
14.682843
 31
0.0
  0
LINE
  8
LY_3
  6
CONTINUOUS
 62
             110
  5
122
 10
128.85198
 20
12.317170000000001
 30
0.0
 11
128.34933100000001
 21
13.394278999999999
 31
0.0
  0
LINE
  8
LY_3
  6
CONTINUOUS
 62
             110
  5
123
 10
128.85199799999998
 20
11.682850999999999
 30
0.0
 11
128.349346
 21
10.605734
 31
0.0
  0
LINE
  8
LY_3
  6
CONTINUOUS
 62
             110
  5
124
 10
128.85198600000001
 20
9.3171719999999993
 30
0.0
 11
128.36419699999999
 21
10.362437
 31
0.0
  0
LINE
  8
LY_3
  6
CONTINUOUS
 62
             110
  5
125
 10
128.349355
 20
7.605721
 30
0.0
 11
128.852013
 21
8.6828520000000005
 31
0.0
  0
LINE
  8
LY_3
  6
CONTINUOUS
 62
             110
  5
126
 10
128.85199399999999
 20
6.3171670000000004
 30
0.0
 11
128.34934199999998
 21
7.3942839999999999
 31
0.0
  0
LINE
  8
LY_3
  6
CONTINUOUS
 62
             110
  5
127
 10
128.34935000000002
 20
4.6057240000000004
 30
0.0
 11
128.852002
 21
5.6828399999999997
 31
0.0
  0
LINE
  8
LY_3
  6
CONTINUOUS
 62
             110
  5
128
 10
128.852001
 20
3.3171620000000002
 30
0.0
 11
128.34934799999999
 21
4.3942779999999999
 31
0.0
  0
LINE
  8
LY_3
  6
CONTINUOUS
 62
             110
  5
129
 10
128.34933799999999
 20
1.605721
 30
0.0
 11
128.85199
 21
2.6828370000000001
 31
0.0
  0
LINE
  8
LY_3
  6
CONTINUOUS
 62
             110
  5
12A
 10
128.85198199999999
 20
0.31717
 30
0.0
 11
128.349333
 21
1.39428
 31
0.0
  0
LINE
  8
LY_3
  6
CONTINUOUS
 62
               3
  5
12B
 10
125.80000299999999
 20
0.0
 30
0.0
 11
125.80000299999999
 21
49.950000000000003
 31
0.0
  0
LINE
  8
LY_3
  6
CONTINUOUS
 62
               3
  5
12C
 10
127.80000299999999
 20
0.0
 30
0.0
 11
127.80000299999999
 21
49.950000000000003
 31
0.0
  0
LINE
  8
LY_3
  6
CONTINUOUS
 62
               3
  5
12D
 10
129.0
 20
0.0
 30
0.0
 11
129.0
 21
50.0
 31
0.0
  0
LINE
  8
LY_3
  6
CONTINUOUS
 62
               3
  5
12E
 10
129.0
 20
46.5
 30
0.0
 11
134.0
 21
46.5
 31
0.0
  0
LINE
  8
LY_3
  6
CONTINUOUS
 62
               3
  5
12F
 10
122.0
 20
-50.799999999999997
 30
0.0
 11
126.05
 21
-50.799999999999997
 31
0.0
  0
LINE
  8
LY_3
  6
CONTINUOUS
 62
               3
  5
130
 10
126.05
 20
-55.935551215283802
 30
0.0
 11
126.05
 21
0.0
 31
0.0
  0
LINE
  8
LY_3
  6
CONTINUOUS
 62
               3
  5
131
 10
129.94999999999999
 20
-50.799999999999997
 30
0.0
 11
134.0
 21
-50.799999999999997
 31
0.0
  0
LINE
  8
LY_3
  6
CONTINUOUS
 62
               3
  5
132
 10
129.94999999999999
 20
-55.935551215283802
 30
0.0
 11
129.94999999999999
 21
0.0
 31
0.0
  0
LINE
  8
LY_3
  6
CONTINUOUS
 62
               3
  5
133
 10
129.94999999999999
 20
50.799999999999997
 30
0.0
 11
134.0
 21
50.799999999999997
 31
0.0
  0
LINE
  8
LY_3
  6
CONTINUOUS
 62
               3
  5
134
 10
134.0
 20
-50.799999999999997
 30
0.0
 11
134.0
 21
50.799999999999997
 31
0.0
  0
LINE
  8
LY_3
  6
CONTINUOUS
 62
               3
  5
135
 10
122.0
 20
-50.799999999999997
 30
0.0
 11
122.0
 21
50.799999999999997
 31
0.0
  0
LINE
  8
LY_3
  6
CONTINUOUS
 62
               3
  5
136
 10
122.0
 20
50.0
 30
0.0
 11
129.0
 21
50.0
 31
0.0
  0
LINE
  8
LY_3
  6
CONTINUOUS
 62
               3
  5
137
 10
122.0
 20
50.799999999999997
 30
0.0
 11
126.05
 21
50.799999999999997
 31
0.0
  0
CIRCLE
  8
LY_3
  6
CONTINUOUS
 62
               3
  5
138
 10
128.0
 20
57.752065734906473
 30
0.0
 40
2.665
  0
CIRCLE
  8
LY_3
  6
CONTINUOUS
 62
               3
  5
139
 10
128.0
 20
-57.752065734906473
 30
0.0
 40
2.665
  0
TEXT
  8
LY_3
  6
CONTINUOUS
 62
             110
  5
13A
 10
95.015624995032937
 20
-57.25
 30
0.0
 40
2.5
  1
VP2080-M
 41
0.9380000114440918
  7
MX_NOTE_STANDARD
 11
95.015624995032937
 21
-54.75
 31
0.0
 73
               3
  0
LINE
  8
LY_3
  6
CONTINUOUS
 62
               3
  5
13B
 10
98.0
 20
41.299999999999997
 30
0.0
 11
102.05000000000001
 21
41.299999999999997
 31
0.0
  0
LINE
  8
LY_3
  6
CONTINUOUS
 62
               3
  5
13C
 10
98.0
 20
40.5
 30
0.0
 11
105.0
 21
40.5
 31
0.0
  0
LINE
  8
LY_3
  6
CONTINUOUS
 62
               3
  5
13D
 10
98.0
 20
-41.299999999999997
 30
0.0
 11
98.0
 21
41.299999999999997
 31
0.0
  0
LINE
  8
LY_3
  6
CONTINUOUS
 62
               3
  5
13E
 10
110.0
 20
-41.299999999999997
 30
0.0
 11
110.0
 21
41.299999999999997
 31
0.0
  0
LINE
  8
LY_3
  6
CONTINUOUS
 62
               3
  5
13F
 10
105.95
 20
41.299999999999997
 30
0.0
 11
110.0
 21
41.299999999999997
 31
0.0
  0
LINE
  8
LY_3
  6
CONTINUOUS
 62
               3
  5
140
 10
105.95
 20
-46.435551215283802
 30
0.0
 11
105.95
 21
0.0
 31
0.0
  0
LINE
  8
LY_3
  6
CONTINUOUS
 62
               3
  5
141
 10
105.95
 20
-41.299999999999997
 30
0.0
 11
110.0
 21
-41.299999999999997
 31
0.0
  0
LINE
  8
LY_3
  6
CONTINUOUS
 62
               3
  5
142
 10
102.05000000000001
 20
-46.435551215283795
 30
0.0
 11
102.05000000000001
 21
0.0
 31
0.0
  0
LINE
  8
LY_3
  6
CONTINUOUS
 62
               3
  5
143
 10
98.0
 20
-41.299999999999997
 30
0.0
 11
102.05000000000001
 21
-41.299999999999997
 31
0.0
  0
LINE
  8
LY_3
  6
CONTINUOUS
 62
               3
  5
144
 10
105.0
 20
37.0
 30
0.0
 11
110.0
 21
37.0
 31
0.0
  0
LINE
  8
LY_3
  6
CONTINUOUS
 62
               3
  5
145
 10
105.0
 20
0.0
 30
0.0
 11
105.0
 21
40.5
 31
0.0
  0
LINE
  8
LY_3
  6
CONTINUOUS
 62
               3
  5
146
 10
103.800003
 20
0.0
 30
0.0
 11
103.800003
 21
40.450000000000003
 31
0.0
  0
LINE
  8
LY_3
  6
CONTINUOUS
 62
             110
  5
147
 10
104.85198200000001
 20
0.31717
 30
0.0
 11
104.349333
 21
1.39428
 31
0.0
  0
LINE
  8
LY_3
  6
CONTINUOUS
 62
             110
  5
148
 10
104.349338
 20
1.605721
 30
0.0
 11
104.85199
 21
2.6828370000000001
 31
0.0
  0
LINE
  8
LY_3
  6
CONTINUOUS
 62
             110
  5
149
 10
104.852001
 20
3.3171620000000002
 30
0.0
 11
104.34934800000001
 21
4.3942779999999999
 31
0.0
  0
LINE
  8
LY_3
  6
CONTINUOUS
 62
             110
  5
14A
 10
104.34935
 20
4.6057240000000004
 30
0.0
 11
104.852002
 21
5.6828399999999997
 31
0.0
  0
LINE
  8
LY_3
  6
CONTINUOUS
 62
             110
  5
14B
 10
104.851994
 20
6.3171670000000004
 30
0.0
 11
104.34934200000001
 21
7.3942839999999999
 31
0.0
  0
LINE
  8
LY_3
  6
CONTINUOUS
 62
             110
  5
14C
 10
104.349355
 20
7.605721
 30
0.0
 11
104.852013
 21
8.6828520000000005
 31
0.0
  0
LINE
  8
LY_3
  6
CONTINUOUS
 62
             110
  5
14D
 10
104.85198600000001
 20
9.3171719999999993
 30
0.0
 11
104.364197
 21
10.362437
 31
0.0
  0
LINE
  8
LY_3
  6
CONTINUOUS
 62
             110
  5
14E
 10
104.85199800000001
 20
11.682850999999999
 30
0.0
 11
104.349346
 21
10.605734
 31
0.0
  0
LINE
  8
LY_3
  6
CONTINUOUS
 62
             110
  5
14F
 10
104.85198
 20
12.317170000000001
 30
0.0
 11
104.34933100000001
 21
13.394278999999999
 31
0.0
  0
LINE
  8
LY_3
  6
CONTINUOUS
 62
             110
  5
150
 10
104.349344
 20
13.605726000000001
 30
0.0
 11
104.85199600000001
 21
14.682843
 31
0.0
  0
LINE
  8
LY_3
  6
CONTINUOUS
 62
             110
  5
151
 10
104.85199600000001
 20
15.317169
 30
0.0
 11
104.349344
 21
16.394285
 31
0.0
  0
LINE
  8
LY_3
  6
CONTINUOUS
 62
             110
  5
152
 10
104.349332
 20
16.605723999999999
 30
0.0
 11
104.85198500000001
 21
17.682839999999999
 31
0.0
  0
LINE
  8
LY_3
  6
CONTINUOUS
 62
             110
  5
153
 10
104.450658
 20
0.105723
 30
0.0
 11
103.948003
 21
1.1828460000000001
 31
0.0
  0
LINE
  8
LY_3
  6
CONTINUOUS
 62
             110
  5
154
 10
103.948014
 20
1.817167
 30
0.0
 11
104.45066600000001
 21
2.8942839999999999
 31
0.0
  0
LINE
  8
LY_3
  6
CONTINUOUS
 62
             110
  5
155
 10
104.45065600000001
 20
3.1057220000000001
 30
0.0
 11
103.94799800000001
 21
4.1828529999999997
 31
0.0
  0
LINE
  8
LY_3
  6
CONTINUOUS
 62
             110
  5
156
 10
103.948026
 20
4.8171710000000001
 30
0.0
 11
104.450681
 21
5.8942940000000004
 31
0.0
  0
LINE
  8
LY_3
  6
CONTINUOUS
 62
             110
  5
157
 10
104.450664
 20
6.105734
 30
0.0
 11
103.948018
 21
7.1828370000000001
 31
0.0
  0
LINE
  8
LY_3
  6
CONTINUOUS
 62
             110
  5
158
 10
103.948024
 20
7.8171540000000004
 30
0.0
 11
104.45067700000001
 21
8.8942709999999998
 31
0.0
  0
LINE
  8
LY_3
  6
CONTINUOUS
 62
             110
  5
159
 10
104.450665
 20
9.1057179999999995
 30
0.0
 11
103.94801000000001
 21
10.182842000000001
 31
0.0
  0
LINE
  8
LY_3
  6
CONTINUOUS
 62
             110
  5
15A
 10
103.948015
 20
10.817167
 30
0.0
 11
104.45066800000001
 21
11.894284000000001
 31
0.0
  0
LINE
  8
LY_3
  6
CONTINUOUS
 62
             110
  5
15B
 10
104.45066
 20
12.105715999999999
 30
0.0
 11
103.948008
 21
13.182831999999999
 31
0.0
  0
LINE
  8
LY_3
  6
CONTINUOUS
 62
             110
  5
15C
 10
103.94801699999999
 20
13.817166
 30
0.0
 11
104.450669
 21
14.894283
 31
0.0
  0
LINE
  8
LY_3
  6
CONTINUOUS
 62
             110
  5
15D
 10
104.450658
 20
15.105715
 30
0.0
 11
103.94799900000001
 21
16.182846000000001
 31
0.0
  0
LINE
  8
LY_3
  6
CONTINUOUS
 62
             110
  5
15E
 10
103.94800499999999
 20
16.817163999999998
 30
0.0
 11
104.45065700000001
 21
17.894279999999998
 31
0.0
  0
LINE
  8
LY_3
  6
CONTINUOUS
 62
             110
  5
15F
 10
103.948035
 20
0.317166
 30
0.0
 11
104.15002100000001
 21
0.7499940000000001
 31
0.0
  0
LINE
  8
LY_3
  6
CONTINUOUS
 62
             110
  5
160
 10
104.650002
 20
0.750002
 30
0.0
 11
104.851991
 21
1.1828369999999999
 31
0.0
  0
LINE
  8
LY_3
  6
CONTINUOUS
 62
             110
  5
161
 10
104.14999700000001
 20
2.249997
 30
0.0
 11
103.94800499999999
 21
2.682839
 31
0.0
  0
LINE
  8
LY_3
  6
CONTINUOUS
 62
             110
  5
162
 10
104.851984
 20
1.8171630000000001
 30
0.0
 11
104.649996
 21
2.2499980000000002
 31
0.0
  0
LINE
  8
LY_3
  6
CONTINUOUS
 62
             110
  5
163
 10
103.948013
 20
3.3171590000000002
 30
0.0
 11
104.150002
 21
3.749994
 31
0.0
  0
LINE
  8
LY_3
  6
CONTINUOUS
 62
             110
  5
164
 10
104.650007
 20
3.7500079999999998
 30
0.0
 11
104.85199900000001
 21
4.1828500000000002
 31
0.0
  0
LINE
  8
LY_3
  6
CONTINUOUS
 62
             110
  5
165
 10
104.14999
 20
5.2500030000000004
 30
0.0
 11
103.948002
 21
5.6828380000000003
 31
0.0
  0
LINE
  8
LY_3
  6
CONTINUOUS
 62
             110
  5
166
 10
104.85199
 20
4.8171739999999996
 30
0.0
 11
104.650001
 21
5.2500090000000004
 31
0.0
  0
LINE
  8
LY_3
  6
CONTINUOUS
 62
             110
  5
167
 10
103.948004
 20
6.3171720000000002
 30
0.0
 11
104.14999299999999
 21
6.7500070000000001
 31
0.0
  0
LINE
  8
LY_3
  6
CONTINUOUS
 62
             110
  5
168
 10
104.649992
 20
6.7500070000000001
 30
0.0
 11
104.85198
 21
7.1828419999999999
 31
0.0
  0
LINE
  8
LY_3
  6
CONTINUOUS
 62
             110
  5
169
 10
104.851995
 20
7.8171590000000002
 30
0.0
 11
104.654269
 21
8.2408599999999996
 31
0.0
  0
LINE
  8
LY_3
  6
CONTINUOUS
 62
             110
  5
16A
 10
104.150004
 20
8.2500009999999993
 30
0.0
 11
103.94800900000001
 21
8.6828500000000002
 31
0.0
  0
LINE
  8
LY_3
  6
CONTINUOUS
 62
             110
  5
16B
 10
104.65000000000001
 20
9.7500110000000006
 30
0.0
 11
104.851989
 21
10.182846
 31
0.0
  0
LINE
  8
LY_3
  6
CONTINUOUS
 62
             110
  5
16C
 10
103.948013
 20
9.3171769999999992
 30
0.0
 11
104.14999800000001
 21
9.7500049999999998
 31
0.0
  0
LINE
  8
LY_3
  6
CONTINUOUS
 62
             110
  5
16D
 10
104.851989
 20
10.817157
 30
0.0
 11
104.64999700000001
 21
11.249999000000001
 31
0.0
  0
LINE
  8
LY_3
  6
CONTINUOUS
 62
             110
  5
16E
 10
103.948007
 20
11.682840000000001
 30
0.0
 11
104.150002
 21
11.249992000000001
 31
0.0
  0
LINE
  8
LY_3
  6
CONTINUOUS
 62
             110
  5
16F
 10
103.94802100000001
 20
12.317173
 30
0.0
 11
104.150013
 21
12.750014999999999
 31
0.0
  0
LINE
  8
LY_3
  6
CONTINUOUS
 62
             110
  5
170
 10
104.650002
 20
12.749993999999999
 30
0.0
 11
104.851991
 21
13.182829
 31
0.0
  0
LINE
  8
LY_3
  6
CONTINUOUS
 62
             110
  5
171
 10
104.851978
 20
13.817169
 30
0.0
 11
104.64998900000001
 21
14.250003
 31
0.0
  0
LINE
  8
LY_3
  6
CONTINUOUS
 62
             110
  5
172
 10
104.149991
 20
14.250003
 30
0.0
 11
103.948002
 21
14.682838
 31
0.0
  0
LINE
  8
LY_3
  6
CONTINUOUS
 62
             110
  5
173
 10
103.948016
 20
15.317167
 30
0.0
 11
104.15000499999999
 21
15.750002
 31
0.0
  0
LINE
  8
LY_3
  6
CONTINUOUS
 62
             110
  5
174
 10
104.65001000000001
 20
15.750007
 30
0.0
 11
104.85200500000001
 21
16.182856000000001
 31
0.0
  0
LINE
  8
LY_3
  6
CONTINUOUS
 62
             110
  5
175
 10
104.85199600000001
 20
16.817160000000001
 30
0.0
 11
104.650001
 21
17.250008999999999
 31
0.0
  0
LINE
  8
LY_3
  6
CENTER
 62
             110
  5
176
 10
95.975465
 20
0.0
 30
0.0
 11
111.222915
 21
0.0
 31
0.0
  0
ARC
  8
LY_3
  6
CONTINUOUS
 62
               3
  5
177
 10
104.0
 20
48.0
 30
0.0
 40
2.5
 50
218.73942459785582
 51
321.26057540214441
  0
CIRCLE
  8
LY_3
  6
CONTINUOUS
 62
             110
  5
178
 10
104.57588200000001
 20
1.5
 30
0.0
 40
0.25
  0
CIRCLE
  8
LY_3
  6
CONTINUOUS
 62
             110
  5
179
 10
104.57588200000001
 20
4.5
 30
0.0
 40
0.25
  0
CIRCLE
  8
LY_3
  6
CONTINUOUS
 62
             110
  5
17A
 10
104.57588200000001
 20
7.5000080000000002
 30
0.0
 40
0.25
  0
CIRCLE
  8
LY_3
  6
CONTINUOUS
 62
             110
  5
17B
 10
104.57588200000001
 20
10.500007999999999
 30
0.0
 40
0.25
  0
CIRCLE
  8
LY_3
  6
CONTINUOUS
 62
             110
  5
17C
 10
104.57588200000001
 20
13.5
 30
0.0
 40
0.25
  0
CIRCLE
  8
LY_3
  6
CONTINUOUS
 62
             110
  5
17D
 10
104.57588200000001
 20
16.5
 30
0.0
 40
0.25
  0
CIRCLE
  8
LY_3
  6
CONTINUOUS
 62
             110
  5
17E
 10
104.224121
 20
3.0
 30
0.0
 40
0.25
  0
CIRCLE
  8
LY_3
  6
CONTINUOUS
 62
             110
  5
17F
 10
104.22410600000001
 20
6.0000080000000002
 30
0.0
 40
0.25
  0
CIRCLE
  8
LY_3
  6
CONTINUOUS
 62
             110
  5
180
 10
104.224121
 20
9.0
 30
0.0
 40
0.25
  0
CIRCLE
  8
LY_3
  6
CONTINUOUS
 62
             110
  5
181
 10
104.224121
 20
12.0
 30
0.0
 40
0.25
  0
CIRCLE
  8
LY_3
  6
CONTINUOUS
 62
             110
  5
182
 10
104.224121
 20
15.0
 30
0.0
 40
0.25
  0
ARC
  8
LY_3
  6
CONTINUOUS
 62
             110
  5
183
 10
104.224121
 20
0.0
 30
0.0
 40
0.25
 50
0.0
 51
181.050884
  0
ARC
  8
LY_3
  6
CONTINUOUS
 62
             110
  5
184
 10
104.627639
 20
16.500008000000001
 30
0.0
 40
0.75
 50
154.98319400000003
 51
205.01654300000001
  0
ARC
  8
LY_3
  6
CONTINUOUS
 62
             110
  5
185
 10
104.627639
 20
13.5
 30
0.0
 40
0.75
 50
154.98319400000003
 51
205.01678899999999
  0
ARC
  8
LY_3
  6
CONTINUOUS
 62
             110
  5
186
 10
104.172348
 20
15.0
 30
0.0
 40
0.75
 50
334.98342300000002
 51
25.0167
  0
ARC
  8
LY_3
  6
CONTINUOUS
 62
             110
  5
187
 10
104.172348
 20
12.000007999999999
 30
0.0
 40
0.75
 50
334.98329999999999
 51
25.0167
  0
ARC
  8
LY_3
  6
CONTINUOUS
 62
             110
  5
188
 10
104.627639
 20
10.5
 30
0.0
 40
0.75
 50
154.98319400000003
 51
205.01678899999999
  0
ARC
  8
LY_3
  6
CONTINUOUS
 62
             110
  5
189
 10
104.172348
 20
9.0000079999999993
 30
0.0
 40
0.75
 50
334.98342300000002
 51
25.0167
  0
ARC
  8
LY_3
  6
CONTINUOUS
 62
             110
  5
18A
 10
104.627655
 20
7.5
 30
0.0
 40
0.75
 50
154.98331700000003
 51
205.01666599999999
  0
ARC
  8
LY_3
  6
CONTINUOUS
 62
             110
  5
18B
 10
104.172348
 20
6.0
 30
0.0
 40
0.75
 50
334.98329999999999
 51
25.0167
  0
ARC
  8
LY_3
  6
CONTINUOUS
 62
             110
  5
18C
 10
104.627639
 20
4.5000080000000002
 30
0.0
 40
0.75
 50
154.98319400000003
 51
205.01654300000001
  0
ARC
  8
LY_3
  6
CONTINUOUS
 62
             110
  5
18D
 10
104.172348
 20
3.0
 30
0.0
 40
0.75
 50
334.98342300000002
 51
25.0167
  0
ARC
  8
LY_3
  6
CONTINUOUS
 62
             110
  5
18E
 10
104.627639
 20
1.5
 30
0.0
 40
0.75
 50
154.98319400000003
 51
205.01678899999999
  0
ARC
  8
LY_3
  6
CONTINUOUS
 62
             110
  5
18F
 10
104.172348
 20
0.000008
 30
0.0
 40
0.75
 50
359.99941699999999
 51
25.0167
  0
ARC
  8
LY_3
  6
CONTINUOUS
 62
             110
  5
190
 10
104.627655
 20
0.000008
 30
0.0
 40
0.75
 50
154.98331700000003
 51
180.00059200000001
  0
ARC
  8
LY_3
  6
CONTINUOUS
 62
             110
  5
191
 10
104.172348
 20
1.5
 30
0.0
 40
0.75
 50
334.98322999999999
 51
25.016825000000011
  0
ARC
  8
LY_3
  6
CONTINUOUS
 62
             110
  5
192
 10
104.627655
 20
3.0
 30
0.0
 40
0.75
 50
154.98331700000003
 51
205.01659699999999
  0
ARC
  8
LY_3
  6
CONTINUOUS
 62
             110
  5
193
 10
104.172348
 20
4.5000080000000002
 30
0.0
 40
0.75
 50
334.983476
 51
25.016825000000011
  0
ARC
  8
LY_3
  6
CONTINUOUS
 62
             110
  5
194
 10
104.627655
 20
6.0
 30
0.0
 40
0.75
 50
154.98331700000003
 51
205.01671999999999
  0
ARC
  8
LY_3
  6
CONTINUOUS
 62
             110
  5
195
 10
104.172348
 20
7.5
 30
0.0
 40
0.75
 50
334.98335300000002
 51
25.016702000000009
  0
ARC
  8
LY_3
  6
CONTINUOUS
 62
             110
  5
196
 10
104.627655
 20
9.0000079999999993
 30
0.0
 40
0.75
 50
154.98331700000003
 51
205.01659699999999
  0
ARC
  8
LY_3
  6
CONTINUOUS
 62
             110
  5
197
 10
104.172348
 20
10.5
 30
0.0
 40
0.75
 50
334.98322999999999
 51
25.016825000000011
  0
ARC
  8
LY_3
  6
CONTINUOUS
 62
             110
  5
198
 10
104.627655
 20
12.000007999999999
 30
0.0
 40
0.75
 50
154.98331700000003
 51
205.01671999999999
  0
ARC
  8
LY_3
  6
CONTINUOUS
 62
             110
  5
199
 10
104.172348
 20
13.5
 30
0.0
 40
0.75
 50
334.98322999999999
 51
25.016825000000011
  0
ARC
  8
LY_3
  6
CONTINUOUS
 62
             110
  5
19A
 10
104.627655
 20
15.0
 30
0.0
 40
0.75
 50
154.98331700000003
 51
205.01659699999999
  0
ARC
  8
LY_3
  6
CONTINUOUS
 62
             110
  5
19B
 10
104.172348
 20
16.500008000000001
 30
0.0
 40
0.75
 50
334.983476
 51
25.016825000000011
  0
LINE
  8
LY_3
  6
CONTINUOUS
 62
               3
  5
19C
 10
105.95
 20
41.299999999999997
 30
0.0
 11
105.95
 21
46.435551215283802
 31
0.0
  0
LINE
  8
LY_3
  6
CONTINUOUS
 62
               3
  5
19D
 10
102.05000000000001
 20
41.299999999999997
 30
0.0
 11
102.05000000000001
 21
46.435551215283795
 31
0.0
  0
LINE
  8
LY_3
  6
CONTINUOUS
 62
             110
  5
19E
 10
104.150002
 20
17.249994000000001
 30
0.0
 11
103.948007
 21
17.682842999999998
 31
0.0
  0
ARC
  8
LY_3
  6
CONTINUOUS
 62
             110
  5
19F
 10
104.17234500000001
 20
21.000001000000001
 30
0.0
 40
0.75
 50
334.98329999999999
 51
25.0167
  0
ARC
  8
LY_3
  6
CONTINUOUS
 62
             110
  5
1A0
 10
104.17234500000001
 20
18.000001000000001
 30
0.0
 40
0.75
 50
334.98342300000002
 51
25.0167
  0
ARC
  8
LY_3
  6
CONTINUOUS
 62
             110
  5
1A1
 10
104.17234500000001
 20
19.499993
 30
0.0
 40
0.75
 50
334.98322999999999
 51
25.016825000000011
  0
ARC
  8
LY_3
  6
CONTINUOUS
 62
             110
  5
1A2
 10
104.17234500000001
 20
22.499993
 30
0.0
 40
0.75
 50
334.98322999999999
 51
25.016825000000011
  0
ARC
  8
LY_3
  6
CONTINUOUS
 62
             110
  5
1A3
 10
104.62765200000001
 20
21.000001000000001
 30
0.0
 40
0.75
 50
154.98331700000003
 51
205.01671999999999
  0
ARC
  8
LY_3
  6
CONTINUOUS
 62
             110
  5
1A4
 10
104.62765200000001
 20
18.000001000000001
 30
0.0
 40
0.75
 50
154.98331700000003
 51
205.01659699999999
  0
ARC
  8
LY_3
  6
CONTINUOUS
 62
             110
  5
1A5
 10
104.62763699999999
 20
19.499993
 30
0.0
 40
0.75
 50
154.98319400000003
 51
205.01678899999999
  0
ARC
  8
LY_3
  6
CONTINUOUS
 62
             110
  5
1A6
 10
104.62763699999999
 20
22.499993
 30
0.0
 40
0.75
 50
154.98319400000003
 51
205.01678899999999
  0
CIRCLE
  8
LY_3
  6
CONTINUOUS
 62
             110
  5
1A7
 10
104.224118
 20
20.999993
 30
0.0
 40
0.25
  0
CIRCLE
  8
LY_3
  6
CONTINUOUS
 62
             110
  5
1A8
 10
104.224118
 20
17.999993
 30
0.0
 40
0.25
  0
CIRCLE
  8
LY_3
  6
CONTINUOUS
 62
             110
  5
1A9
 10
104.575879
 20
22.499993
 30
0.0
 40
0.25
  0
CIRCLE
  8
LY_3
  6
CONTINUOUS
 62
             110
  5
1AA
 10
104.575879
 20
19.500001000000001
 30
0.0
 40
0.25
  0
LINE
  8
LY_3
  6
CONTINUOUS
 62
             110
  5
1AB
 10
104.14998800000001
 20
23.249995999999999
 30
0.0
 11
103.94800000000001
 21
23.682831
 31
0.0
  0
LINE
  8
LY_3
  6
CONTINUOUS
 62
             110
  5
1AC
 10
104.65000000000001
 20
21.749987000000001
 30
0.0
 11
104.851989
 21
22.182822000000002
 31
0.0
  0
LINE
  8
LY_3
  6
CONTINUOUS
 62
             110
  5
1AD
 10
103.948019
 20
21.317166
 30
0.0
 11
104.15001100000001
 21
21.750008000000001
 31
0.0
  0
LINE
  8
LY_3
  6
CONTINUOUS
 62
             110
  5
1AE
 10
103.94800499999999
 20
20.682832999999999
 30
0.0
 11
104.15000000000001
 21
20.249984999999999
 31
0.0
  0
LINE
  8
LY_3
  6
CONTINUOUS
 62
             110
  5
1AF
 10
104.85198700000001
 20
19.817150000000002
 30
0.0
 11
104.649995
 21
20.249991999999999
 31
0.0
  0
LINE
  8
LY_3
  6
CONTINUOUS
 62
             110
  5
1B0
 10
103.94801000000001
 20
18.317170000000001
 30
0.0
 11
104.149996
 21
18.749998000000001
 31
0.0
  0
LINE
  8
LY_3
  6
CONTINUOUS
 62
             110
  5
1B1
 10
104.64999800000001
 20
18.750004000000001
 30
0.0
 11
104.85198600000001
 21
19.182839000000001
 31
0.0
  0
LINE
  8
LY_3
  6
CONTINUOUS
 62
             110
  5
1B2
 10
103.948015
 20
22.817159
 30
0.0
 11
104.45066700000001
 21
23.894276000000001
 31
0.0
  0
LINE
  8
LY_3
  6
CONTINUOUS
 62
             110
  5
1B3
 10
104.450658
 20
21.105709000000001
 30
0.0
 11
103.94800499999999
 21
22.182825000000001
 31
0.0
  0
LINE
  8
LY_3
  6
CONTINUOUS
 62
             110
  5
1B4
 10
103.948013
 20
19.817160000000001
 30
0.0
 11
104.450665
 21
20.894276999999999
 31
0.0
  0
LINE
  8
LY_3
  6
CONTINUOUS
 62
             110
  5
1B5
 10
104.45066300000001
 20
18.105710999999999
 30
0.0
 11
103.948007
 21
19.182834
 31
0.0
  0
LINE
  8
LY_3
  6
CONTINUOUS
 62
             110
  5
1B6
 10
104.34934200000001
 20
22.605719000000001
 30
0.0
 11
104.851994
 21
23.682836000000002
 31
0.0
  0
LINE
  8
LY_3
  6
CONTINUOUS
 62
             110
  5
1B7
 10
104.851978
 20
21.317163000000001
 30
0.0
 11
104.34932900000001
 21
22.394272000000001
 31
0.0
  0
LINE
  8
LY_3
  6
CONTINUOUS
 62
             110
  5
1B8
 10
104.85199600000001
 20
20.682842999999998
 30
0.0
 11
104.349343
 21
19.605727000000002
 31
0.0
  0
LINE
  8
LY_3
  6
CONTINUOUS
 62
             110
  5
1B9
 10
104.851983
 20
18.317164999999999
 30
0.0
 11
104.364195
 21
19.36243
 31
0.0
  0
LINE
  8
LY_3
  6
CONTINUOUS
 62
             110
  5
1BA
 10
104.85199700000001
 20
22.817146999999999
 30
0.0
 11
104.65000499999999
 21
23.249988999999999
 31
0.0
  0
ARC
  8
LY_3
  6
CONTINUOUS
 62
             110
  5
1BB
 10
104.627647
 20
28.499998000000001
 30
0.0
 40
0.75
 50
154.98319400000003
 51
205.01654300000001
  0
ARC
  8
LY_3
  6
CONTINUOUS
 62
             110
  5
1BC
 10
104.627647
 20
25.49999
 30
0.0
 40
0.75
 50
154.98319400000003
 51
205.01678899999999
  0
ARC
  8
LY_3
  6
CONTINUOUS
 62
             110
  5
1BD
 10
104.17235600000001
 20
26.99999
 30
0.0
 40
0.75
 50
334.98342300000002
 51
25.0167
  0
ARC
  8
LY_3
  6
CONTINUOUS
 62
             110
  5
1BE
 10
104.17235600000001
 20
23.999998000000001
 30
0.0
 40
0.75
 50
334.98329999999999
 51
25.0167
  0
ARC
  8
LY_3
  6
CONTINUOUS
 62
             110
  5
1BF
 10
104.62766300000001
 20
23.999998000000001
 30
0.0
 40
0.75
 50
154.98331700000003
 51
205.01671999999999
  0
ARC
  8
LY_3
  6
CONTINUOUS
 62
             110
  5
1C0
 10
104.17235600000001
 20
25.49999
 30
0.0
 40
0.75
 50
334.98322999999999
 51
25.016825000000011
  0
ARC
  8
LY_3
  6
CONTINUOUS
 62
             110
  5
1C1
 10
104.62766300000001
 20
26.99999
 30
0.0
 40
0.75
 50
154.98331700000003
 51
205.01659699999999
  0
ARC
  8
LY_3
  6
CONTINUOUS
 62
             110
  5
1C2
 10
104.17235600000001
 20
28.499998000000001
 30
0.0
 40
0.75
 50
334.983476
 51
25.016825000000011
  0
ARC
  8
LY_3
  6
CONTINUOUS
 62
             110
  5
1C3
 10
104.172353
 20
29.999991000000001
 30
0.0
 40
0.75
 50
334.98342300000002
 51
25.0167
  0
ARC
  8
LY_3
  6
CONTINUOUS
 62
             110
  5
1C4
 10
104.172353
 20
31.499983
 30
0.0
 40
0.75
 50
334.98322999999999
 51
25.016825000000011
  0
ARC
  8
LY_3
  6
CONTINUOUS
 62
             110
  5
1C5
 10
104.62766000000001
 20
29.999991000000001
 30
0.0
 40
0.75
 50
154.98331700000003
 51
205.01659699999999
  0
ARC
  8
LY_3
  6
CONTINUOUS
 62
             110
  5
1C6
 10
104.627645
 20
31.499983
 30
0.0
 40
0.75
 50
154.98319400000003
 51
205.01678899999999
  0
LINE
  8
LY_3
  6
CONTINUOUS
 62
             110
  5
1C7
 10
104.851991
 20
30.317155
 30
0.0
 11
104.364203
 21
31.36242
 31
0.0
  0
LINE
  8
LY_3
  6
CONTINUOUS
 62
             110
  5
1C8
 10
104.85200399999999
 20
32.682834
 30
0.0
 11
104.34935100000001
 21
31.605716999999999
 31
0.0
  0
LINE
  8
LY_3
  6
CONTINUOUS
 62
             110
  5
1C9
 10
104.450671
 20
30.105701
 30
0.0
 11
103.948015
 21
31.182825000000001
 31
0.0
  0
LINE
  8
LY_3
  6
CONTINUOUS
 62
             110
  5
1CA
 10
103.94802100000001
 20
31.817150000000002
 30
0.0
 11
104.45067299999999
 21
32.894266999999999
 31
0.0
  0
LINE
  8
LY_3
  6
CONTINUOUS
 62
             110
  5
1CB
 10
104.650006
 20
30.749994000000001
 30
0.0
 11
104.851994
 21
31.182829000000002
 31
0.0
  0
LINE
  8
LY_3
  6
CONTINUOUS
 62
             110
  5
1CC
 10
103.948018
 20
30.317160000000001
 30
0.0
 11
104.150004
 21
30.749987999999998
 31
0.0
  0
LINE
  8
LY_3
  6
CONTINUOUS
 62
             110
  5
1CD
 10
104.851995
 20
31.817139999999998
 30
0.0
 11
104.650003
 21
32.249982000000003
 31
0.0
  0
LINE
  8
LY_3
  6
CONTINUOUS
 62
             110
  5
1CE
 10
103.948013
 20
32.682822999999999
 30
0.0
 11
104.15000800000001
 21
32.249974999999999
 31
0.0
  0
CIRCLE
  8
LY_3
  6
CONTINUOUS
 62
             110
  5
1CF
 10
104.57588699999999
 20
31.499991000000001
 30
0.0
 40
0.25
  0
CIRCLE
  8
LY_3
  6
CONTINUOUS
 62
             110
  5
1D0
 10
104.22412600000001
 20
29.999983
 30
0.0
 40
0.25
  0
LINE
  8
LY_3
  6
CONTINUOUS
 62
             110
  5
1D1
 10
104.15001000000001
 20
29.249984000000001
 30
0.0
 11
103.948015
 21
29.682832999999999
 31
0.0
  0
CIRCLE
  8
LY_3
  6
CONTINUOUS
 62
             110
  5
1D2
 10
104.224129
 20
26.99999
 30
0.0
 40
0.25
  0
CIRCLE
  8
LY_3
  6
CONTINUOUS
 62
             110
  5
1D3
 10
104.224129
 20
23.99999
 30
0.0
 40
0.25
  0
CIRCLE
  8
LY_3
  6
CONTINUOUS
 62
             110
  5
1D4
 10
104.57589
 20
28.49999
 30
0.0
 40
0.25
  0
CIRCLE
  8
LY_3
  6
CONTINUOUS
 62
             110
  5
1D5
 10
104.57589
 20
25.49999
 30
0.0
 40
0.25
  0
LINE
  8
LY_3
  6
CONTINUOUS
 62
             110
  5
1D6
 10
104.85200399999999
 20
28.817150999999999
 30
0.0
 11
104.65000900000001
 21
29.249998999999999
 31
0.0
  0
LINE
  8
LY_3
  6
CONTINUOUS
 62
             110
  5
1D7
 10
104.650018
 20
27.749997
 30
0.0
 11
104.852013
 21
28.182846000000001
 31
0.0
  0
LINE
  8
LY_3
  6
CONTINUOUS
 62
             110
  5
1D8
 10
103.948024
 20
27.317157000000002
 30
0.0
 11
104.150013
 21
27.749991999999999
 31
0.0
  0
LINE
  8
LY_3
  6
CONTINUOUS
 62
             110
  5
1D9
 10
104.14999900000001
 20
26.249993
 30
0.0
 11
103.94801000000001
 21
26.682828000000001
 31
0.0
  0
LINE
  8
LY_3
  6
CONTINUOUS
 62
             110
  5
1DA
 10
104.85198600000001
 20
25.817159
 30
0.0
 11
104.64999700000001
 21
26.249994000000001
 31
0.0
  0
LINE
  8
LY_3
  6
CONTINUOUS
 62
             110
  5
1DB
 10
104.65001000000001
 20
24.749984000000001
 30
0.0
 11
104.85199900000001
 21
25.182818999999999
 31
0.0
  0
LINE
  8
LY_3
  6
CONTINUOUS
 62
             110
  5
1DC
 10
103.94802900000001
 20
24.317163000000001
 30
0.0
 11
104.15002100000001
 21
24.750005000000002
 31
0.0
  0
LINE
  8
LY_3
  6
CONTINUOUS
 62
             110
  5
1DD
 10
103.948013
 20
28.817153999999999
 30
0.0
 11
104.450665
 21
29.894269999999999
 31
0.0
  0
LINE
  8
LY_3
  6
CONTINUOUS
 62
             110
  5
1DE
 10
104.45066600000001
 20
27.105705
 30
0.0
 11
103.948007
 21
28.182836000000002
 31
0.0
  0
LINE
  8
LY_3
  6
CONTINUOUS
 62
             110
  5
1DF
 10
103.948025
 20
25.817156000000001
 30
0.0
 11
104.45067700000001
 21
26.894272999999998
 31
0.0
  0
LINE
  8
LY_3
  6
CONTINUOUS
 62
             110
  5
1E0
 10
104.45066800000001
 20
24.105706000000001
 30
0.0
 11
103.948016
 21
25.182822000000002
 31
0.0
  0
LINE
  8
LY_3
  6
CONTINUOUS
 62
             110
  5
1E1
 10
104.34934000000001
 20
28.605713999999999
 30
0.0
 11
104.85199299999999
 21
29.682829999999999
 31
0.0
  0
LINE
  8
LY_3
  6
CONTINUOUS
 62
             110
  5
1E2
 10
104.85200399999999
 20
27.317159
 30
0.0
 11
104.34935200000001
 21
28.394275
 31
0.0
  0
LINE
  8
LY_3
  6
CONTINUOUS
 62
             110
  5
1E3
 10
104.34935200000001
 20
25.605716000000001
 30
0.0
 11
104.85200399999999
 21
26.682832999999999
 31
0.0
  0
LINE
  8
LY_3
  6
CONTINUOUS
 62
             110
  5
1E4
 10
104.85198800000001
 20
24.317160000000001
 30
0.0
 11
104.349339
 21
25.394269000000001
 31
0.0
  0
ARC
  8
LY_3
  6
CONTINUOUS
 62
             110
  5
1E5
 10
104.17236500000001
 20
35.999988000000002
 30
0.0
 40
0.75
 50
334.98342300000002
 51
25.0167
  0
ARC
  8
LY_3
  6
CONTINUOUS
 62
             110
  5
1E6
 10
104.17236500000001
 20
32.999994999999998
 30
0.0
 40
0.75
 50
334.98329999999999
 51
25.0167
  0
ARC
  8
LY_3
  6
CONTINUOUS
 62
             110
  5
1E7
 10
104.17236500000001
 20
34.499988000000002
 30
0.0
 40
0.75
 50
334.98322999999999
 51
25.016825000000011
  0
ARC
  8
LY_3
  6
CONTINUOUS
 62
             110
  5
1E8
 10
104.17236500000001
 20
37.499994999999998
 30
0.0
 40
0.75
 50
334.983476
 51
25.016825000000011
  0
ARC
  8
LY_3
  6
CONTINUOUS
 62
             110
  5
1E9
 10
104.172363
 20
38.999988000000002
 30
0.0
 40
0.75
 50
334.98342300000002
 51
25.0167
  0
ARC
  8
LY_3
  6
CONTINUOUS
 62
             110
  5
1EA
 10
104.172363
 20
40.499980999999998
 30
0.0
 40
0.75
 50
334.98322999999999
 51
352.33923900000002
  0
LINE
  8
LY_3
  6
CONTINUOUS
 62
             110
  5
1EB
 10
104.85199800000001
 20
33.317157000000002
 30
0.0
 11
104.349349
 21
34.394266999999999
 31
0.0
  0
LINE
  8
LY_3
  6
CONTINUOUS
 62
             110
  5
1EC
 10
104.34936200000001
 20
34.605713999999999
 30
0.0
 11
104.852014
 21
35.682831
 31
0.0
  0
LINE
  8
LY_3
  6
CONTINUOUS
 62
             110
  5
1ED
 10
104.852013
 20
36.317155999999997
 30
0.0
 11
104.349361
 21
37.394272999999998
 31
0.0
  0
LINE
  8
LY_3
  6
CONTINUOUS
 62
             110
  5
1EE
 10
104.34935
 20
37.605710999999999
 30
0.0
 11
104.852002
 21
38.682828000000001
 31
0.0
  0
LINE
  8
LY_3
  6
CONTINUOUS
 62
             110
  5
1EF
 10
104.45067700000001
 20
33.105704000000003
 30
0.0
 11
103.948025
 21
34.18282
 31
0.0
  0
LINE
  8
LY_3
  6
CONTINUOUS
 62
             110
  5
1F0
 10
103.948035
 20
34.817154000000002
 30
0.0
 11
104.450687
 21
35.894271000000003
 31
0.0
  0
LINE
  8
LY_3
  6
CONTINUOUS
 62
             110
  5
1F1
 10
104.450676
 20
36.105702999999998
 30
0.0
 11
103.94801699999999
 21
37.182833000000002
 31
0.0
  0
LINE
  8
LY_3
  6
CONTINUOUS
 62
             110
  5
1F2
 10
103.94802300000001
 20
37.817151000000003
 30
0.0
 11
104.450675
 21
38.894267999999997
 31
0.0
  0
LINE
  8
LY_3
  6
CONTINUOUS
 62
             110
  5
1F3
 10
103.94803899999999
 20
33.317160999999999
 30
0.0
 11
104.15003100000001
 21
33.750002000000002
 31
0.0
  0
LINE
  8
LY_3
  6
CONTINUOUS
 62
             110
  5
1F4
 10
104.65002000000001
 20
33.749980999999998
 30
0.0
 11
104.85200800000001
 21
34.182816000000003
 31
0.0
  0
LINE
  8
LY_3
  6
CONTINUOUS
 62
             110
  5
1F5
 10
104.851995
 20
34.817155999999997
 30
0.0
 11
104.650007
 21
35.249991000000001
 31
0.0
  0
LINE
  8
LY_3
  6
CONTINUOUS
 62
             110
  5
1F6
 10
104.15000800000001
 20
35.249991000000001
 30
0.0
 11
103.948019
 21
35.682825999999999
 31
0.0
  0
LINE
  8
LY_3
  6
CONTINUOUS
 62
             110
  5
1F7
 10
103.94803400000001
 20
36.317155
 30
0.0
 11
104.150023
 21
36.749989999999997
 31
0.0
  0
LINE
  8
LY_3
  6
CONTINUOUS
 62
             110
  5
1F8
 10
104.65002800000001
 20
36.749994999999998
 30
0.0
 11
104.852023
 21
37.182842999999998
 31
0.0
  0
LINE
  8
LY_3
  6
CONTINUOUS
 62
             110
  5
1F9
 10
104.852014
 20
37.817148000000003
 30
0.0
 11
104.650019
 21
38.249997
 31
0.0
  0
CIRCLE
  8
LY_3
  6
CONTINUOUS
 62
             110
  5
1FA
 10
104.57589900000001
 20
34.499988000000002
 30
0.0
 40
0.25
  0
CIRCLE
  8
LY_3
  6
CONTINUOUS
 62
             110
  5
1FB
 10
104.57589900000001
 20
37.499988000000002
 30
0.0
 40
0.25
  0
CIRCLE
  8
LY_3
  6
CONTINUOUS
 62
             110
  5
1FC
 10
104.22413800000001
 20
32.999988000000002
 30
0.0
 40
0.25
  0
CIRCLE
  8
LY_3
  6
CONTINUOUS
 62
             110
  5
1FD
 10
104.22413800000001
 20
35.999988000000002
 30
0.0
 40
0.25
  0
LINE
  8
LY_3
  6
CONTINUOUS
 62
             110
  5
1FE
 10
104.150019
 20
38.249980999999998
 30
0.0
 11
103.948024
 21
38.682830000000003
 31
0.0
  0
CIRCLE
  8
LY_3
  6
CONTINUOUS
 62
             110
  5
1FF
 10
104.224136
 20
38.999980999999998
 30
0.0
 40
0.25
  0
ARC
  8
LY_3
  6
CONTINUOUS
 62
             110
  5
200
 10
104.575897
 20
40.499988000000002
 30
0.0
 40
0.25
 50
203.57523699999999
 51
336.42476299999998
  0
LINE
  8
LY_3
  6
CONTINUOUS
 62
             110
  5
201
 10
103.94802799999999
 20
39.317157000000002
 30
0.0
 11
104.150013
 21
39.749985000000002
 31
0.0
  0
LINE
  8
LY_3
  6
CONTINUOUS
 62
             110
  5
202
 10
104.650015
 20
39.749991999999999
 30
0.0
 11
104.85200399999999
 21
40.182827000000003
 31
0.0
  0
LINE
  8
LY_3
  6
CONTINUOUS
 62
             110
  5
203
 10
104.45068000000001
 20
39.105699000000001
 30
0.0
 11
103.948025
 21
40.182822000000002
 31
0.0
  0
LINE
  8
LY_3
  6
CONTINUOUS
 62
             110
  5
204
 10
104.852001
 20
39.317152999999998
 30
0.0
 11
104.36421200000001
 21
40.362417999999998
 31
0.0
  0
ARC
  8
LY_3
  6
CONTINUOUS
 62
             110
  5
205
 10
104.627655
 20
40.499980999999998
 30
0.0
 40
0.75
 50
187.66076100000001
 51
205.01678899999999
  0
ARC
  8
LY_3
  6
CONTINUOUS
 62
             110
  5
206
 10
104.62766999999999
 20
38.999988000000002
 30
0.0
 40
0.75
 50
154.98331700000003
 51
205.01659699999999
  0
ARC
  8
LY_3
  6
CONTINUOUS
 62
             110
  5
207
 10
104.627672
 20
35.999988000000002
 30
0.0
 40
0.75
 50
154.98331700000003
 51
205.01659699999999
  0
ARC
  8
LY_3
  6
CONTINUOUS
 62
             110
  5
208
 10
104.627672
 20
32.999994999999998
 30
0.0
 40
0.75
 50
154.98331700000003
 51
205.01671999999999
  0
ARC
  8
LY_3
  6
CONTINUOUS
 62
             110
  5
209
 10
104.627657
 20
34.499988000000002
 30
0.0
 40
0.75
 50
154.98319400000003
 51
205.01678899999999
  0
ARC
  8
LY_3
  6
CONTINUOUS
 62
             110
  5
20A
 10
104.627657
 20
37.499994999999998
 30
0.0
 40
0.75
 50
154.98319400000003
 51
205.01654300000001
  0
LINE
  8
LY_3
  6
CONTINUOUS
 62
               3
  5
20B
 10
100.800003
 20
40.450000000000003
 30
0.0
 11
103.800003
 21
40.450000000000003
 31
0.0
  0
LINE
  8
LY_3
  6
PHANTOM
 62
             110
  5
20C
 10
103.800003
 20
40.399999999999999
 30
0.0
 11
105.0
 21
40.399999999999999
 31
0.0
  0
LINE
  8
LY_3
  6
CONTINUOUS
 62
               3
  5
20D
 10
100.800003
 20
37.0
 30
0.0
 11
103.800003
 21
37.0
 31
0.0
  0
LINE
  8
LY_3
  6
CONTINUOUS
 62
               3
  5
20E
 10
100.800003
 20
0.0
 30
0.0
 11
100.800003
 21
40.450000000000003
 31
0.0
  0
INSERT
  8
LY_3
  6
BYBLOCK
 62
             110
  5
21C
  2
*X2
 10
0.0
 20
0.0
 30
0.0
  0
ARC
  8
LY_3
  6
CONTINUOUS
 62
               3
  5
21D
 10
104.0
 20
-48.0
 30
0.0
 40
2.5
 50
38.739424597855589
 51
141.26057540214421
  0
CIRCLE
  8
LY_3
  6
CONTINUOUS
 62
               3
  5
21E
 10
104.0
 20
48.252065734906473
 30
0.0
 40
2.665
  0
CIRCLE
  8
LY_3
  6
CONTINUOUS
 62
               3
  5
21F
 10
104.0
 20
-48.252065734906473
 30
0.0
 40
2.665
  0
TEXT
  8
LY_3
  6
CONTINUOUS
 62
             110
  5
220
 10
75.007653072743622
 20
-45.25
 30
0.0
 40
2.5
  1
VP2063-M
 41
0.9180000127140355
  7
MX_NOTE_STANDARD
 11
75.007653072743622
 21
-42.75
 31
0.0
 73
               3
  0
CIRCLE
  8
LY_3
  6
CONTINUOUS
 62
               3
  5
221
 10
84.0
 20
-38.552058519622676
 30
0.0
 40
2.665
  0
CIRCLE
  8
LY_3
  6
CONTINUOUS
 62
               3
  5
222
 10
84.0
 20
40.752065734906473
 30
0.0
 40
2.665
  0
LINE
  8
LY_3
  6
CONTINUOUS
 62
               3
  5
223
 10
80.0
 20
34.799999999999997
 30
0.0
 11
82.050000000000011
 21
34.799999999999997
 31
0.0
  0
LINE
  8
LY_3
  6
CONTINUOUS
 62
               3
  5
224
 10
80.0
 20
34.0
 30
0.0
 11
85.0
 21
34.0
 31
0.0
  0
LINE
  8
LY_3
  6
CONTINUOUS
 62
               3
  5
225
 10
80.0
 20
-34.799999999999997
 30
0.0
 11
80.0
 21
34.799999999999997
 31
0.0
  0
LINE
  8
LY_3
  6
CONTINUOUS
 62
               3
  5
226
 10
88.0
 20
-34.799999999999997
 30
0.0
 11
88.0
 21
34.799999999999997
 31
0.0
  0
LINE
  8
LY_3
  6
CONTINUOUS
 62
               3
  5
227
 10
85.950000000000003
 20
34.799999999999997
 30
0.0
 11
88.0
 21
34.799999999999997
 31
0.0
  0
LINE
  8
LY_3
  6
CONTINUOUS
 62
               3
  5
228
 10
85.950000000000003
 20
-36.735543999999997
 30
0.0
 11
85.950000000000003
 21
0.0
 31
0.0
  0
LINE
  8
LY_3
  6
CONTINUOUS
 62
               3
  5
229
 10
85.950000000000003
 20
-34.799999999999997
 30
0.0
 11
88.0
 21
-34.799999999999997
 31
0.0
  0
LINE
  8
LY_3
  6
CONTINUOUS
 62
               3
  5
22A
 10
82.050000000000011
 20
-36.735543999999997
 30
0.0
 11
82.050000000000011
 21
0.0
 31
0.0
  0
LINE
  8
LY_3
  6
CONTINUOUS
 62
               3
  5
22B
 10
80.0
 20
-34.799999999999997
 30
0.0
 11
82.050000000000011
 21
-34.799999999999997
 31
0.0
  0
LINE
  8
LY_3
  6
CONTINUOUS
 62
               3
  5
22C
 10
85.0
 20
31.0
 30
0.0
 11
88.0
 21
31.0
 31
0.0
  0
LINE
  8
LY_3
  6
CONTINUOUS
 62
               3
  5
22D
 10
85.0
 20
0.0
 30
0.0
 11
85.0
 21
34.0
 31
0.0
  0
LINE
  8
LY_3
  6
CONTINUOUS
 62
               3
  5
22E
 10
83.800003000000004
 20
0.0
 30
0.0
 11
83.800003000000004
 21
33.950000000000003
 31
0.0
  0
LINE
  8
LY_3
  6
CONTINUOUS
 62
               3
  5
22F
 10
81.800003000000004
 20
0.0
 30
0.0
 11
81.800003000000004
 21
33.950000000000003
 31
0.0
  0
LINE
  8
LY_3
  6
CONTINUOUS
 62
             110
  5
230
 10
84.851982000000007
 20
0.31717
 30
0.0
 11
84.349333000000001
 21
1.39428
 31
0.0
  0
LINE
  8
LY_3
  6
CONTINUOUS
 62
             110
  5
231
 10
84.349338000000003
 20
1.605721
 30
0.0
 11
84.851990000000001
 21
2.6828370000000001
 31
0.0
  0
LINE
  8
LY_3
  6
CONTINUOUS
 62
             110
  5
232
 10
84.852001000000001
 20
3.3171620000000002
 30
0.0
 11
84.349348000000006
 21
4.3942779999999999
 31
0.0
  0
LINE
  8
LY_3
  6
CONTINUOUS
 62
             110
  5
233
 10
84.349350000000001
 20
4.6057240000000004
 30
0.0
 11
84.852001999999999
 21
5.6828399999999997
 31
0.0
  0
LINE
  8
LY_3
  6
CONTINUOUS
 62
             110
  5
234
 10
84.851994000000005
 20
6.3171670000000004
 30
0.0
 11
84.349342000000007
 21
7.3942839999999999
 31
0.0
  0
LINE
  8
LY_3
  6
CONTINUOUS
 62
             110
  5
235
 10
84.349355000000003
 20
7.605721
 30
0.0
 11
84.852012999999999
 21
8.6828520000000005
 31
0.0
  0
LINE
  8
LY_3
  6
CONTINUOUS
 62
             110
  5
236
 10
84.851986000000011
 20
9.3171719999999993
 30
0.0
 11
84.364197000000004
 21
10.362437
 31
0.0
  0
LINE
  8
LY_3
  6
CONTINUOUS
 62
             110
  5
237
 10
84.851998000000009
 20
11.682850999999999
 30
0.0
 11
84.349345999999997
 21
10.605734
 31
0.0
  0
LINE
  8
LY_3
  6
CONTINUOUS
 62
             110
  5
238
 10
84.851979999999998
 20
12.317170000000001
 30
0.0
 11
84.349331000000006
 21
13.394278999999999
 31
0.0
  0
LINE
  8
LY_3
  6
CONTINUOUS
 62
             110
  5
239
 10
84.349344000000002
 20
13.605726000000001
 30
0.0
 11
84.851996000000014
 21
14.682843
 31
0.0
  0
LINE
  8
LY_3
  6
CONTINUOUS
 62
             110
  5
23A
 10
84.851996000000014
 20
15.317169
 30
0.0
 11
84.349344000000002
 21
16.394285
 31
0.0
  0
LINE
  8
LY_3
  6
CONTINUOUS
 62
             110
  5
23B
 10
84.349332000000004
 20
16.605723999999999
 30
0.0
 11
84.851985000000013
 21
17.682839999999999
 31
0.0
  0
LINE
  8
LY_3
  6
CONTINUOUS
 62
             110
  5
23C
 10
84.450658000000004
 20
0.105723
 30
0.0
 11
83.948003
 21
1.1828460000000001
 31
0.0
  0
LINE
  8
LY_3
  6
CONTINUOUS
 62
             110
  5
23D
 10
83.948014000000001
 20
1.817167
 30
0.0
 11
84.450666000000012
 21
2.8942839999999999
 31
0.0
  0
LINE
  8
LY_3
  6
CONTINUOUS
 62
             110
  5
23E
 10
84.450656000000009
 20
3.1057220000000001
 30
0.0
 11
83.947998000000013
 21
4.1828529999999997
 31
0.0
  0
LINE
  8
LY_3
  6
CONTINUOUS
 62
             110
  5
23F
 10
83.948025999999999
 20
4.8171710000000001
 30
0.0
 11
84.450681000000003
 21
5.8942940000000004
 31
0.0
  0
LINE
  8
LY_3
  6
CONTINUOUS
 62
             110
  5
240
 10
84.450664000000003
 20
6.105734
 30
0.0
 11
83.948018000000005
 21
7.1828370000000001
 31
0.0
  0
LINE
  8
LY_3
  6
CONTINUOUS
 62
             110
  5
241
 10
83.948024000000004
 20
7.8171540000000004
 30
0.0
 11
84.450677000000013
 21
8.8942709999999998
 31
0.0
  0
LINE
  8
LY_3
  6
CONTINUOUS
 62
             110
  5
242
 10
84.450665000000001
 20
9.1057179999999995
 30
0.0
 11
83.948010000000011
 21
10.182842000000001
 31
0.0
  0
LINE
  8
LY_3
  6
CONTINUOUS
 62
             110
  5
243
 10
83.948014999999998
 20
10.817167
 30
0.0
 11
84.450668000000007
 21
11.894284000000001
 31
0.0
  0
LINE
  8
LY_3
  6
CONTINUOUS
 62
             110
  5
244
 10
84.450659999999999
 20
12.105715999999999
 30
0.0
 11
83.948008000000002
 21
13.182831999999999
 31
0.0
  0
LINE
  8
LY_3
  6
CONTINUOUS
 62
             110
  5
245
 10
83.948016999999993
 20
13.817166
 30
0.0
 11
84.450669000000005
 21
14.894283
 31
0.0
  0
LINE
  8
LY_3
  6
CONTINUOUS
 62
             110
  5
246
 10
84.450658000000004
 20
15.105715
 30
0.0
 11
83.94799900000001
 21
16.182846000000001
 31
0.0
  0
LINE
  8
LY_3
  6
CONTINUOUS
 62
             110
  5
247
 10
83.948004999999995
 20
16.817163999999998
 30
0.0
 11
84.450657000000007
 21
17.894279999999998
 31
0.0
  0
LINE
  8
LY_3
  6
CONTINUOUS
 62
             110
  5
248
 10
83.948035000000004
 20
0.317166
 30
0.0
 11
84.15002100000001
 21
0.7499940000000001
 31
0.0
  0
LINE
  8
LY_3
  6
CONTINUOUS
 62
             110
  5
249
 10
84.650002000000001
 20
0.750002
 30
0.0
 11
84.851990999999998
 21
1.1828369999999999
 31
0.0
  0
LINE
  8
LY_3
  6
CONTINUOUS
 62
             110
  5
24A
 10
84.149997000000013
 20
2.249997
 30
0.0
 11
83.948004999999995
 21
2.682839
 31
0.0
  0
LINE
  8
LY_3
  6
CONTINUOUS
 62
             110
  5
24B
 10
84.851984000000002
 20
1.8171630000000001
 30
0.0
 11
84.649996000000002
 21
2.2499980000000002
 31
0.0
  0
LINE
  8
LY_3
  6
CONTINUOUS
 62
             110
  5
24C
 10
83.948013000000003
 20
3.3171590000000002
 30
0.0
 11
84.150002000000001
 21
3.749994
 31
0.0
  0
LINE
  8
LY_3
  6
CONTINUOUS
 62
             110
  5
24D
 10
84.650007000000002
 20
3.7500079999999998
 30
0.0
 11
84.851999000000006
 21
4.1828500000000002
 31
0.0
  0
LINE
  8
LY_3
  6
CONTINUOUS
 62
             110
  5
24E
 10
84.149990000000003
 20
5.2500030000000004
 30
0.0
 11
83.948002000000002
 21
5.6828380000000003
 31
0.0
  0
LINE
  8
LY_3
  6
CONTINUOUS
 62
             110
  5
24F
 10
84.851990000000001
 20
4.8171739999999996
 30
0.0
 11
84.650001000000003
 21
5.2500090000000004
 31
0.0
  0
LINE
  8
LY_3
  6
CONTINUOUS
 62
             110
  5
250
 10
83.948003999999997
 20
6.3171720000000002
 30
0.0
 11
84.149992999999995
 21
6.7500070000000001
 31
0.0
  0
LINE
  8
LY_3
  6
CONTINUOUS
 62
             110
  5
251
 10
84.649991999999997
 20
6.7500070000000001
 30
0.0
 11
84.851979999999998
 21
7.1828419999999999
 31
0.0
  0
LINE
  8
LY_3
  6
CONTINUOUS
 62
             110
  5
252
 10
84.851995000000002
 20
7.8171590000000002
 30
0.0
 11
84.654268999999999
 21
8.2408599999999996
 31
0.0
  0
LINE
  8
LY_3
  6
CONTINUOUS
 62
             110
  5
253
 10
84.150003999999996
 20
8.2500009999999993
 30
0.0
 11
83.948009000000013
 21
8.6828500000000002
 31
0.0
  0
LINE
  8
LY_3
  6
CONTINUOUS
 62
             110
  5
254
 10
84.650000000000006
 20
9.7500110000000006
 30
0.0
 11
84.851989000000003
 21
10.182846
 31
0.0
  0
LINE
  8
LY_3
  6
CONTINUOUS
 62
             110
  5
255
 10
83.948013000000003
 20
9.3171769999999992
 30
0.0
 11
84.149998000000011
 21
9.7500049999999998
 31
0.0
  0
LINE
  8
LY_3
  6
CONTINUOUS
 62
             110
  5
256
 10
84.851989000000003
 20
10.817157
 30
0.0
 11
84.649997000000013
 21
11.249999000000001
 31
0.0
  0
LINE
  8
LY_3
  6
CONTINUOUS
 62
             110
  5
257
 10
83.948007000000004
 20
11.682840000000001
 30
0.0
 11
84.150002000000001
 21
11.249992000000001
 31
0.0
  0
LINE
  8
LY_3
  6
CONTINUOUS
 62
             110
  5
258
 10
83.948021000000011
 20
12.317173
 30
0.0
 11
84.150013000000001
 21
12.750014999999999
 31
0.0
  0
LINE
  8
LY_3
  6
CONTINUOUS
 62
             110
  5
259
 10
84.650002000000001
 20
12.749993999999999
 30
0.0
 11
84.851990999999998
 21
13.182829
 31
0.0
  0
LINE
  8
LY_3
  6
CONTINUOUS
 62
             110
  5
25A
 10
84.851978000000003
 20
13.817169
 30
0.0
 11
84.649989000000005
 21
14.250003
 31
0.0
  0
LINE
  8
LY_3
  6
CONTINUOUS
 62
             110
  5
25B
 10
84.149991
 20
14.250003
 30
0.0
 11
83.948002000000002
 21
14.682838
 31
0.0
  0
LINE
  8
LY_3
  6
CONTINUOUS
 62
             110
  5
25C
 10
83.948015999999996
 20
15.317167
 30
0.0
 11
84.150004999999993
 21
15.750002
 31
0.0
  0
LINE
  8
LY_3
  6
CONTINUOUS
 62
             110
  5
25D
 10
84.650010000000009
 20
15.750007
 30
0.0
 11
84.852005000000005
 21
16.182856000000001
 31
0.0
  0
LINE
  8
LY_3
  6
CONTINUOUS
 62
             110
  5
25E
 10
84.851996000000014
 20
16.817160000000001
 30
0.0
 11
84.650001000000003
 21
17.250008999999999
 31
0.0
  0
LINE
  8
LY_3
  6
CENTER
 62
             110
  5
25F
 10
75.975465
 20
0.0
 30
0.0
 11
91.222915
 21
0.0
 31
0.0
  0
ARC
  8
LY_3
  6
CONTINUOUS
 62
               3
  5
260
 10
84.0
 20
40.5
 30
0.0
 40
2.5
 50
218.73942459785582
 51
321.26057540214441
  0
ARC
  8
LY_3
  6
CONTINUOUS
 62
               3
  5
261
 10
84.0
 20
-38.299992000000003
 30
0.0
 40
2.5
 50
38.739424999999997
 51
141.26057499999999
  0
CIRCLE
  8
LY_3
  6
CONTINUOUS
 62
             110
  5
262
 10
84.575882000000007
 20
1.5
 30
0.0
 40
0.25
  0
CIRCLE
  8
LY_3
  6
CONTINUOUS
 62
             110
  5
263
 10
84.575882000000007
 20
4.5
 30
0.0
 40
0.25
  0
CIRCLE
  8
LY_3
  6
CONTINUOUS
 62
             110
  5
264
 10
84.575882000000007
 20
7.5000080000000002
 30
0.0
 40
0.25
  0
CIRCLE
  8
LY_3
  6
CONTINUOUS
 62
             110
  5
265
 10
84.575882000000007
 20
10.500007999999999
 30
0.0
 40
0.25
  0
CIRCLE
  8
LY_3
  6
CONTINUOUS
 62
             110
  5
266
 10
84.575882000000007
 20
13.5
 30
0.0
 40
0.25
  0
CIRCLE
  8
LY_3
  6
CONTINUOUS
 62
             110
  5
267
 10
84.575882000000007
 20
16.5
 30
0.0
 40
0.25
  0
CIRCLE
  8
LY_3
  6
CONTINUOUS
 62
             110
  5
268
 10
84.224120999999997
 20
3.0
 30
0.0
 40
0.25
  0
CIRCLE
  8
LY_3
  6
CONTINUOUS
 62
             110
  5
269
 10
84.224106000000006
 20
6.0000080000000002
 30
0.0
 40
0.25
  0
CIRCLE
  8
LY_3
  6
CONTINUOUS
 62
             110
  5
26A
 10
84.224120999999997
 20
9.0
 30
0.0
 40
0.25
  0
CIRCLE
  8
LY_3
  6
CONTINUOUS
 62
             110
  5
26B
 10
84.224120999999997
 20
12.0
 30
0.0
 40
0.25
  0
CIRCLE
  8
LY_3
  6
CONTINUOUS
 62
             110
  5
26C
 10
84.224120999999997
 20
15.0
 30
0.0
 40
0.25
  0
ARC
  8
LY_3
  6
CONTINUOUS
 62
             110
  5
26D
 10
84.224120999999997
 20
0.0
 30
0.0
 40
0.25
 50
0.0
 51
181.050884
  0
ARC
  8
LY_3
  6
CONTINUOUS
 62
             110
  5
26E
 10
84.627639000000002
 20
16.500008000000001
 30
0.0
 40
0.75
 50
154.98319400000003
 51
205.01654300000001
  0
ARC
  8
LY_3
  6
CONTINUOUS
 62
             110
  5
26F
 10
84.627639000000002
 20
13.5
 30
0.0
 40
0.75
 50
154.98319400000003
 51
205.01678899999999
  0
ARC
  8
LY_3
  6
CONTINUOUS
 62
             110
  5
270
 10
84.172348
 20
15.0
 30
0.0
 40
0.75
 50
334.98342300000002
 51
25.0167
  0
ARC
  8
LY_3
  6
CONTINUOUS
 62
             110
  5
271
 10
84.172348
 20
12.000007999999999
 30
0.0
 40
0.75
 50
334.98329999999999
 51
25.0167
  0
ARC
  8
LY_3
  6
CONTINUOUS
 62
             110
  5
272
 10
84.627639000000002
 20
10.5
 30
0.0
 40
0.75
 50
154.98319400000003
 51
205.01678899999999
  0
ARC
  8
LY_3
  6
CONTINUOUS
 62
             110
  5
273
 10
84.172348
 20
9.0000079999999993
 30
0.0
 40
0.75
 50
334.98342300000002
 51
25.0167
  0
ARC
  8
LY_3
  6
CONTINUOUS
 62
             110
  5
274
 10
84.627655000000004
 20
7.5
 30
0.0
 40
0.75
 50
154.98331700000003
 51
205.01666599999999
  0
ARC
  8
LY_3
  6
CONTINUOUS
 62
             110
  5
275
 10
84.172348
 20
6.0
 30
0.0
 40
0.75
 50
334.98329999999999
 51
25.0167
  0
ARC
  8
LY_3
  6
CONTINUOUS
 62
             110
  5
276
 10
84.627639000000002
 20
4.5000080000000002
 30
0.0
 40
0.75
 50
154.98319400000003
 51
205.01654300000001
  0
ARC
  8
LY_3
  6
CONTINUOUS
 62
             110
  5
277
 10
84.172348
 20
3.0
 30
0.0
 40
0.75
 50
334.98342300000002
 51
25.0167
  0
ARC
  8
LY_3
  6
CONTINUOUS
 62
             110
  5
278
 10
84.627639000000002
 20
1.5
 30
0.0
 40
0.75
 50
154.98319400000003
 51
205.01678899999999
  0
ARC
  8
LY_3
  6
CONTINUOUS
 62
             110
  5
279
 10
84.172348
 20
0.000008
 30
0.0
 40
0.75
 50
359.99941699999999
 51
25.0167
  0
ARC
  8
LY_3
  6
CONTINUOUS
 62
             110
  5
27A
 10
84.627655000000004
 20
0.000008
 30
0.0
 40
0.75
 50
154.98331700000003
 51
180.00059200000001
  0
ARC
  8
LY_3
  6
CONTINUOUS
 62
             110
  5
27B
 10
84.172348
 20
1.5
 30
0.0
 40
0.75
 50
334.98322999999999
 51
25.016825000000011
  0
ARC
  8
LY_3
  6
CONTINUOUS
 62
             110
  5
27C
 10
84.627655000000004
 20
3.0
 30
0.0
 40
0.75
 50
154.98331700000003
 51
205.01659699999999
  0
ARC
  8
LY_3
  6
CONTINUOUS
 62
             110
  5
27D
 10
84.172348
 20
4.5000080000000002
 30
0.0
 40
0.75
 50
334.983476
 51
25.016825000000011
  0
ARC
  8
LY_3
  6
CONTINUOUS
 62
             110
  5
27E
 10
84.627655000000004
 20
6.0
 30
0.0
 40
0.75
 50
154.98331700000003
 51
205.01671999999999
  0
ARC
  8
LY_3
  6
CONTINUOUS
 62
             110
  5
27F
 10
84.172348
 20
7.5
 30
0.0
 40
0.75
 50
334.98335300000002
 51
25.016702000000009
  0
ARC
  8
LY_3
  6
CONTINUOUS
 62
             110
  5
280
 10
84.627655000000004
 20
9.0000079999999993
 30
0.0
 40
0.75
 50
154.98331700000003
 51
205.01659699999999
  0
ARC
  8
LY_3
  6
CONTINUOUS
 62
             110
  5
281
 10
84.172348
 20
10.5
 30
0.0
 40
0.75
 50
334.98322999999999
 51
25.016825000000011
  0
ARC
  8
LY_3
  6
CONTINUOUS
 62
             110
  5
282
 10
84.627655000000004
 20
12.000007999999999
 30
0.0
 40
0.75
 50
154.98331700000003
 51
205.01671999999999
  0
ARC
  8
LY_3
  6
CONTINUOUS
 62
             110
  5
283
 10
84.172348
 20
13.5
 30
0.0
 40
0.75
 50
334.98322999999999
 51
25.016825000000011
  0
ARC
  8
LY_3
  6
CONTINUOUS
 62
             110
  5
284
 10
84.627655000000004
 20
15.0
 30
0.0
 40
0.75
 50
154.98331700000003
 51
205.01659699999999
  0
ARC
  8
LY_3
  6
CONTINUOUS
 62
             110
  5
285
 10
84.172348
 20
16.500008000000001
 30
0.0
 40
0.75
 50
334.983476
 51
25.016825000000011
  0
LINE
  8
LY_3
  6
CONTINUOUS
 62
               3
  5
286
 10
85.950000000000003
 20
34.799999999999997
 30
0.0
 11
85.950000000000003
 21
38.935551215283802
 31
0.0
  0
LINE
  8
LY_3
  6
CONTINUOUS
 62
               3
  5
287
 10
82.050000000000011
 20
34.799999999999997
 30
0.0
 11
82.050000000000011
 21
38.935551215283795
 31
0.0
  0
LINE
  8
LY_3
  6
CONTINUOUS
 62
             110
  5
288
 10
84.150002000000001
 20
17.249994000000001
 30
0.0
 11
83.948007000000004
 21
17.682842999999998
 31
0.0
  0
ARC
  8
LY_3
  6
CONTINUOUS
 62
             110
  5
289
 10
84.172345000000007
 20
21.000001000000001
 30
0.0
 40
0.75
 50
334.98329999999999
 51
25.0167
  0
ARC
  8
LY_3
  6
CONTINUOUS
 62
             110
  5
28A
 10
84.172345000000007
 20
18.000001000000001
 30
0.0
 40
0.75
 50
334.98342300000002
 51
25.0167
  0
ARC
  8
LY_3
  6
CONTINUOUS
 62
             110
  5
28B
 10
84.172345000000007
 20
19.499993
 30
0.0
 40
0.75
 50
334.98322999999999
 51
25.016825000000011
  0
ARC
  8
LY_3
  6
CONTINUOUS
 62
             110
  5
28C
 10
84.172345000000007
 20
22.499993
 30
0.0
 40
0.75
 50
334.98322999999999
 51
25.016825000000011
  0
ARC
  8
LY_3
  6
CONTINUOUS
 62
             110
  5
28D
 10
84.627652000000012
 20
21.000001000000001
 30
0.0
 40
0.75
 50
154.98331700000003
 51
205.01671999999999
  0
ARC
  8
LY_3
  6
CONTINUOUS
 62
             110
  5
28E
 10
84.627652000000012
 20
18.000001000000001
 30
0.0
 40
0.75
 50
154.98331700000003
 51
205.01659699999999
  0
ARC
  8
LY_3
  6
CONTINUOUS
 62
             110
  5
28F
 10
84.627636999999993
 20
19.499993
 30
0.0
 40
0.75
 50
154.98319400000003
 51
205.01678899999999
  0
ARC
  8
LY_3
  6
CONTINUOUS
 62
             110
  5
290
 10
84.627636999999993
 20
22.499993
 30
0.0
 40
0.75
 50
154.98319400000003
 51
205.01678899999999
  0
CIRCLE
  8
LY_3
  6
CONTINUOUS
 62
             110
  5
291
 10
84.224118000000004
 20
20.999993
 30
0.0
 40
0.25
  0
CIRCLE
  8
LY_3
  6
CONTINUOUS
 62
             110
  5
292
 10
84.224118000000004
 20
17.999993
 30
0.0
 40
0.25
  0
CIRCLE
  8
LY_3
  6
CONTINUOUS
 62
             110
  5
293
 10
84.575879
 20
22.499993
 30
0.0
 40
0.25
  0
CIRCLE
  8
LY_3
  6
CONTINUOUS
 62
             110
  5
294
 10
84.575879
 20
19.500001000000001
 30
0.0
 40
0.25
  0
LINE
  8
LY_3
  6
CONTINUOUS
 62
             110
  5
295
 10
84.149988000000008
 20
23.249995999999999
 30
0.0
 11
83.948000000000008
 21
23.682831
 31
0.0
  0
LINE
  8
LY_3
  6
CONTINUOUS
 62
             110
  5
296
 10
84.851976000000008
 20
22.817160999999999
 30
0.0
 11
84.64998700000001
 21
23.249995999999999
 31
0.0
  0
LINE
  8
LY_3
  6
CONTINUOUS
 62
             110
  5
297
 10
84.650000000000006
 20
21.749987000000001
 30
0.0
 11
84.851989000000003
 21
22.182822000000002
 31
0.0
  0
LINE
  8
LY_3
  6
CONTINUOUS
 62
             110
  5
298
 10
83.948019000000002
 20
21.317166
 30
0.0
 11
84.150011000000006
 21
21.750008000000001
 31
0.0
  0
LINE
  8
LY_3
  6
CONTINUOUS
 62
             110
  5
299
 10
83.948004999999995
 20
20.682832999999999
 30
0.0
 11
84.150000000000006
 21
20.249984999999999
 31
0.0
  0
LINE
  8
LY_3
  6
CONTINUOUS
 62
             110
  5
29A
 10
84.851987000000008
 20
19.817150000000002
 30
0.0
 11
84.649995000000004
 21
20.249991999999999
 31
0.0
  0
LINE
  8
LY_3
  6
CONTINUOUS
 62
             110
  5
29B
 10
83.948010000000011
 20
18.317170000000001
 30
0.0
 11
84.149996000000002
 21
18.749998000000001
 31
0.0
  0
LINE
  8
LY_3
  6
CONTINUOUS
 62
             110
  5
29C
 10
84.649998000000011
 20
18.750004000000001
 30
0.0
 11
84.851986000000011
 21
19.182839000000001
 31
0.0
  0
LINE
  8
LY_3
  6
CONTINUOUS
 62
             110
  5
29D
 10
83.948014999999998
 20
22.817159
 30
0.0
 11
84.45066700000001
 21
23.894276000000001
 31
0.0
  0
LINE
  8
LY_3
  6
CONTINUOUS
 62
             110
  5
29E
 10
84.450658000000004
 20
21.105709000000001
 30
0.0
 11
83.948004999999995
 21
22.182825000000001
 31
0.0
  0
LINE
  8
LY_3
  6
CONTINUOUS
 62
             110
  5
29F
 10
83.948013000000003
 20
19.817160000000001
 30
0.0
 11
84.450665000000001
 21
20.894276999999999
 31
0.0
  0
LINE
  8
LY_3
  6
CONTINUOUS
 62
             110
  5
2A0
 10
84.450663000000006
 20
18.105710999999999
 30
0.0
 11
83.948007000000004
 21
19.182834
 31
0.0
  0
LINE
  8
LY_3
  6
CONTINUOUS
 62
             110
  5
2A1
 10
84.349342000000007
 20
22.605719000000001
 30
0.0
 11
84.851994000000005
 21
23.682836000000002
 31
0.0
  0
LINE
  8
LY_3
  6
CONTINUOUS
 62
             110
  5
2A2
 10
84.851978000000003
 20
21.317163000000001
 30
0.0
 11
84.349329000000012
 21
22.394272000000001
 31
0.0
  0
LINE
  8
LY_3
  6
CONTINUOUS
 62
             110
  5
2A3
 10
84.851996000000014
 20
20.682842999999998
 30
0.0
 11
84.349343000000005
 21
19.605727000000002
 31
0.0
  0
LINE
  8
LY_3
  6
CONTINUOUS
 62
             110
  5
2A4
 10
84.851983000000004
 20
18.317164999999999
 30
0.0
 11
84.364194999999995
 21
19.36243
 31
0.0
  0
ARC
  8
LY_3
  6
CONTINUOUS
 62
             110
  5
2A5
 10
84.627646999999996
 20
28.499998000000001
 30
0.0
 40
0.75
 50
154.98319400000003
 51
205.01654300000001
  0
ARC
  8
LY_3
  6
CONTINUOUS
 62
             110
  5
2A6
 10
84.627646999999996
 20
25.49999
 30
0.0
 40
0.75
 50
154.98319400000003
 51
205.01678899999999
  0
ARC
  8
LY_3
  6
CONTINUOUS
 62
             110
  5
2A7
 10
84.172356000000008
 20
26.99999
 30
0.0
 40
0.75
 50
334.98342300000002
 51
25.0167
  0
ARC
  8
LY_3
  6
CONTINUOUS
 62
             110
  5
2A8
 10
84.172356000000008
 20
23.999998000000001
 30
0.0
 40
0.75
 50
334.98329999999999
 51
25.0167
  0
ARC
  8
LY_3
  6
CONTINUOUS
 62
             110
  5
2A9
 10
84.627663000000013
 20
23.999998000000001
 30
0.0
 40
0.75
 50
154.98331700000003
 51
205.01671999999999
  0
ARC
  8
LY_3
  6
CONTINUOUS
 62
             110
  5
2AA
 10
84.172356000000008
 20
25.49999
 30
0.0
 40
0.75
 50
334.98322999999999
 51
25.016825000000011
  0
ARC
  8
LY_3
  6
CONTINUOUS
 62
             110
  5
2AB
 10
84.627663000000013
 20
26.99999
 30
0.0
 40
0.75
 50
154.98331700000003
 51
205.01659699999999
  0
ARC
  8
LY_3
  6
CONTINUOUS
 62
             110
  5
2AC
 10
84.172356000000008
 20
28.499998000000001
 30
0.0
 40
0.75
 50
334.983476
 51
25.016825000000011
  0
ARC
  8
LY_3
  6
CONTINUOUS
 62
             110
  5
2AD
 10
84.172353000000001
 20
32.999991000000001
 30
0.0
 40
0.75
 50
334.98329999999999
 51
25.0167
  0
ARC
  8
LY_3
  6
CONTINUOUS
 62
             110
  5
2AE
 10
84.172353000000001
 20
29.999991000000001
 30
0.0
 40
0.75
 50
334.98342300000002
 51
25.0167
  0
ARC
  8
LY_3
  6
CONTINUOUS
 62
             110
  5
2AF
 10
84.172353000000001
 20
31.499983
 30
0.0
 40
0.75
 50
334.98322999999999
 51
25.016825000000011
  0
ARC
  8
LY_3
  6
CONTINUOUS
 62
             110
  5
2B0
 10
84.627660000000006
 20
32.999991000000001
 30
0.0
 40
0.75
 50
154.98331700000003
 51
205.01671999999999
  0
ARC
  8
LY_3
  6
CONTINUOUS
 62
             110
  5
2B1
 10
84.627660000000006
 20
29.999991000000001
 30
0.0
 40
0.75
 50
154.98331700000003
 51
205.01659699999999
  0
ARC
  8
LY_3
  6
CONTINUOUS
 62
             110
  5
2B2
 10
84.627645000000001
 20
31.499983
 30
0.0
 40
0.75
 50
154.98319400000003
 51
205.01678899999999
  0
LINE
  8
LY_3
  6
CONTINUOUS
 62
             110
  5
2B3
 10
84.851990999999998
 20
30.317155
 30
0.0
 11
84.364203000000003
 21
31.36242
 31
0.0
  0
LINE
  8
LY_3
  6
CONTINUOUS
 62
             110
  5
2B4
 10
84.852003999999994
 20
32.682834
 30
0.0
 11
84.349351000000013
 21
31.605716999999999
 31
0.0
  0
LINE
  8
LY_3
  6
CONTINUOUS
 62
             110
  5
2B5
 10
84.851986000000011
 20
33.317152999999998
 30
0.0
 11
84.579992000000004
 21
33.899999999999999
 31
0.0
  0
LINE
  8
LY_3
  6
CONTINUOUS
 62
             110
  5
2B6
 10
84.450671
 20
30.105701
 30
0.0
 11
83.948014999999998
 21
31.182825000000001
 31
0.0
  0
LINE
  8
LY_3
  6
CONTINUOUS
 62
             110
  5
2B7
 10
83.948021000000011
 20
31.817150000000002
 30
0.0
 11
84.450672999999995
 21
32.894266999999999
 31
0.0
  0
LINE
  8
LY_3
  6
CONTINUOUS
 62
             110
  5
2B8
 10
84.450666000000012
 20
33.105699000000001
 30
0.0
 11
84.079993000000002
 21
33.899999999999999
 31
0.0
  0
LINE
  8
LY_3
  6
CONTINUOUS
 62
             110
  5
2B9
 10
84.650006000000005
 20
30.749994000000001
 30
0.0
 11
84.851994000000005
 21
31.182829000000002
 31
0.0
  0
LINE
  8
LY_3
  6
CONTINUOUS
 62
             110
  5
2BA
 10
83.948018000000005
 20
30.317160000000001
 30
0.0
 11
84.150003999999996
 21
30.749987999999998
 31
0.0
  0
LINE
  8
LY_3
  6
CONTINUOUS
 62
             110
  5
2BB
 10
84.851995000000002
 20
31.817139999999998
 30
0.0
 11
84.650002999999998
 21
32.249982000000003
 31
0.0
  0
LINE
  8
LY_3
  6
CONTINUOUS
 62
             110
  5
2BC
 10
83.948013000000003
 20
32.682822999999999
 30
0.0
 11
84.150008000000014
 21
32.249974999999999
 31
0.0
  0
LINE
  8
LY_3
  6
CONTINUOUS
 62
             110
  5
2BD
 10
83.948026999999996
 20
33.317155999999997
 30
0.0
 11
84.150019
 21
33.749997999999998
 31
0.0
  0
LINE
  8
LY_3
  6
CONTINUOUS
 62
             110
  5
2BE
 10
84.650008000000014
 20
33.749977000000001
 30
0.0
 11
84.72001800000001
 21
33.899999999999999
 31
0.0
  0
CIRCLE
  8
LY_3
  6
CONTINUOUS
 62
             110
  5
2BF
 10
84.575886999999994
 20
31.499991000000001
 30
0.0
 40
0.25
  0
CIRCLE
  8
LY_3
  6
CONTINUOUS
 62
             110
  5
2C0
 10
84.224126000000012
 20
29.999983
 30
0.0
 40
0.25
  0
CIRCLE
  8
LY_3
  6
CONTINUOUS
 62
             110
  5
2C1
 10
84.224126000000012
 20
32.999983
 30
0.0
 40
0.25
  0
LINE
  8
LY_3
  6
CONTINUOUS
 62
             110
  5
2C2
 10
84.150010000000009
 20
29.249984000000001
 30
0.0
 11
83.948014999999998
 21
29.682832999999999
 31
0.0
  0
CIRCLE
  8
LY_3
  6
CONTINUOUS
 62
             110
  5
2C3
 10
84.224129000000005
 20
26.99999
 30
0.0
 40
0.25
  0
CIRCLE
  8
LY_3
  6
CONTINUOUS
 62
             110
  5
2C4
 10
84.224129000000005
 20
23.99999
 30
0.0
 40
0.25
  0
CIRCLE
  8
LY_3
  6
CONTINUOUS
 62
             110
  5
2C5
 10
84.575890000000001
 20
28.49999
 30
0.0
 40
0.25
  0
CIRCLE
  8
LY_3
  6
CONTINUOUS
 62
             110
  5
2C6
 10
84.575890000000001
 20
25.49999
 30
0.0
 40
0.25
  0
LINE
  8
LY_3
  6
CONTINUOUS
 62
             110
  5
2C7
 10
84.852003999999994
 20
28.817150999999999
 30
0.0
 11
84.650009000000011
 21
29.249998999999999
 31
0.0
  0
LINE
  8
LY_3
  6
CONTINUOUS
 62
             110
  5
2C8
 10
84.650018000000003
 20
27.749997
 30
0.0
 11
84.852012999999999
 21
28.182846000000001
 31
0.0
  0
LINE
  8
LY_3
  6
CONTINUOUS
 62
             110
  5
2C9
 10
83.948024000000004
 20
27.317157000000002
 30
0.0
 11
84.150013000000001
 21
27.749991999999999
 31
0.0
  0
LINE
  8
LY_3
  6
CONTINUOUS
 62
             110
  5
2CA
 10
84.149999000000008
 20
26.249993
 30
0.0
 11
83.948010000000011
 21
26.682828000000001
 31
0.0
  0
LINE
  8
LY_3
  6
CONTINUOUS
 62
             110
  5
2CB
 10
84.851986000000011
 20
25.817159
 30
0.0
 11
84.649997000000013
 21
26.249994000000001
 31
0.0
  0
LINE
  8
LY_3
  6
CONTINUOUS
 62
             110
  5
2CC
 10
84.650010000000009
 20
24.749984000000001
 30
0.0
 11
84.851999000000006
 21
25.182818999999999
 31
0.0
  0
LINE
  8
LY_3
  6
CONTINUOUS
 62
             110
  5
2CD
 10
83.948029000000005
 20
24.317163000000001
 30
0.0
 11
84.15002100000001
 21
24.750005000000002
 31
0.0
  0
LINE
  8
LY_3
  6
CONTINUOUS
 62
             110
  5
2CE
 10
83.948013000000003
 20
28.817153999999999
 30
0.0
 11
84.450665000000001
 21
29.894269999999999
 31
0.0
  0
LINE
  8
LY_3
  6
CONTINUOUS
 62
             110
  5
2CF
 10
84.450666000000012
 20
27.105705
 30
0.0
 11
83.948007000000004
 21
28.182836000000002
 31
0.0
  0
LINE
  8
LY_3
  6
CONTINUOUS
 62
             110
  5
2D0
 10
83.948025000000001
 20
25.817156000000001
 30
0.0
 11
84.450677000000013
 21
26.894272999999998
 31
0.0
  0
LINE
  8
LY_3
  6
CONTINUOUS
 62
             110
  5
2D1
 10
84.450668000000007
 20
24.105706000000001
 30
0.0
 11
83.948015999999996
 21
25.182822000000002
 31
0.0
  0
LINE
  8
LY_3
  6
CONTINUOUS
 62
             110
  5
2D2
 10
84.349340000000012
 20
28.605713999999999
 30
0.0
 11
84.851992999999993
 21
29.682829999999999
 31
0.0
  0
LINE
  8
LY_3
  6
CONTINUOUS
 62
             110
  5
2D3
 10
84.852003999999994
 20
27.317159
 30
0.0
 11
84.34935200000001
 21
28.394275
 31
0.0
  0
LINE
  8
LY_3
  6
CONTINUOUS
 62
             110
  5
2D4
 10
84.34935200000001
 20
25.605716000000001
 30
0.0
 11
84.852003999999994
 21
26.682832999999999
 31
0.0
  0
LINE
  8
LY_3
  6
CONTINUOUS
 62
             110
  5
2D5
 10
84.851988000000006
 20
24.317160000000001
 30
0.0
 11
84.349339000000001
 21
25.394269000000001
 31
0.0
  0
LINE
  8
LY_3
  6
CONTINUOUS
 62
               3
  5
2D6
 10
81.800003000000004
 20
31.0
 30
0.0
 11
83.800003000000004
 21
31.0
 31
0.0
  0
LINE
  8
LY_3
  6
CONTINUOUS
 62
               3
  5
2D7
 10
81.800003000000004
 20
33.950000000000003
 30
0.0
 11
83.800003000000004
 21
33.950000000000003
 31
0.0
  0
LINE
  8
LY_3
  6
PHANTOM
 62
             110
  5
2D8
 10
83.800003000000004
 20
33.899999999999999
 30
0.0
 11
85.0
 21
33.899999999999999
 31
0.0
  0
INSERT
  8
LY_3
  6
BYBLOCK
 62
             110
  5
2E3
  2
*X3
 10
0.0
 20
0.0
 30
0.0
  0
TEXT
  8
LY_3
  6
CONTINUOUS
 62
             110
  5
2E4
 10
59.015624995032951
 20
-37.25
 30
0.0
 40
2.5
  1
VP2050-M
 41
0.9380000114440918
  7
MX_NOTE_STANDARD
 11
59.015624995032951
 21
-34.75
 31
0.0
 73
               3
  0
CIRCLE
  8
LY_3
  6
CONTINUOUS
 62
               3
  5
2E5
 10
68.0
 20
-30.502065734906473
 30
0.0
 40
2.665
  0
CIRCLE
  8
LY_3
  6
CONTINUOUS
 62
               3
  5
2E6
 10
68.0
 20
30.502065734906473
 30
0.0
 40
2.665
  0
INSERT
  8
LY_3
  6
BYBLOCK
 62
             110
  5
2F0
  2
*X4
 10
0.0
 20
0.0
 30
0.0
  0
ARC
  8
LY_3
  6
CONTINUOUS
 62
               3
  5
2F1
 10
68.0
 20
-30.25
 30
0.0
 40
2.5
 50
38.73942459785556
 51
141.26057540214421
  0
LINE
  8
LY_3
  6
CONTINUOUS
 62
               3
  5
2F2
 10
64.800003000000004
 20
0.0
 30
0.0
 11
64.800003000000004
 21
24.949999999999999
 31
0.0
  0
LINE
  8
LY_3
  6
PHANTOM
 62
             110
  5
2F3
 10
67.800003000000004
 20
24.899999999999999
 30
0.0
 11
69.0
 21
24.899999999999999
 31
0.0
  0
LINE
  8
LY_3
  6
CONTINUOUS
 62
               3
  5
2F4
 10
64.800003000000004
 20
24.949999999999999
 30
0.0
 11
67.800003000000004
 21
24.949999999999999
 31
0.0
  0
LINE
  8
LY_3
  6
CONTINUOUS
 62
               3
  5
2F5
 10
64.800003000000004
 20
22.0
 30
0.0
 11
67.800003000000004
 21
22.0
 31
0.0
  0
LINE
  8
LY_3
  6
CONTINUOUS
 62
             110
  5
2F6
 10
68.851983000000004
 20
18.317164999999999
 30
0.0
 11
68.364194999999995
 21
19.36243
 31
0.0
  0
LINE
  8
LY_3
  6
CONTINUOUS
 62
             110
  5
2F7
 10
68.851996000000014
 20
20.682842999999998
 30
0.0
 11
68.349343000000005
 21
19.605727000000002
 31
0.0
  0
LINE
  8
LY_3
  6
CONTINUOUS
 62
             110
  5
2F8
 10
68.851978000000003
 20
21.317163000000001
 30
0.0
 11
68.349329000000012
 21
22.394272000000001
 31
0.0
  0
LINE
  8
LY_3
  6
CONTINUOUS
 62
             110
  5
2F9
 10
68.349342000000007
 20
22.605719000000001
 30
0.0
 11
68.851994000000005
 21
23.682836000000002
 31
0.0
  0
LINE
  8
LY_3
  6
CONTINUOUS
 62
             110
  5
2FA
 10
68.851992999999993
 20
24.317160999999999
 30
0.0
 11
68.580003000000005
 21
24.899999999999999
 31
0.0
  0
LINE
  8
LY_3
  6
CONTINUOUS
 62
             110
  5
2FB
 10
68.450663000000006
 20
18.105710999999999
 30
0.0
 11
67.948007000000004
 21
19.182834
 31
0.0
  0
LINE
  8
LY_3
  6
CONTINUOUS
 62
             110
  5
2FC
 10
67.948013000000003
 20
19.817160000000001
 30
0.0
 11
68.450665000000001
 21
20.894276999999999
 31
0.0
  0
LINE
  8
LY_3
  6
CONTINUOUS
 62
             110
  5
2FD
 10
68.450658000000004
 20
21.105709000000001
 30
0.0
 11
67.948004999999995
 21
22.182825000000001
 31
0.0
  0
LINE
  8
LY_3
  6
CONTINUOUS
 62
             110
  5
2FE
 10
67.948014999999998
 20
22.817159
 30
0.0
 11
68.45066700000001
 21
23.894276000000001
 31
0.0
  0
LINE
  8
LY_3
  6
CONTINUOUS
 62
             110
  5
2FF
 10
68.450656000000009
 20
24.105708
 30
0.0
 11
68.079988
 21
24.899999999999999
 31
0.0
  0
LINE
  8
LY_3
  6
CONTINUOUS
 62
             110
  5
300
 10
68.649998000000011
 20
18.750004000000001
 30
0.0
 11
68.851986000000011
 21
19.182839000000001
 31
0.0
  0
LINE
  8
LY_3
  6
CONTINUOUS
 62
             110
  5
301
 10
67.948010000000011
 20
18.317170000000001
 30
0.0
 11
68.149996000000002
 21
18.749998000000001
 31
0.0
  0
LINE
  8
LY_3
  6
CONTINUOUS
 62
             110
  5
302
 10
68.851987000000008
 20
19.817150000000002
 30
0.0
 11
68.649995000000004
 21
20.249991999999999
 31
0.0
  0
LINE
  8
LY_3
  6
CONTINUOUS
 62
             110
  5
303
 10
67.948004999999995
 20
20.682832999999999
 30
0.0
 11
68.150000000000006
 21
20.249984999999999
 31
0.0
  0
LINE
  8
LY_3
  6
CONTINUOUS
 62
             110
  5
304
 10
67.948019000000002
 20
21.317166
 30
0.0
 11
68.150011000000006
 21
21.750008000000001
 31
0.0
  0
LINE
  8
LY_3
  6
CONTINUOUS
 62
             110
  5
305
 10
68.650000000000006
 20
21.749987000000001
 30
0.0
 11
68.851989000000003
 21
22.182822000000002
 31
0.0
  0
LINE
  8
LY_3
  6
CONTINUOUS
 62
             110
  5
306
 10
68.851976000000008
 20
22.817160999999999
 30
0.0
 11
68.64998700000001
 21
23.249995999999999
 31
0.0
  0
LINE
  8
LY_3
  6
CONTINUOUS
 62
             110
  5
307
 10
68.149988000000008
 20
23.249995999999999
 30
0.0
 11
67.948000000000008
 21
23.682831
 31
0.0
  0
LINE
  8
LY_3
  6
CONTINUOUS
 62
             110
  5
308
 10
67.948014000000001
 20
24.317160000000001
 30
0.0
 11
68.150002999999998
 21
24.749994999999998
 31
0.0
  0
LINE
  8
LY_3
  6
CONTINUOUS
 62
             110
  5
309
 10
68.650008000000014
 20
24.75
 30
0.0
 11
68.720008000000007
 21
24.899999999999999
 31
0.0
  0
CIRCLE
  8
LY_3
  6
CONTINUOUS
 62
             110
  5
30A
 10
68.575879
 20
19.500001000000001
 30
0.0
 40
0.25
  0
CIRCLE
  8
LY_3
  6
CONTINUOUS
 62
             110
  5
30B
 10
68.575879
 20
22.499993
 30
0.0
 40
0.25
  0
CIRCLE
  8
LY_3
  6
CONTINUOUS
 62
             110
  5
30C
 10
68.224118000000004
 20
17.999993
 30
0.0
 40
0.25
  0
CIRCLE
  8
LY_3
  6
CONTINUOUS
 62
             110
  5
30D
 10
68.224118000000004
 20
20.999993
 30
0.0
 40
0.25
  0
CIRCLE
  8
LY_3
  6
CONTINUOUS
 62
             110
  5
30E
 10
68.224118000000004
 20
23.999993
 30
0.0
 40
0.25
  0
ARC
  8
LY_3
  6
CONTINUOUS
 62
             110
  5
30F
 10
68.627636999999993
 20
22.499993
 30
0.0
 40
0.75
 50
154.98319400000003
 51
205.01678899999999
  0
ARC
  8
LY_3
  6
CONTINUOUS
 62
             110
  5
310
 10
68.627636999999993
 20
19.499993
 30
0.0
 40
0.75
 50
154.98319400000003
 51
205.01678899999999
  0
ARC
  8
LY_3
  6
CONTINUOUS
 62
             110
  5
311
 10
68.627652000000012
 20
18.000001000000001
 30
0.0
 40
0.75
 50
154.98331700000003
 51
205.01659699999999
  0
ARC
  8
LY_3
  6
CONTINUOUS
 62
             110
  5
312
 10
68.627652000000012
 20
21.000001000000001
 30
0.0
 40
0.75
 50
154.98331700000003
 51
205.01671999999999
  0
ARC
  8
LY_3
  6
CONTINUOUS
 62
             110
  5
313
 10
68.627652000000012
 20
23.999993
 30
0.0
 40
0.75
 50
154.98331700000003
 51
205.01659699999999
  0
ARC
  8
LY_3
  6
CONTINUOUS
 62
             110
  5
314
 10
68.172345000000007
 20
22.499993
 30
0.0
 40
0.75
 50
334.98322999999999
 51
25.016825000000011
  0
ARC
  8
LY_3
  6
CONTINUOUS
 62
             110
  5
315
 10
68.172345000000007
 20
19.499993
 30
0.0
 40
0.75
 50
334.98322999999999
 51
25.016825000000011
  0
ARC
  8
LY_3
  6
CONTINUOUS
 62
             110
  5
316
 10
68.172345000000007
 20
18.000001000000001
 30
0.0
 40
0.75
 50
334.98342300000002
 51
25.0167
  0
ARC
  8
LY_3
  6
CONTINUOUS
 62
             110
  5
317
 10
68.172345000000007
 20
21.000001000000001
 30
0.0
 40
0.75
 50
334.98329999999999
 51
25.0167
  0
ARC
  8
LY_3
  6
CONTINUOUS
 62
             110
  5
318
 10
68.172345000000007
 20
23.999993
 30
0.0
 40
0.75
 50
334.98342300000002
 51
25.0167
  0
LINE
  8
LY_3
  6
CONTINUOUS
 62
             110
  5
319
 10
68.150002000000001
 20
17.249994000000001
 30
0.0
 11
67.948007000000004
 21
17.682842999999998
 31
0.0
  0
LINE
  8
LY_3
  6
CONTINUOUS
 62
               3
  5
31A
 10
66.050000000000011
 20
25.800000000000001
 30
0.0
 11
66.050000000000011
 21
28.685551215283795
 31
0.0
  0
LINE
  8
LY_3
  6
CONTINUOUS
 62
               3
  5
31B
 10
69.950000000000003
 20
25.800000000000001
 30
0.0
 11
69.950000000000003
 21
28.685551215283802
 31
0.0
  0
ARC
  8
LY_3
  6
CONTINUOUS
 62
             110
  5
31C
 10
68.172348
 20
16.500008000000001
 30
0.0
 40
0.75
 50
334.983476
 51
25.016825000000011
  0
ARC
  8
LY_3
  6
CONTINUOUS
 62
             110
  5
31D
 10
68.627655000000004
 20
15.0
 30
0.0
 40
0.75
 50
154.98331700000003
 51
205.01659699999999
  0
ARC
  8
LY_3
  6
CONTINUOUS
 62
             110
  5
31E
 10
68.172348
 20
13.5
 30
0.0
 40
0.75
 50
334.98322999999999
 51
25.016825000000011
  0
ARC
  8
LY_3
  6
CONTINUOUS
 62
             110
  5
31F
 10
68.627655000000004
 20
12.000007999999999
 30
0.0
 40
0.75
 50
154.98331700000003
 51
205.01671999999999
  0
ARC
  8
LY_3
  6
CONTINUOUS
 62
             110
  5
320
 10
68.172348
 20
10.5
 30
0.0
 40
0.75
 50
334.98322999999999
 51
25.016825000000011
  0
ARC
  8
LY_3
  6
CONTINUOUS
 62
             110
  5
321
 10
68.627655000000004
 20
9.0000079999999993
 30
0.0
 40
0.75
 50
154.98331700000003
 51
205.01659699999999
  0
ARC
  8
LY_3
  6
CONTINUOUS
 62
             110
  5
322
 10
68.172348
 20
7.5
 30
0.0
 40
0.75
 50
334.98335300000002
 51
25.016702000000009
  0
ARC
  8
LY_3
  6
CONTINUOUS
 62
             110
  5
323
 10
68.627655000000004
 20
6.0
 30
0.0
 40
0.75
 50
154.98331700000003
 51
205.01671999999999
  0
ARC
  8
LY_3
  6
CONTINUOUS
 62
             110
  5
324
 10
68.172348
 20
4.5000080000000002
 30
0.0
 40
0.75
 50
334.983476
 51
25.016825000000011
  0
ARC
  8
LY_3
  6
CONTINUOUS
 62
             110
  5
325
 10
68.627655000000004
 20
3.0
 30
0.0
 40
0.75
 50
154.98331700000003
 51
205.01659699999999
  0
ARC
  8
LY_3
  6
CONTINUOUS
 62
             110
  5
326
 10
68.172348
 20
1.5
 30
0.0
 40
0.75
 50
334.98322999999999
 51
25.016825000000011
  0
ARC
  8
LY_3
  6
CONTINUOUS
 62
             110
  5
327
 10
68.627655000000004
 20
0.000008
 30
0.0
 40
0.75
 50
154.98331700000003
 51
180.00059200000001
  0
ARC
  8
LY_3
  6
CONTINUOUS
 62
             110
  5
328
 10
68.172348
 20
0.000008
 30
0.0
 40
0.75
 50
359.99941699999999
 51
25.0167
  0
ARC
  8
LY_3
  6
CONTINUOUS
 62
             110
  5
329
 10
68.627639000000002
 20
1.5
 30
0.0
 40
0.75
 50
154.98319400000003
 51
205.01678899999999
  0
ARC
  8
LY_3
  6
CONTINUOUS
 62
             110
  5
32A
 10
68.172348
 20
3.0
 30
0.0
 40
0.75
 50
334.98342300000002
 51
25.0167
  0
ARC
  8
LY_3
  6
CONTINUOUS
 62
             110
  5
32B
 10
68.627639000000002
 20
4.5000080000000002
 30
0.0
 40
0.75
 50
154.98319400000003
 51
205.01654300000001
  0
ARC
  8
LY_3
  6
CONTINUOUS
 62
             110
  5
32C
 10
68.172348
 20
6.0
 30
0.0
 40
0.75
 50
334.98329999999999
 51
25.0167
  0
ARC
  8
LY_3
  6
CONTINUOUS
 62
             110
  5
32D
 10
68.627655000000004
 20
7.5
 30
0.0
 40
0.75
 50
154.98331700000003
 51
205.01666599999999
  0
ARC
  8
LY_3
  6
CONTINUOUS
 62
             110
  5
32E
 10
68.172348
 20
9.0000079999999993
 30
0.0
 40
0.75
 50
334.98342300000002
 51
25.0167
  0
ARC
  8
LY_3
  6
CONTINUOUS
 62
             110
  5
32F
 10
68.627639000000002
 20
10.5
 30
0.0
 40
0.75
 50
154.98319400000003
 51
205.01678899999999
  0
ARC
  8
LY_3
  6
CONTINUOUS
 62
             110
  5
330
 10
68.172348
 20
12.000007999999999
 30
0.0
 40
0.75
 50
334.98329999999999
 51
25.0167
  0
ARC
  8
LY_3
  6
CONTINUOUS
 62
             110
  5
331
 10
68.172348
 20
15.0
 30
0.0
 40
0.75
 50
334.98342300000002
 51
25.0167
  0
ARC
  8
LY_3
  6
CONTINUOUS
 62
             110
  5
332
 10
68.627639000000002
 20
13.5
 30
0.0
 40
0.75
 50
154.98319400000003
 51
205.01678899999999
  0
ARC
  8
LY_3
  6
CONTINUOUS
 62
             110
  5
333
 10
68.627639000000002
 20
16.500008000000001
 30
0.0
 40
0.75
 50
154.98319400000003
 51
205.01654300000001
  0
ARC
  8
LY_3
  6
CONTINUOUS
 62
             110
  5
334
 10
68.224120999999997
 20
0.0
 30
0.0
 40
0.25
 50
0.0
 51
181.050884
  0
CIRCLE
  8
LY_3
  6
CONTINUOUS
 62
             110
  5
335
 10
68.224120999999997
 20
15.0
 30
0.0
 40
0.25
  0
CIRCLE
  8
LY_3
  6
CONTINUOUS
 62
             110
  5
336
 10
68.224120999999997
 20
12.0
 30
0.0
 40
0.25
  0
CIRCLE
  8
LY_3
  6
CONTINUOUS
 62
             110
  5
337
 10
68.224120999999997
 20
9.0
 30
0.0
 40
0.25
  0
CIRCLE
  8
LY_3
  6
CONTINUOUS
 62
             110
  5
338
 10
68.224106000000006
 20
6.0000080000000002
 30
0.0
 40
0.25
  0
CIRCLE
  8
LY_3
  6
CONTINUOUS
 62
             110
  5
339
 10
68.224120999999997
 20
3.0
 30
0.0
 40
0.25
  0
CIRCLE
  8
LY_3
  6
CONTINUOUS
 62
             110
  5
33A
 10
68.575882000000007
 20
16.5
 30
0.0
 40
0.25
  0
CIRCLE
  8
LY_3
  6
CONTINUOUS
 62
             110
  5
33B
 10
68.575882000000007
 20
13.5
 30
0.0
 40
0.25
  0
CIRCLE
  8
LY_3
  6
CONTINUOUS
 62
             110
  5
33C
 10
68.575882000000007
 20
10.500007999999999
 30
0.0
 40
0.25
  0
CIRCLE
  8
LY_3
  6
CONTINUOUS
 62
             110
  5
33D
 10
68.575882000000007
 20
7.5000080000000002
 30
0.0
 40
0.25
  0
CIRCLE
  8
LY_3
  6
CONTINUOUS
 62
             110
  5
33E
 10
68.575882000000007
 20
4.5
 30
0.0
 40
0.25
  0
CIRCLE
  8
LY_3
  6
CONTINUOUS
 62
             110
  5
33F
 10
68.575882000000007
 20
1.5
 30
0.0
 40
0.25
  0
ARC
  8
LY_3
  6
CONTINUOUS
 62
               3
  5
340
 10
68.0
 20
30.25
 30
0.0
 40
2.5
 50
218.73942459785582
 51
321.26057540214441
  0
LINE
  8
LY_3
  6
CENTER
 62
             110
  5
341
 10
59.975465
 20
0.0
 30
0.0
 11
75.222915
 21
0.0
 31
0.0
  0
LINE
  8
LY_3
  6
CONTINUOUS
 62
             110
  5
342
 10
68.851996000000014
 20
16.817160000000001
 30
0.0
 11
68.650001000000003
 21
17.250008999999999
 31
0.0
  0
LINE
  8
LY_3
  6
CONTINUOUS
 62
             110
  5
343
 10
68.650010000000009
 20
15.750007
 30
0.0
 11
68.852005000000005
 21
16.182856000000001
 31
0.0
  0
LINE
  8
LY_3
  6
CONTINUOUS
 62
             110
  5
344
 10
67.948015999999996
 20
15.317167
 30
0.0
 11
68.150004999999993
 21
15.750002
 31
0.0
  0
LINE
  8
LY_3
  6
CONTINUOUS
 62
             110
  5
345
 10
68.149991
 20
14.250003
 30
0.0
 11
67.948002000000002
 21
14.682838
 31
0.0
  0
LINE
  8
LY_3
  6
CONTINUOUS
 62
             110
  5
346
 10
68.851978000000003
 20
13.817169
 30
0.0
 11
68.649989000000005
 21
14.250003
 31
0.0
  0
LINE
  8
LY_3
  6
CONTINUOUS
 62
             110
  5
347
 10
68.650002000000001
 20
12.749993999999999
 30
0.0
 11
68.851990999999998
 21
13.182829
 31
0.0
  0
LINE
  8
LY_3
  6
CONTINUOUS
 62
             110
  5
348
 10
67.948021000000011
 20
12.317173
 30
0.0
 11
68.150013000000001
 21
12.750014999999999
 31
0.0
  0
LINE
  8
LY_3
  6
CONTINUOUS
 62
             110
  5
349
 10
67.948007000000004
 20
11.682840000000001
 30
0.0
 11
68.150002000000001
 21
11.249992000000001
 31
0.0
  0
LINE
  8
LY_3
  6
CONTINUOUS
 62
             110
  5
34A
 10
68.851989000000003
 20
10.817157
 30
0.0
 11
68.649997000000013
 21
11.249999000000001
 31
0.0
  0
LINE
  8
LY_3
  6
CONTINUOUS
 62
             110
  5
34B
 10
67.948013000000003
 20
9.3171769999999992
 30
0.0
 11
68.149998000000011
 21
9.7500049999999998
 31
0.0
  0
LINE
  8
LY_3
  6
CONTINUOUS
 62
             110
  5
34C
 10
68.650000000000006
 20
9.7500110000000006
 30
0.0
 11
68.851989000000003
 21
10.182846
 31
0.0
  0
LINE
  8
LY_3
  6
CONTINUOUS
 62
             110
  5
34D
 10
68.150003999999996
 20
8.2500009999999993
 30
0.0
 11
67.948009000000013
 21
8.6828500000000002
 31
0.0
  0
LINE
  8
LY_3
  6
CONTINUOUS
 62
             110
  5
34E
 10
68.851995000000002
 20
7.8171590000000002
 30
0.0
 11
68.654268999999999
 21
8.2408599999999996
 31
0.0
  0
LINE
  8
LY_3
  6
CONTINUOUS
 62
             110
  5
34F
 10
68.649991999999997
 20
6.7500070000000001
 30
0.0
 11
68.851979999999998
 21
7.1828419999999999
 31
0.0
  0
LINE
  8
LY_3
  6
CONTINUOUS
 62
             110
  5
350
 10
67.948003999999997
 20
6.3171720000000002
 30
0.0
 11
68.149992999999995
 21
6.7500070000000001
 31
0.0
  0
LINE
  8
LY_3
  6
CONTINUOUS
 62
             110
  5
351
 10
68.851990000000001
 20
4.8171739999999996
 30
0.0
 11
68.650001000000003
 21
5.2500090000000004
 31
0.0
  0
LINE
  8
LY_3
  6
CONTINUOUS
 62
             110
  5
352
 10
68.149990000000003
 20
5.2500030000000004
 30
0.0
 11
67.948002000000002
 21
5.6828380000000003
 31
0.0
  0
LINE
  8
LY_3
  6
CONTINUOUS
 62
             110
  5
353
 10
68.650007000000002
 20
3.7500079999999998
 30
0.0
 11
68.851999000000006
 21
4.1828500000000002
 31
0.0
  0
LINE
  8
LY_3
  6
CONTINUOUS
 62
             110
  5
354
 10
67.948013000000003
 20
3.3171590000000002
 30
0.0
 11
68.150002000000001
 21
3.749994
 31
0.0
  0
LINE
  8
LY_3
  6
CONTINUOUS
 62
             110
  5
355
 10
68.851984000000002
 20
1.8171630000000001
 30
0.0
 11
68.649996000000002
 21
2.2499980000000002
 31
0.0
  0
LINE
  8
LY_3
  6
CONTINUOUS
 62
             110
  5
356
 10
68.149997000000013
 20
2.249997
 30
0.0
 11
67.948004999999995
 21
2.682839
 31
0.0
  0
LINE
  8
LY_3
  6
CONTINUOUS
 62
             110
  5
357
 10
68.650002000000001
 20
0.750002
 30
0.0
 11
68.851990999999998
 21
1.1828369999999999
 31
0.0
  0
LINE
  8
LY_3
  6
CONTINUOUS
 62
             110
  5
358
 10
67.948035000000004
 20
0.317166
 30
0.0
 11
68.15002100000001
 21
0.7499940000000001
 31
0.0
  0
LINE
  8
LY_3
  6
CONTINUOUS
 62
             110
  5
359
 10
67.948004999999995
 20
16.817163999999998
 30
0.0
 11
68.450657000000007
 21
17.894279999999998
 31
0.0
  0
LINE
  8
LY_3
  6
CONTINUOUS
 62
             110
  5
35A
 10
68.450658000000004
 20
15.105715
 30
0.0
 11
67.94799900000001
 21
16.182846000000001
 31
0.0
  0
LINE
  8
LY_3
  6
CONTINUOUS
 62
             110
  5
35B
 10
67.948016999999993
 20
13.817166
 30
0.0
 11
68.450669000000005
 21
14.894283
 31
0.0
  0
LINE
  8
LY_3
  6
CONTINUOUS
 62
             110
  5
35C
 10
68.450659999999999
 20
12.105715999999999
 30
0.0
 11
67.948008000000002
 21
13.182831999999999
 31
0.0
  0
LINE
  8
LY_3
  6
CONTINUOUS
 62
             110
  5
35D
 10
67.948014999999998
 20
10.817167
 30
0.0
 11
68.450668000000007
 21
11.894284000000001
 31
0.0
  0
LINE
  8
LY_3
  6
CONTINUOUS
 62
             110
  5
35E
 10
68.450665000000001
 20
9.1057179999999995
 30
0.0
 11
67.948010000000011
 21
10.182842000000001
 31
0.0
  0
LINE
  8
LY_3
  6
CONTINUOUS
 62
             110
  5
35F
 10
67.948024000000004
 20
7.8171540000000004
 30
0.0
 11
68.450677000000013
 21
8.8942709999999998
 31
0.0
  0
LINE
  8
LY_3
  6
CONTINUOUS
 62
             110
  5
360
 10
68.450664000000003
 20
6.105734
 30
0.0
 11
67.948018000000005
 21
7.1828370000000001
 31
0.0
  0
LINE
  8
LY_3
  6
CONTINUOUS
 62
             110
  5
361
 10
67.948025999999999
 20
4.8171710000000001
 30
0.0
 11
68.450681000000003
 21
5.8942940000000004
 31
0.0
  0
LINE
  8
LY_3
  6
CONTINUOUS
 62
             110
  5
362
 10
68.450656000000009
 20
3.1057220000000001
 30
0.0
 11
67.947998000000013
 21
4.1828529999999997
 31
0.0
  0
LINE
  8
LY_3
  6
CONTINUOUS
 62
             110
  5
363
 10
67.948014000000001
 20
1.817167
 30
0.0
 11
68.450666000000012
 21
2.8942839999999999
 31
0.0
  0
LINE
  8
LY_3
  6
CONTINUOUS
 62
             110
  5
364
 10
68.450658000000004
 20
0.105723
 30
0.0
 11
67.948003
 21
1.1828460000000001
 31
0.0
  0
LINE
  8
LY_3
  6
CONTINUOUS
 62
             110
  5
365
 10
68.349332000000004
 20
16.605723999999999
 30
0.0
 11
68.851985000000013
 21
17.682839999999999
 31
0.0
  0
LINE
  8
LY_3
  6
CONTINUOUS
 62
             110
  5
366
 10
68.851996000000014
 20
15.317169
 30
0.0
 11
68.349344000000002
 21
16.394285
 31
0.0
  0
LINE
  8
LY_3
  6
CONTINUOUS
 62
             110
  5
367
 10
68.349344000000002
 20
13.605726000000001
 30
0.0
 11
68.851996000000014
 21
14.682843
 31
0.0
  0
LINE
  8
LY_3
  6
CONTINUOUS
 62
             110
  5
368
 10
68.851979999999998
 20
12.317170000000001
 30
0.0
 11
68.349331000000006
 21
13.394278999999999
 31
0.0
  0
LINE
  8
LY_3
  6
CONTINUOUS
 62
             110
  5
369
 10
68.851998000000009
 20
11.682850999999999
 30
0.0
 11
68.349345999999997
 21
10.605734
 31
0.0
  0
LINE
  8
LY_3
  6
CONTINUOUS
 62
             110
  5
36A
 10
68.851986000000011
 20
9.3171719999999993
 30
0.0
 11
68.364197000000004
 21
10.362437
 31
0.0
  0
LINE
  8
LY_3
  6
CONTINUOUS
 62
             110
  5
36B
 10
68.349355000000003
 20
7.605721
 30
0.0
 11
68.852012999999999
 21
8.6828520000000005
 31
0.0
  0
LINE
  8
LY_3
  6
CONTINUOUS
 62
             110
  5
36C
 10
68.851994000000005
 20
6.3171670000000004
 30
0.0
 11
68.349342000000007
 21
7.3942839999999999
 31
0.0
  0
LINE
  8
LY_3
  6
CONTINUOUS
 62
             110
  5
36D
 10
68.349350000000001
 20
4.6057240000000004
 30
0.0
 11
68.852001999999999
 21
5.6828399999999997
 31
0.0
  0
LINE
  8
LY_3
  6
CONTINUOUS
 62
             110
  5
36E
 10
68.852001000000001
 20
3.3171620000000002
 30
0.0
 11
68.349348000000006
 21
4.3942779999999999
 31
0.0
  0
LINE
  8
LY_3
  6
CONTINUOUS
 62
             110
  5
36F
 10
68.349338000000003
 20
1.605721
 30
0.0
 11
68.851990000000001
 21
2.6828370000000001
 31
0.0
  0
LINE
  8
LY_3
  6
CONTINUOUS
 62
             110
  5
370
 10
68.851982000000007
 20
0.31717
 30
0.0
 11
68.349333000000001
 21
1.39428
 31
0.0
  0
LINE
  8
LY_3
  6
CONTINUOUS
 62
               3
  5
371
 10
67.800003000000004
 20
0.0
 30
0.0
 11
67.800003000000004
 21
24.949999999999999
 31
0.0
  0
LINE
  8
LY_3
  6
CONTINUOUS
 62
               3
  5
372
 10
69.0
 20
0.0
 30
0.0
 11
69.0
 21
25.0
 31
0.0
  0
LINE
  8
LY_3
  6
CONTINUOUS
 62
               3
  5
373
 10
69.0
 20
22.0
 30
0.0
 11
72.0
 21
22.0
 31
0.0
  0
LINE
  8
LY_3
  6
CONTINUOUS
 62
               3
  5
374
 10
64.0
 20
-25.800000000000001
 30
0.0
 11
66.050000000000011
 21
-25.800000000000001
 31
0.0
  0
LINE
  8
LY_3
  6
CONTINUOUS
 62
               3
  5
375
 10
66.050000000000011
 20
-28.685551215283795
 30
0.0
 11
66.050000000000011
 21
0.0
 31
0.0
  0
LINE
  8
LY_3
  6
CONTINUOUS
 62
               3
  5
376
 10
69.950000000000003
 20
-25.800000000000001
 30
0.0
 11
72.0
 21
-25.800000000000001
 31
0.0
  0
LINE
  8
LY_3
  6
CONTINUOUS
 62
               3
  5
377
 10
69.950000000000003
 20
-28.685551215283802
 30
0.0
 11
69.950000000000003
 21
0.0
 31
0.0
  0
LINE
  8
LY_3
  6
CONTINUOUS
 62
               3
  5
378
 10
69.950000000000003
 20
25.800000000000001
 30
0.0
 11
72.0
 21
25.800000000000001
 31
0.0
  0
LINE
  8
LY_3
  6
CONTINUOUS
 62
               3
  5
379
 10
72.0
 20
-25.800000000000001
 30
0.0
 11
72.0
 21
25.800000000000001
 31
0.0
  0
LINE
  8
LY_3
  6
CONTINUOUS
 62
               3
  5
37A
 10
64.0
 20
-25.800000000000001
 30
0.0
 11
64.0
 21
25.800000000000001
 31
0.0
  0
LINE
  8
LY_3
  6
CONTINUOUS
 62
               3
  5
37B
 10
64.0
 20
25.0
 30
0.0
 11
69.0
 21
25.0
 31
0.0
  0
LINE
  8
LY_3
  6
CONTINUOUS
 62
               3
  5
37C
 10
64.0
 20
25.800000000000001
 30
0.0
 11
66.050000000000011
 21
25.800000000000001
 31
0.0
  0
TEXT
  8
LY_3
  6
CONTINUOUS
 62
             110
  5
37D
 10
43.015624995032951
 20
-33.25
 30
0.0
 40
2.5
  1
VP2040-M
 41
0.9380000114440918
  7
MX_NOTE_STANDARD
 11
43.015624995032951
 21
-30.75
 31
0.0
 73
               3
  0
CIRCLE
  8
LY_3
  6
CONTINUOUS
 62
               3
  5
37E
 10
52.0
 20
-24.252065734906473
 30
0.0
 40
2.665
  0
CIRCLE
  8
LY_3
  6
CONTINUOUS
 62
               3
  5
37F
 10
52.0
 20
24.252065734906473
 30
0.0
 40
2.665
  0
ARC
  8
LY_3
  6
CONTINUOUS
 62
               3
  5
380
 10
52.0
 20
-24.0
 30
0.0
 40
2.5
 50
38.739424597855553
 51
141.26057540214421
  0
INSERT
  8
LY_3
  6
BYBLOCK
 62
             110
  5
38A
  2
*X5
 10
0.0
 20
0.0
 30
0.0
  0
LINE
  8
LY_3
  6
CONTINUOUS
 62
               3
  5
38B
 10
48.800003000000004
 20
0.0
 30
0.0
 11
48.800003000000004
 21
19.449999999999999
 31
0.0
  0
LINE
  8
LY_3
  6
CONTINUOUS
 62
               3
  5
38C
 10
48.800003000000004
 20
17.5
 30
0.0
 11
51.800003000000004
 21
17.5
 31
0.0
  0
LINE
  8
LY_3
  6
PHANTOM
 62
             110
  5
38D
 10
51.800003000000004
 20
19.399999999999999
 30
0.0
 11
53.0
 21
19.399999999999999
 31
0.0
  0
LINE
  8
LY_3
  6
CONTINUOUS
 62
               3
  5
38E
 10
48.800003000000004
 20
19.449999999999999
 30
0.0
 11
51.800003000000004
 21
19.449999999999999
 31
0.0
  0
LINE
  8
LY_3
  6
CONTINUOUS
 62
               3
  5
38F
 10
50.050000000000004
 20
20.300000000000001
 30
0.0
 11
50.050000000000004
 21
22.435551215283795
 31
0.0
  0
LINE
  8
LY_3
  6
CONTINUOUS
 62
               3
  5
390
 10
53.950000000000003
 20
20.300000000000001
 30
0.0
 11
53.950000000000003
 21
22.435551215283802
 31
0.0
  0
ARC
  8
LY_3
  6
CONTINUOUS
 62
             110
  5
391
 10
52.172348000000007
 20
19.500008000000001
 30
0.0
 40
0.75
 50
334.98342300000002
 51
352.33715599999999
  0
ARC
  8
LY_3
  6
CONTINUOUS
 62
             110
  5
392
 10
52.627655000000004
 20
19.5
 30
0.0
 40
0.75
 50
187.66225600000001
 51
205.016683
  0
ARC
  8
LY_3
  6
CONTINUOUS
 62
             110
  5
393
 10
52.627655000000004
 20
18.0
 30
0.0
 40
0.75
 50
154.98331700000003
 51
205.01671999999999
  0
ARC
  8
LY_3
  6
CONTINUOUS
 62
               3
  5
394
 10
52.627655000000004
 20
18.0
 30
0.0
 40
0.75
 50
154.98331700000003
 51
205.01671999999999
  0
ARC
  8
LY_3
  6
CONTINUOUS
 62
             110
  5
395
 10
52.172348000000007
 20
16.500008000000001
 30
0.0
 40
0.75
 50
334.983476
 51
25.016825000000011
  0
ARC
  8
LY_3
  6
CONTINUOUS
 62
             110
  5
396
 10
52.627655000000004
 20
15.0
 30
0.0
 40
0.75
 50
154.98331700000003
 51
205.01659699999999
  0
ARC
  8
LY_3
  6
CONTINUOUS
 62
             110
  5
397
 10
52.172348000000007
 20
13.5
 30
0.0
 40
0.75
 50
334.98322999999999
 51
25.016825000000011
  0
ARC
  8
LY_3
  6
CONTINUOUS
 62
             110
  5
398
 10
52.627655000000004
 20
12.000007999999999
 30
0.0
 40
0.75
 50
154.98331700000003
 51
205.01671999999999
  0
ARC
  8
LY_3
  6
CONTINUOUS
 62
             110
  5
399
 10
52.172348000000007
 20
10.5
 30
0.0
 40
0.75
 50
334.98322999999999
 51
25.016825000000011
  0
ARC
  8
LY_3
  6
CONTINUOUS
 62
             110
  5
39A
 10
52.627655000000004
 20
9.0000079999999993
 30
0.0
 40
0.75
 50
154.98331700000003
 51
205.01659699999999
  0
ARC
  8
LY_3
  6
CONTINUOUS
 62
             110
  5
39B
 10
52.172348000000007
 20
7.5
 30
0.0
 40
0.75
 50
334.98335300000002
 51
25.016702000000009
  0
ARC
  8
LY_3
  6
CONTINUOUS
 62
             110
  5
39C
 10
52.627655000000004
 20
6.0
 30
0.0
 40
0.75
 50
154.98331700000003
 51
205.01671999999999
  0
ARC
  8
LY_3
  6
CONTINUOUS
 62
             110
  5
39D
 10
52.172348000000007
 20
4.5000080000000002
 30
0.0
 40
0.75
 50
334.983476
 51
25.016825000000011
  0
ARC
  8
LY_3
  6
CONTINUOUS
 62
             110
  5
39E
 10
52.627655000000004
 20
3.0
 30
0.0
 40
0.75
 50
154.98331700000003
 51
205.01659699999999
  0
ARC
  8
LY_3
  6
CONTINUOUS
 62
             110
  5
39F
 10
52.172348000000007
 20
1.5
 30
0.0
 40
0.75
 50
334.98322999999999
 51
25.016825000000011
  0
ARC
  8
LY_3
  6
CONTINUOUS
 62
             110
  5
3A0
 10
52.627655000000004
 20
0.000008
 30
0.0
 40
0.75
 50
154.98331700000003
 51
180.00059200000001
  0
ARC
  8
LY_3
  6
CONTINUOUS
 62
             110
  5
3A1
 10
52.172348000000007
 20
0.000008
 30
0.0
 40
0.75
 50
359.99941699999999
 51
25.0167
  0
ARC
  8
LY_3
  6
CONTINUOUS
 62
             110
  5
3A2
 10
52.627639000000002
 20
1.5
 30
0.0
 40
0.75
 50
154.98319400000003
 51
205.01678899999999
  0
ARC
  8
LY_3
  6
CONTINUOUS
 62
             110
  5
3A3
 10
52.172348000000007
 20
3.0
 30
0.0
 40
0.75
 50
334.98342300000002
 51
25.0167
  0
ARC
  8
LY_3
  6
CONTINUOUS
 62
             110
  5
3A4
 10
52.627639000000002
 20
4.5000080000000002
 30
0.0
 40
0.75
 50
154.98319400000003
 51
205.01654300000001
  0
ARC
  8
LY_3
  6
CONTINUOUS
 62
             110
  5
3A5
 10
52.172348000000007
 20
6.0
 30
0.0
 40
0.75
 50
334.98329999999999
 51
25.0167
  0
ARC
  8
LY_3
  6
CONTINUOUS
 62
             110
  5
3A6
 10
52.627655000000004
 20
7.5
 30
0.0
 40
0.75
 50
154.98331700000003
 51
205.01666599999999
  0
ARC
  8
LY_3
  6
CONTINUOUS
 62
             110
  5
3A7
 10
52.172348000000007
 20
9.0000079999999993
 30
0.0
 40
0.75
 50
334.98342300000002
 51
25.0167
  0
ARC
  8
LY_3
  6
CONTINUOUS
 62
             110
  5
3A8
 10
52.627639000000002
 20
10.5
 30
0.0
 40
0.75
 50
154.98319400000003
 51
205.01678899999999
  0
ARC
  8
LY_3
  6
CONTINUOUS
 62
             110
  5
3A9
 10
52.172348000000007
 20
12.000007999999999
 30
0.0
 40
0.75
 50
334.98329999999999
 51
25.0167
  0
ARC
  8
LY_3
  6
CONTINUOUS
 62
             110
  5
3AA
 10
52.172348000000007
 20
15.0
 30
0.0
 40
0.75
 50
334.98342300000002
 51
25.0167
  0
ARC
  8
LY_3
  6
CONTINUOUS
 62
             110
  5
3AB
 10
52.627639000000002
 20
13.5
 30
0.0
 40
0.75
 50
154.98319400000003
 51
205.01678899999999
  0
ARC
  8
LY_3
  6
CONTINUOUS
 62
             110
  5
3AC
 10
52.627639000000002
 20
16.500008000000001
 30
0.0
 40
0.75
 50
154.98319400000003
 51
205.01654300000001
  0
ARC
  8
LY_3
  6
CONTINUOUS
 62
             110
  5
3AD
 10
52.172348000000007
 20
18.0
 30
0.0
 40
0.75
 50
334.98329999999999
 51
25.0167
  0
ARC
  8
LY_3
  6
CONTINUOUS
 62
             110
  5
3AE
 10
52.224121000000004
 20
0.0
 30
0.0
 40
0.25
 50
0.0
 51
181.050884
  0
ARC
  8
LY_3
  6
CONTINUOUS
 62
             110
  5
3AF
 10
52.575882
 20
19.5
 30
0.0
 40
0.25
 50
203.57817800000001
 51
336.42182200000002
  0
CIRCLE
  8
LY_3
  6
CONTINUOUS
 62
             110
  5
3B0
 10
52.224106000000006
 20
18.000008000000001
 30
0.0
 40
0.25
  0
CIRCLE
  8
LY_3
  6
CONTINUOUS
 62
             110
  5
3B1
 10
52.224121000000004
 20
15.0
 30
0.0
 40
0.25
  0
CIRCLE
  8
LY_3
  6
CONTINUOUS
 62
             110
  5
3B2
 10
52.224121000000004
 20
12.0
 30
0.0
 40
0.25
  0
CIRCLE
  8
LY_3
  6
CONTINUOUS
 62
             110
  5
3B3
 10
52.224121000000004
 20
9.0
 30
0.0
 40
0.25
  0
CIRCLE
  8
LY_3
  6
CONTINUOUS
 62
             110
  5
3B4
 10
52.224106000000006
 20
6.0000080000000002
 30
0.0
 40
0.25
  0
CIRCLE
  8
LY_3
  6
CONTINUOUS
 62
             110
  5
3B5
 10
52.224121000000004
 20
3.0
 30
0.0
 40
0.25
  0
CIRCLE
  8
LY_3
  6
CONTINUOUS
 62
             110
  5
3B6
 10
52.575882
 20
16.5
 30
0.0
 40
0.25
  0
CIRCLE
  8
LY_3
  6
CONTINUOUS
 62
             110
  5
3B7
 10
52.575882
 20
13.5
 30
0.0
 40
0.25
  0
CIRCLE
  8
LY_3
  6
CONTINUOUS
 62
             110
  5
3B8
 10
52.575882
 20
10.500007999999999
 30
0.0
 40
0.25
  0
CIRCLE
  8
LY_3
  6
CONTINUOUS
 62
             110
  5
3B9
 10
52.575882
 20
7.5000080000000002
 30
0.0
 40
0.25
  0
CIRCLE
  8
LY_3
  6
CONTINUOUS
 62
             110
  5
3BA
 10
52.575882
 20
4.5
 30
0.0
 40
0.25
  0
CIRCLE
  8
LY_3
  6
CONTINUOUS
 62
             110
  5
3BB
 10
52.575882
 20
1.5
 30
0.0
 40
0.25
  0
ARC
  8
LY_3
  6
CONTINUOUS
 62
               3
  5
3BC
 10
52.0
 20
24.0
 30
0.0
 40
2.5
 50
218.73942459785582
 51
321.26057540214441
  0
LINE
  8
LY_3
  6
CENTER
 62
             110
  5
3BD
 10
43.975465
 20
0.0
 30
0.0
 11
59.222915
 21
0.0
 31
0.0
  0
LINE
  8
LY_3
  6
CONTINUOUS
 62
             110
  5
3BE
 10
52.852001000000001
 20
19.182841
 30
0.0
 11
52.650012000000004
 21
18.750005999999999
 31
0.0
  0
LINE
  8
LY_3
  6
CONTINUOUS
 62
             110
  5
3BF
 10
51.948018000000005
 20
18.317157999999999
 30
0.0
 11
52.150010000000002
 21
18.75
 31
0.0
  0
LINE
  8
LY_3
  6
CONTINUOUS
 62
             110
  5
3C0
 10
52.851996000000007
 20
16.817160000000001
 30
0.0
 11
52.650001000000003
 21
17.250008999999999
 31
0.0
  0
LINE
  8
LY_3
  6
CONTINUOUS
 62
             110
  5
3C1
 10
52.150006000000005
 20
17.250011000000001
 30
0.0
 11
51.948024000000004
 21
17.682832000000001
 31
0.0
  0
LINE
  8
LY_3
  6
CONTINUOUS
 62
             110
  5
3C2
 10
52.650010000000002
 20
15.750007
 30
0.0
 11
52.852005000000005
 21
16.182856000000001
 31
0.0
  0
LINE
  8
LY_3
  6
CONTINUOUS
 62
             110
  5
3C3
 10
51.948016000000003
 20
15.317167
 30
0.0
 11
52.150005
 21
15.750002
 31
0.0
  0
LINE
  8
LY_3
  6
CONTINUOUS
 62
             110
  5
3C4
 10
52.149991
 20
14.250003
 30
0.0
 11
51.948002000000002
 21
14.682838
 31
0.0
  0
LINE
  8
LY_3
  6
CONTINUOUS
 62
             110
  5
3C5
 10
52.851978000000003
 20
13.817169
 30
0.0
 11
52.649989000000005
 21
14.250003
 31
0.0
  0
LINE
  8
LY_3
  6
CONTINUOUS
 62
             110
  5
3C6
 10
52.650002000000001
 20
12.749993999999999
 30
0.0
 11
52.851991000000005
 21
13.182829
 31
0.0
  0
LINE
  8
LY_3
  6
CONTINUOUS
 62
             110
  5
3C7
 10
51.948021000000004
 20
12.317173
 30
0.0
 11
52.150013000000001
 21
12.750014999999999
 31
0.0
  0
LINE
  8
LY_3
  6
CONTINUOUS
 62
             110
  5
3C8
 10
51.948007000000004
 20
11.682840000000001
 30
0.0
 11
52.150002000000001
 21
11.249992000000001
 31
0.0
  0
LINE
  8
LY_3
  6
CONTINUOUS
 62
             110
  5
3C9
 10
52.851989000000003
 20
10.817157
 30
0.0
 11
52.649997000000006
 21
11.249999000000001
 31
0.0
  0
LINE
  8
LY_3
  6
CONTINUOUS
 62
             110
  5
3CA
 10
51.948013000000003
 20
9.3171769999999992
 30
0.0
 11
52.149998000000004
 21
9.7500049999999998
 31
0.0
  0
LINE
  8
LY_3
  6
CONTINUOUS
 62
             110
  5
3CB
 10
52.650000000000006
 20
9.7500110000000006
 30
0.0
 11
52.851989000000003
 21
10.182846
 31
0.0
  0
LINE
  8
LY_3
  6
CONTINUOUS
 62
             110
  5
3CC
 10
52.150004000000003
 20
8.2500009999999993
 30
0.0
 11
51.948009000000006
 21
8.6828500000000002
 31
0.0
  0
LINE
  8
LY_3
  6
CONTINUOUS
 62
             110
  5
3CD
 10
52.851995000000002
 20
7.8171590000000002
 30
0.0
 11
52.654269000000006
 21
8.2408599999999996
 31
0.0
  0
LINE
  8
LY_3
  6
CONTINUOUS
 62
             110
  5
3CE
 10
52.649992000000005
 20
6.7500070000000001
 30
0.0
 11
52.851980000000005
 21
7.1828419999999999
 31
0.0
  0
LINE
  8
LY_3
  6
CONTINUOUS
 62
             110
  5
3CF
 10
51.948004000000005
 20
6.3171720000000002
 30
0.0
 11
52.149993000000002
 21
6.7500070000000001
 31
0.0
  0
LINE
  8
LY_3
  6
CONTINUOUS
 62
             110
  5
3D0
 10
52.851990000000001
 20
4.8171739999999996
 30
0.0
 11
52.650001000000003
 21
5.2500090000000004
 31
0.0
  0
LINE
  8
LY_3
  6
CONTINUOUS
 62
             110
  5
3D1
 10
52.149990000000003
 20
5.2500030000000004
 30
0.0
 11
51.948002000000002
 21
5.6828380000000003
 31
0.0
  0
LINE
  8
LY_3
  6
CONTINUOUS
 62
             110
  5
3D2
 10
52.650007000000002
 20
3.7500079999999998
 30
0.0
 11
52.851999000000006
 21
4.1828500000000002
 31
0.0
  0
LINE
  8
LY_3
  6
CONTINUOUS
 62
             110
  5
3D3
 10
51.948013000000003
 20
3.3171590000000002
 30
0.0
 11
52.150002000000001
 21
3.749994
 31
0.0
  0
LINE
  8
LY_3
  6
CONTINUOUS
 62
             110
  5
3D4
 10
52.851984000000002
 20
1.8171630000000001
 30
0.0
 11
52.649996000000002
 21
2.2499980000000002
 31
0.0
  0
LINE
  8
LY_3
  6
CONTINUOUS
 62
             110
  5
3D5
 10
52.149997000000006
 20
2.249997
 30
0.0
 11
51.948005000000002
 21
2.682839
 31
0.0
  0
LINE
  8
LY_3
  6
CONTINUOUS
 62
             110
  5
3D6
 10
52.650002000000001
 20
0.750002
 30
0.0
 11
52.851991000000005
 21
1.1828369999999999
 31
0.0
  0
LINE
  8
LY_3
  6
CONTINUOUS
 62
             110
  5
3D7
 10
51.948035000000004
 20
0.317166
 30
0.0
 11
52.150021000000002
 21
0.7499940000000001
 31
0.0
  0
LINE
  8
LY_3
  6
CONTINUOUS
 62
             110
  5
3D8
 10
51.948015000000005
 20
19.182836000000002
 30
0.0
 11
52.450667000000003
 21
18.105719000000001
 31
0.0
  0
LINE
  8
LY_3
  6
CONTINUOUS
 62
             110
  5
3D9
 10
51.948005000000002
 20
16.817163999999998
 30
0.0
 11
52.450657000000007
 21
17.894279999999998
 31
0.0
  0
LINE
  8
LY_3
  6
CONTINUOUS
 62
             110
  5
3DA
 10
52.450658000000004
 20
15.105715
 30
0.0
 11
51.947999000000003
 21
16.182846000000001
 31
0.0
  0
LINE
  8
LY_3
  6
CONTINUOUS
 62
             110
  5
3DB
 10
51.948017
 20
13.817166
 30
0.0
 11
52.450669000000005
 21
14.894283
 31
0.0
  0
LINE
  8
LY_3
  6
CONTINUOUS
 62
             110
  5
3DC
 10
52.450660000000006
 20
12.105715999999999
 30
0.0
 11
51.948008000000002
 21
13.182831999999999
 31
0.0
  0
LINE
  8
LY_3
  6
CONTINUOUS
 62
             110
  5
3DD
 10
51.948015000000005
 20
10.817167
 30
0.0
 11
52.450668
 21
11.894284000000001
 31
0.0
  0
LINE
  8
LY_3
  6
CONTINUOUS
 62
             110
  5
3DE
 10
52.450665000000001
 20
9.1057179999999995
 30
0.0
 11
51.948010000000004
 21
10.182842000000001
 31
0.0
  0
LINE
  8
LY_3
  6
CONTINUOUS
 62
             110
  5
3DF
 10
51.948024000000004
 20
7.8171540000000004
 30
0.0
 11
52.450677000000006
 21
8.8942709999999998
 31
0.0
  0
LINE
  8
LY_3
  6
CONTINUOUS
 62
             110
  5
3E0
 10
52.450664000000003
 20
6.105734
 30
0.0
 11
51.948018000000005
 21
7.1828370000000001
 31
0.0
  0
LINE
  8
LY_3
  6
CONTINUOUS
 62
             110
  5
3E1
 10
51.948026000000006
 20
4.8171710000000001
 30
0.0
 11
52.450681000000003
 21
5.8942940000000004
 31
0.0
  0
LINE
  8
LY_3
  6
CONTINUOUS
 62
             110
  5
3E2
 10
52.450656000000002
 20
3.1057220000000001
 30
0.0
 11
51.947998000000005
 21
4.1828529999999997
 31
0.0
  0
LINE
  8
LY_3
  6
CONTINUOUS
 62
             110
  5
3E3
 10
51.948014000000001
 20
1.817167
 30
0.0
 11
52.450666000000005
 21
2.8942839999999999
 31
0.0
  0
LINE
  8
LY_3
  6
CONTINUOUS
 62
             110
  5
3E4
 10
52.450658000000004
 20
0.105723
 30
0.0
 11
51.948003
 21
1.1828460000000001
 31
0.0
  0
LINE
  8
LY_3
  6
CONTINUOUS
 62
             110
  5
3E5
 10
52.851991000000005
 20
18.317166
 30
0.0
 11
52.349335000000004
 21
19.394290000000002
 31
0.0
  0
LINE
  8
LY_3
  6
CONTINUOUS
 62
             110
  5
3E6
 10
52.349332000000004
 20
16.605723999999999
 30
0.0
 11
52.851985000000006
 21
17.682839999999999
 31
0.0
  0
LINE
  8
LY_3
  6
CONTINUOUS
 62
             110
  5
3E7
 10
52.851996000000007
 20
15.317169
 30
0.0
 11
52.349344000000002
 21
16.394285
 31
0.0
  0
LINE
  8
LY_3
  6
CONTINUOUS
 62
             110
  5
3E8
 10
52.349344000000002
 20
13.605726000000001
 30
0.0
 11
52.851996000000007
 21
14.682843
 31
0.0
  0
LINE
  8
LY_3
  6
CONTINUOUS
 62
             110
  5
3E9
 10
52.851980000000005
 20
12.317170000000001
 30
0.0
 11
52.349331000000006
 21
13.394278999999999
 31
0.0
  0
LINE
  8
LY_3
  6
CONTINUOUS
 62
             110
  5
3EA
 10
52.851998000000002
 20
11.682850999999999
 30
0.0
 11
52.349346000000004
 21
10.605734
 31
0.0
  0
LINE
  8
LY_3
  6
CONTINUOUS
 62
             110
  5
3EB
 10
52.851986000000004
 20
9.3171719999999993
 30
0.0
 11
52.364197000000004
 21
10.362437
 31
0.0
  0
LINE
  8
LY_3
  6
CONTINUOUS
 62
             110
  5
3EC
 10
52.349355000000003
 20
7.605721
 30
0.0
 11
52.852013000000007
 21
8.6828520000000005
 31
0.0
  0
LINE
  8
LY_3
  6
CONTINUOUS
 62
             110
  5
3ED
 10
52.851994000000005
 20
6.3171670000000004
 30
0.0
 11
52.349342
 21
7.3942839999999999
 31
0.0
  0
LINE
  8
LY_3
  6
CONTINUOUS
 62
             110
  5
3EE
 10
52.349350000000001
 20
4.6057240000000004
 30
0.0
 11
52.852002000000006
 21
5.6828399999999997
 31
0.0
  0
LINE
  8
LY_3
  6
CONTINUOUS
 62
             110
  5
3EF
 10
52.852001000000001
 20
3.3171620000000002
 30
0.0
 11
52.349348000000006
 21
4.3942779999999999
 31
0.0
  0
LINE
  8
LY_3
  6
CONTINUOUS
 62
             110
  5
3F0
 10
52.349338000000003
 20
1.605721
 30
0.0
 11
52.851990000000001
 21
2.6828370000000001
 31
0.0
  0
LINE
  8
LY_3
  6
CONTINUOUS
 62
             110
  5
3F1
 10
52.851982000000007
 20
0.31717
 30
0.0
 11
52.349333000000001
 21
1.39428
 31
0.0
  0
LINE
  8
LY_3
  6
CONTINUOUS
 62
               3
  5
3F2
 10
51.800003000000004
 20
0.0
 30
0.0
 11
51.800003000000004
 21
19.449999999999999
 31
0.0
  0
LINE
  8
LY_3
  6
CONTINUOUS
 62
               3
  5
3F3
 10
53.0
 20
0.0
 30
0.0
 11
53.0
 21
19.500008000000001
 31
0.0
  0
LINE
  8
LY_3
  6
CONTINUOUS
 62
               3
  5
3F4
 10
53.0
 20
17.5
 30
0.0
 11
56.0
 21
17.5
 31
0.0
  0
LINE
  8
LY_3
  6
CONTINUOUS
 62
               3
  5
3F5
 10
48.0
 20
-20.300000000000001
 30
0.0
 11
50.050000000000004
 21
-20.300000000000001
 31
0.0
  0
LINE
  8
LY_3
  6
CONTINUOUS
 62
               3
  5
3F6
 10
50.050000000000004
 20
-22.435551215283795
 30
0.0
 11
50.050000000000004
 21
0.0
 31
0.0
  0
LINE
  8
LY_3
  6
CONTINUOUS
 62
               3
  5
3F7
 10
53.950000000000003
 20
-20.300000000000001
 30
0.0
 11
56.0
 21
-20.300000000000001
 31
0.0
  0
LINE
  8
LY_3
  6
CONTINUOUS
 62
               3
  5
3F8
 10
53.950000000000003
 20
-22.435551215283802
 30
0.0
 11
53.950000000000003
 21
0.0
 31
0.0
  0
LINE
  8
LY_3
  6
CONTINUOUS
 62
               3
  5
3F9
 10
53.950000000000003
 20
20.300000000000001
 30
0.0
 11
56.0
 21
20.300000000000001
 31
0.0
  0
LINE
  8
LY_3
  6
CONTINUOUS
 62
               3
  5
3FA
 10
56.0
 20
-20.300000000000001
 30
0.0
 11
56.0
 21
20.300000000000001
 31
0.0
  0
LINE
  8
LY_3
  6
CONTINUOUS
 62
               3
  5
3FB
 10
48.0
 20
-20.300000000000001
 30
0.0
 11
48.0
 21
20.300000000000001
 31
0.0
  0
LINE
  8
LY_3
  6
CONTINUOUS
 62
               3
  5
3FC
 10
48.0
 20
19.5
 30
0.0
 11
53.0
 21
19.5
 31
0.0
  0
LINE
  8
LY_3
  6
CONTINUOUS
 62
               3
  5
3FD
 10
48.0
 20
20.300000000000001
 30
0.0
 11
50.050000000000004
 21
20.300000000000001
 31
0.0
  0
TEXT
  8
LY_3
  6
CONTINUOUS
 62
             110
  5
3FE
 10
27.007653072743629
 20
-25.25
 30
0.0
 40
2.5
  1
VP2025-M
 41
0.9180000127140355
  7
MX_NOTE_STANDARD
 11
27.007653072743629
 21
-22.75
 31
0.0
 73
               3
  0
ARC
  8
LY_3
  6
CONTINUOUS
 62
               3
  5
3FF
 10
36.0
 20
-16.75
 30
0.0
 40
2.5
 50
38.739424597855702
 51
141.26057540214433
  0
LINE
  8
LY_3
  6
CONTINUOUS
 62
               3
  5
400
 10
32.800003000000004
 20
0.0
 30
0.0
 11
32.800003000000004
 21
11.949999999999999
 31
0.0
  0
INSERT
  8
LY_3
  6
BYBLOCK
 62
             110
  5
409
  2
*X6
 10
0.0
 20
0.0
 30
0.0
  0
LINE
  8
LY_3
  6
PHANTOM
 62
             110
  5
40A
 10
35.800003000000004
 20
11.9
 30
0.0
 11
37.0
 21
11.9
 31
0.0
  0
LINE
  8
LY_3
  6
CONTINUOUS
 62
               3
  5
40B
 10
32.800003000000004
 20
10.0
 30
0.0
 11
35.800003000000004
 21
10.0
 31
0.0
  0
LINE
  8
LY_3
  6
CONTINUOUS
 62
               3
  5
40C
 10
32.800003000000004
 20
11.949999999999999
 30
0.0
 11
35.800003000000004
 21
11.949999999999999
 31
0.0
  0
LINE
  8
LY_3
  6
CONTINUOUS
 62
               3
  5
40D
 10
32.0
 20
12.0
 30
0.0
 11
37.0
 21
12.0
 31
0.0
  0
LINE
  8
LY_3
  6
CONTINUOUS
 62
               3
  5
40E
 10
34.049999999999997
 20
12.85
 30
0.0
 11
34.049999999999997
 21
15.185551215283798
 31
0.0
  0
LINE
  8
LY_3
  6
CONTINUOUS
 62
               3
  5
40F
 10
37.950000000000003
 20
12.85
 30
0.0
 11
37.950000000000003
 21
15.185551215283798
 31
0.0
  0
ARC
  8
LY_3
  6
CONTINUOUS
 62
             110
  5
410
 10
36.627655000000004
 20
12.000007999999999
 30
0.0
 40
0.75
 50
187.66284400000001
 51
205.01671999999999
  0
ARC
  8
LY_3
  6
CONTINUOUS
 62
             110
  5
411
 10
36.172348
 20
10.5
 30
0.0
 40
0.75
 50
334.98322999999999
 51
25.016825000000011
  0
ARC
  8
LY_3
  6
CONTINUOUS
 62
             110
  5
412
 10
36.627655000000004
 20
9.0000079999999993
 30
0.0
 40
0.75
 50
154.98331700000003
 51
205.01659699999999
  0
ARC
  8
LY_3
  6
CONTINUOUS
 62
             110
  5
413
 10
36.172348
 20
7.5
 30
0.0
 40
0.75
 50
334.98335300000002
 51
25.016702000000009
  0
ARC
  8
LY_3
  6
CONTINUOUS
 62
             110
  5
414
 10
36.627655000000004
 20
6.0
 30
0.0
 40
0.75
 50
154.98331700000003
 51
205.01671999999999
  0
ARC
  8
LY_3
  6
CONTINUOUS
 62
             110
  5
415
 10
36.172348
 20
4.5000080000000002
 30
0.0
 40
0.75
 50
334.983476
 51
25.016825000000011
  0
ARC
  8
LY_3
  6
CONTINUOUS
 62
             110
  5
416
 10
36.627655000000004
 20
3.0
 30
0.0
 40
0.75
 50
154.98331700000003
 51
205.01659699999999
  0
ARC
  8
LY_3
  6
CONTINUOUS
 62
             110
  5
417
 10
36.172348
 20
1.5
 30
0.0
 40
0.75
 50
334.98322999999999
 51
25.016825000000011
  0
ARC
  8
LY_3
  6
CONTINUOUS
 62
             110
  5
418
 10
36.627655000000004
 20
0.000008
 30
0.0
 40
0.75
 50
154.98331700000003
 51
180.00059200000001
  0
ARC
  8
LY_3
  6
CONTINUOUS
 62
             110
  5
419
 10
36.172348
 20
0.000008
 30
0.0
 40
0.75
 50
359.99941699999999
 51
25.0167
  0
ARC
  8
LY_3
  6
CONTINUOUS
 62
             110
  5
41A
 10
36.627639000000002
 20
1.5
 30
0.0
 40
0.75
 50
154.98319400000003
 51
205.01678899999999
  0
ARC
  8
LY_3
  6
CONTINUOUS
 62
             110
  5
41B
 10
36.172348
 20
3.0
 30
0.0
 40
0.75
 50
334.98342300000002
 51
25.0167
  0
ARC
  8
LY_3
  6
CONTINUOUS
 62
             110
  5
41C
 10
36.627639000000002
 20
4.5000080000000002
 30
0.0
 40
0.75
 50
154.98319400000003
 51
205.01654300000001
  0
ARC
  8
LY_3
  6
CONTINUOUS
 62
             110
  5
41D
 10
36.172348
 20
6.0
 30
0.0
 40
0.75
 50
334.98329999999999
 51
25.0167
  0
ARC
  8
LY_3
  6
CONTINUOUS
 62
             110
  5
41E
 10
36.627655000000004
 20
7.5
 30
0.0
 40
0.75
 50
154.98331700000003
 51
205.01666599999999
  0
ARC
  8
LY_3
  6
CONTINUOUS
 62
             110
  5
41F
 10
36.172348
 20
9.0000079999999993
 30
0.0
 40
0.75
 50
334.98342300000002
 51
25.0167
  0
ARC
  8
LY_3
  6
CONTINUOUS
 62
             110
  5
420
 10
36.627639000000002
 20
10.5
 30
0.0
 40
0.75
 50
154.98319400000003
 51
205.01678899999999
  0
ARC
  8
LY_3
  6
CONTINUOUS
 62
             110
  5
421
 10
36.172348
 20
12.000007999999999
 30
0.0
 40
0.75
 50
334.98329999999999
 51
352.33715599999999
  0
ARC
  8
LY_3
  6
CONTINUOUS
 62
             110
  5
422
 10
36.224120999999997
 20
0.0
 30
0.0
 40
0.25
 50
0.0
 51
181.050884
  0
ARC
  8
LY_3
  6
CONTINUOUS
 62
             110
  5
423
 10
36.224120999999997
 20
12.0
 30
0.0
 40
0.25
 50
203.57817800000001
 51
336.42182200000002
  0
CIRCLE
  8
LY_3
  6
CONTINUOUS
 62
             110
  5
424
 10
36.224120999999997
 20
9.0
 30
0.0
 40
0.25
  0
CIRCLE
  8
LY_3
  6
CONTINUOUS
 62
             110
  5
425
 10
36.224105999999999
 20
6.0000080000000002
 30
0.0
 40
0.25
  0
CIRCLE
  8
LY_3
  6
CONTINUOUS
 62
             110
  5
426
 10
36.224120999999997
 20
3.0
 30
0.0
 40
0.25
  0
CIRCLE
  8
LY_3
  6
CONTINUOUS
 62
             110
  5
427
 10
36.575882
 20
10.500007999999999
 30
0.0
 40
0.25
  0
CIRCLE
  8
LY_3
  6
CONTINUOUS
 62
             110
  5
428
 10
36.575882
 20
7.5000080000000002
 30
0.0
 40
0.25
  0
CIRCLE
  8
LY_3
  6
CONTINUOUS
 62
             110
  5
429
 10
36.575882
 20
4.5
 30
0.0
 40
0.25
  0
CIRCLE
  8
LY_3
  6
CONTINUOUS
 62
             110
  5
42A
 10
36.575882
 20
1.5
 30
0.0
 40
0.25
  0
ARC
  8
LY_3
  6
CONTINUOUS
 62
               3
  5
42B
 10
36.0
 20
16.75
 30
0.0
 40
2.5
 50
218.73942459785567
 51
321.2605754021443
  0
LINE
  8
LY_3
  6
CENTER
 62
             110
  5
42C
 10
27.975465
 20
0.0
 30
0.0
 11
43.222915
 21
0.0
 31
0.0
  0
LINE
  8
LY_3
  6
CONTINUOUS
 62
             110
  5
42D
 10
35.948007000000004
 20
11.682840000000001
 30
0.0
 11
36.150002000000001
 21
11.249992000000001
 31
0.0
  0
LINE
  8
LY_3
  6
CONTINUOUS
 62
             110
  5
42E
 10
36.851989000000003
 20
10.817157
 30
0.0
 11
36.649996999999999
 21
11.249999000000001
 31
0.0
  0
LINE
  8
LY_3
  6
CONTINUOUS
 62
             110
  5
42F
 10
35.948013000000003
 20
9.3171769999999992
 30
0.0
 11
36.149997999999997
 21
9.7500049999999998
 31
0.0
  0
LINE
  8
LY_3
  6
CONTINUOUS
 62
             110
  5
430
 10
36.649999999999999
 20
9.7500110000000006
 30
0.0
 11
36.851989000000003
 21
10.182846
 31
0.0
  0
LINE
  8
LY_3
  6
CONTINUOUS
 62
             110
  5
431
 10
36.150003999999996
 20
8.2500009999999993
 30
0.0
 11
35.948008999999999
 21
8.6828500000000002
 31
0.0
  0
LINE
  8
LY_3
  6
CONTINUOUS
 62
             110
  5
432
 10
36.851995000000002
 20
7.8171590000000002
 30
0.0
 11
36.654268999999999
 21
8.2408599999999996
 31
0.0
  0
LINE
  8
LY_3
  6
CONTINUOUS
 62
             110
  5
433
 10
36.649991999999997
 20
6.7500070000000001
 30
0.0
 11
36.851979999999998
 21
7.1828419999999999
 31
0.0
  0
LINE
  8
LY_3
  6
CONTINUOUS
 62
             110
  5
434
 10
35.948003999999997
 20
6.3171720000000002
 30
0.0
 11
36.149992999999995
 21
6.7500070000000001
 31
0.0
  0
LINE
  8
LY_3
  6
CONTINUOUS
 62
             110
  5
435
 10
36.851990000000001
 20
4.8171739999999996
 30
0.0
 11
36.650001000000003
 21
5.2500090000000004
 31
0.0
  0
LINE
  8
LY_3
  6
CONTINUOUS
 62
             110
  5
436
 10
36.149990000000003
 20
5.2500030000000004
 30
0.0
 11
35.948002000000002
 21
5.6828380000000003
 31
0.0
  0
LINE
  8
LY_3
  6
CONTINUOUS
 62
             110
  5
437
 10
36.650007000000002
 20
3.7500079999999998
 30
0.0
 11
36.851998999999999
 21
4.1828500000000002
 31
0.0
  0
LINE
  8
LY_3
  6
CONTINUOUS
 62
             110
  5
438
 10
35.948013000000003
 20
3.3171590000000002
 30
0.0
 11
36.150002000000001
 21
3.749994
 31
0.0
  0
LINE
  8
LY_3
  6
CONTINUOUS
 62
             110
  5
439
 10
36.851984000000002
 20
1.8171630000000001
 30
0.0
 11
36.649996000000002
 21
2.2499980000000002
 31
0.0
  0
LINE
  8
LY_3
  6
CONTINUOUS
 62
             110
  5
43A
 10
36.149996999999999
 20
2.249997
 30
0.0
 11
35.948004999999995
 21
2.682839
 31
0.0
  0
LINE
  8
LY_3
  6
CONTINUOUS
 62
             110
  5
43B
 10
36.650002000000001
 20
0.750002
 30
0.0
 11
36.851990999999998
 21
1.1828369999999999
 31
0.0
  0
LINE
  8
LY_3
  6
CONTINUOUS
 62
             110
  5
43C
 10
35.948035000000004
 20
0.317166
 30
0.0
 11
36.150020999999995
 21
0.7499940000000001
 31
0.0
  0
LINE
  8
LY_3
  6
CONTINUOUS
 62
             110
  5
43D
 10
35.948014999999998
 20
10.817167
 30
0.0
 11
36.450668
 21
11.894284000000001
 31
0.0
  0
LINE
  8
LY_3
  6
CONTINUOUS
 62
             110
  5
43E
 10
36.450665000000001
 20
9.1057179999999995
 30
0.0
 11
35.948009999999996
 21
10.182842000000001
 31
0.0
  0
LINE
  8
LY_3
  6
CONTINUOUS
 62
             110
  5
43F
 10
35.948024000000004
 20
7.8171540000000004
 30
0.0
 11
36.450676999999999
 21
8.8942709999999998
 31
0.0
  0
LINE
  8
LY_3
  6
CONTINUOUS
 62
             110
  5
440
 10
36.450664000000003
 20
6.105734
 30
0.0
 11
35.948018000000005
 21
7.1828370000000001
 31
0.0
  0
LINE
  8
LY_3
  6
CONTINUOUS
 62
             110
  5
441
 10
35.948025999999999
 20
4.8171710000000001
 30
0.0
 11
36.450681000000003
 21
5.8942940000000004
 31
0.0
  0
LINE
  8
LY_3
  6
CONTINUOUS
 62
             110
  5
442
 10
36.450655999999995
 20
3.1057220000000001
 30
0.0
 11
35.947997999999998
 21
4.1828529999999997
 31
0.0
  0
LINE
  8
LY_3
  6
CONTINUOUS
 62
             110
  5
443
 10
35.948014000000001
 20
1.817167
 30
0.0
 11
36.450665999999998
 21
2.8942839999999999
 31
0.0
  0
LINE
  8
LY_3
  6
CONTINUOUS
 62
             110
  5
444
 10
36.450658000000004
 20
0.105723
 30
0.0
 11
35.948003
 21
1.1828460000000001
 31
0.0
  0
LINE
  8
LY_3
  6
CONTINUOUS
 62
             110
  5
445
 10
36.851997999999995
 20
11.682850999999999
 30
0.0
 11
36.349345999999997
 21
10.605734
 31
0.0
  0
LINE
  8
LY_3
  6
CONTINUOUS
 62
             110
  5
446
 10
36.851985999999997
 20
9.3171719999999993
 30
0.0
 11
36.364197000000004
 21
10.362437
 31
0.0
  0
LINE
  8
LY_3
  6
CONTINUOUS
 62
             110
  5
447
 10
36.349355000000003
 20
7.605721
 30
0.0
 11
36.852012999999999
 21
8.6828520000000005
 31
0.0
  0
LINE
  8
LY_3
  6
CONTINUOUS
 62
             110
  5
448
 10
36.851994000000005
 20
6.3171670000000004
 30
0.0
 11
36.349342
 21
7.3942839999999999
 31
0.0
  0
LINE
  8
LY_3
  6
CONTINUOUS
 62
             110
  5
449
 10
36.349350000000001
 20
4.6057240000000004
 30
0.0
 11
36.852001999999999
 21
5.6828399999999997
 31
0.0
  0
LINE
  8
LY_3
  6
CONTINUOUS
 62
             110
  5
44A
 10
36.852001000000001
 20
3.3171620000000002
 30
0.0
 11
36.349347999999999
 21
4.3942779999999999
 31
0.0
  0
LINE
  8
LY_3
  6
CONTINUOUS
 62
             110
  5
44B
 10
36.349338000000003
 20
1.605721
 30
0.0
 11
36.851990000000001
 21
2.6828370000000001
 31
0.0
  0
LINE
  8
LY_3
  6
CONTINUOUS
 62
             110
  5
44C
 10
36.851982
 20
0.31717
 30
0.0
 11
36.349333000000001
 21
1.39428
 31
0.0
  0
LINE
  8
LY_3
  6
CONTINUOUS
 62
               3
  5
44D
 10
35.800003000000004
 20
0.0
 30
0.0
 11
35.800003000000004
 21
11.949999999999999
 31
0.0
  0
LINE
  8
LY_3
  6
CONTINUOUS
 62
               3
  5
44E
 10
37.0
 20
0.0
 30
0.0
 11
37.0
 21
12.0
 31
0.0
  0
LINE
  8
LY_3
  6
CONTINUOUS
 62
               3
  5
44F
 10
37.0
 20
10.0
 30
0.0
 11
40.0
 21
10.0
 31
0.0
  0
LINE
  8
LY_3
  6
CONTINUOUS
 62
               3
  5
450
 10
32.0
 20
-12.85
 30
0.0
 11
34.049999999999997
 21
-12.85
 31
0.0
  0
LINE
  8
LY_3
  6
CONTINUOUS
 62
               3
  5
451
 10
34.049999999999997
 20
-15.185551215283798
 30
0.0
 11
34.049999999999997
 21
0.0
 31
0.0
  0
LINE
  8
LY_3
  6
CONTINUOUS
 62
               3
  5
452
 10
37.950000000000003
 20
-12.85
 30
0.0
 11
40.0
 21
-12.85
 31
0.0
  0
LINE
  8
LY_3
  6
CONTINUOUS
 62
               3
  5
453
 10
37.950000000000003
 20
-15.185551215283798
 30
0.0
 11
37.950000000000003
 21
0.0
 31
0.0
  0
LINE
  8
LY_3
  6
CONTINUOUS
 62
               3
  5
454
 10
37.950000000000003
 20
12.85
 30
0.0
 11
40.0
 21
12.85
 31
0.0
  0
LINE
  8
LY_3
  6
CONTINUOUS
 62
               3
  5
455
 10
40.0
 20
-12.85
 30
0.0
 11
40.0
 21
12.85
 31
0.0
  0
LINE
  8
LY_3
  6
CONTINUOUS
 62
               3
  5
456
 10
32.0
 20
-12.85
 30
0.0
 11
32.0
 21
12.85
 31
0.0
  0
LINE
  8
LY_3
  6
CONTINUOUS
 62
               3
  5
457
 10
32.0
 20
12.85
 30
0.0
 11
34.049999999999997
 21
12.85
 31
0.0
  0
CIRCLE
  8
LY_3
  6
CONTINUOUS
 62
               3
  5
458
 10
36.0
 20
17.002065734906473
 30
0.0
 40
2.665
  0
CIRCLE
  8
LY_3
  6
CONTINUOUS
 62
               3
  5
459
 10
36.0
 20
-17.002065734906473
 30
0.0
 40
2.665
  0
TEXT
  8
LY_3
  6
CONTINUOUS
 62
             110
  5
45A
 10
11.023936180116339
 20
-21.25
 30
0.0
 40
2.5
  1
VP2016-M
 41
0.9570000457915853
  7
MX_NOTE_STANDARD
 11
11.023936180116339
 21
-18.75
 31
0.0
 73
               3
  0
LINE
  8
LY_3
  6
CONTINUOUS
 62
               3
  5
45B
 10
16.800003
 20
0.0
 30
0.0
 11
16.800003
 21
7.9500000000000002
 31
0.0
  0
INSERT
  8
LY_3
  6
BYBLOCK
 62
             110
  5
464
  2
*X7
 10
0.0
 20
0.0
 30
0.0
  0
ARC
  8
LY_3
  6
CONTINUOUS
 62
               3
  5
465
 10
20.0
 20
-11.75
 30
0.0
 40
2.5
 50
38.739424597855702
 51
141.26057540214433
  0
LINE
  8
LY_3
  6
PHANTOM
 62
             110
  5
466
 10
19.800003
 20
7.9000000000000004
 30
0.0
 11
21.0
 21
7.9000000000000004
 31
0.0
  0
LINE
  8
LY_3
  6
CONTINUOUS
 62
               3
  5
467
 10
16.800003
 20
7.9500000000000002
 30
0.0
 11
19.800003
 21
7.9500000000000002
 31
0.0
  0
ARC
  8
LY_3
  6
CONTINUOUS
 62
             110
  5
468
 10
20.62763
 20
7.500019
 30
0.0
 40
0.75
 50
154.98319400000003
 51
205.01654300000001
  0
CIRCLE
  8
LY_3
  6
CONTINUOUS
 62
             110
  5
469
 10
20.575872
 20
7.5000109999999998
 30
0.0
 40
0.25
  0
ARC
  8
LY_3
  6
CONTINUOUS
 62
             110
  5
46A
 10
20.172338
 20
7.500019
 30
0.0
 40
0.75
 50
334.983476
 51
25.016825000000011
  0
LINE
  8
LY_3
  6
CONTINUOUS
 62
             110
  5
46B
 10
20.851980000000001
 20
7.8171850000000003
 30
0.0
 11
20.813334000000001
 21
7.9000000000000004
 31
0.0
  0
LINE
  8
LY_3
  6
CONTINUOUS
 62
             110
  5
46C
 10
19.948015999999999
 20
7.8171819999999999
 30
0.0
 11
19.986664000000001
 21
7.9000000000000004
 31
0.0
  0
LINE
  8
LY_3
  6
CONTINUOUS
 62
             110
  5
46D
 10
20.349339999999998
 20
7.6057350000000001
 30
0.0
 11
20.486663
 21
7.9000000000000004
 31
0.0
  0
LINE
  8
LY_3
  6
CONTINUOUS
 62
               3
  5
46E
 10
16.0
 20
8.0
 30
0.0
 11
21.0
 21
8.0
 31
0.0
  0
LINE
  8
LY_3
  6
CONTINUOUS
 62
               3
  5
46F
 10
18.050000000000001
 20
8.3499999999999996
 30
0.0
 11
18.050000000000001
 21
10.185551215283798
 31
0.0
  0
LINE
  8
LY_3
  6
CONTINUOUS
 62
               3
  5
470
 10
21.949999999999999
 20
8.3499999999999996
 30
0.0
 11
21.949999999999999
 21
10.185551215283798
 31
0.0
  0
ARC
  8
LY_3
  6
CONTINUOUS
 62
             110
  5
471
 10
20.627655000000001
 20
6.0
 30
0.0
 40
0.75
 50
154.98331700000003
 51
205.01671999999999
  0
ARC
  8
LY_3
  6
CONTINUOUS
 62
             110
  5
472
 10
20.172348
 20
4.5000080000000002
 30
0.0
 40
0.75
 50
334.983476
 51
25.016825000000011
  0
ARC
  8
LY_3
  6
CONTINUOUS
 62
             110
  5
473
 10
20.627655000000001
 20
3.0
 30
0.0
 40
0.75
 50
154.98331700000003
 51
205.01659699999999
  0
ARC
  8
LY_3
  6
CONTINUOUS
 62
             110
  5
474
 10
20.172348
 20
1.5
 30
0.0
 40
0.75
 50
334.98322999999999
 51
25.016825000000011
  0
ARC
  8
LY_3
  6
CONTINUOUS
 62
             110
  5
475
 10
20.627655000000001
 20
0.000008
 30
0.0
 40
0.75
 50
154.98331700000003
 51
180.00059200000001
  0
ARC
  8
LY_3
  6
CONTINUOUS
 62
             110
  5
476
 10
20.172348
 20
0.000008
 30
0.0
 40
0.75
 50
359.99941699999999
 51
25.0167
  0
ARC
  8
LY_3
  6
CONTINUOUS
 62
             110
  5
477
 10
20.627638999999999
 20
1.5
 30
0.0
 40
0.75
 50
154.98319400000003
 51
205.01678899999999
  0
ARC
  8
LY_3
  6
CONTINUOUS
 62
             110
  5
478
 10
20.172348
 20
3.0
 30
0.0
 40
0.75
 50
334.98342300000002
 51
25.0167
  0
ARC
  8
LY_3
  6
CONTINUOUS
 62
             110
  5
479
 10
20.627638999999999
 20
4.5000080000000002
 30
0.0
 40
0.75
 50
154.98319400000003
 51
205.01654300000001
  0
ARC
  8
LY_3
  6
CONTINUOUS
 62
             110
  5
47A
 10
20.172348
 20
6.0
 30
0.0
 40
0.75
 50
334.98329999999999
 51
25.0167
  0
ARC
  8
LY_3
  6
CONTINUOUS
 62
             110
  5
47B
 10
20.224121
 20
0.0
 30
0.0
 40
0.25
 50
0.0
 51
181.050884
  0
CIRCLE
  8
LY_3
  6
CONTINUOUS
 62
             110
  5
47C
 10
20.224105999999999
 20
6.0000080000000002
 30
0.0
 40
0.25
  0
CIRCLE
  8
LY_3
  6
CONTINUOUS
 62
             110
  5
47D
 10
20.224121
 20
3.0
 30
0.0
 40
0.25
  0
CIRCLE
  8
LY_3
  6
CONTINUOUS
 62
             110
  5
47E
 10
20.575882
 20
4.5
 30
0.0
 40
0.25
  0
CIRCLE
  8
LY_3
  6
CONTINUOUS
 62
             110
  5
47F
 10
20.575882
 20
1.5
 30
0.0
 40
0.25
  0
ARC
  8
LY_3
  6
CONTINUOUS
 62
               3
  5
480
 10
20.0
 20
11.75
 30
0.0
 40
2.5
 50
218.73942459785567
 51
321.2605754021443
  0
LINE
  8
LY_3
  6
CONTINUOUS
 62
             110
  5
481
 10
20.649992000000001
 20
6.7500070000000001
 30
0.0
 11
20.851980000000001
 21
7.1828419999999999
 31
0.0
  0
LINE
  8
LY_3
  6
CONTINUOUS
 62
             110
  5
482
 10
19.948004000000001
 20
6.3171720000000002
 30
0.0
 11
20.149992999999998
 21
6.7500070000000001
 31
0.0
  0
LINE
  8
LY_3
  6
CONTINUOUS
 62
             110
  5
483
 10
20.851990000000001
 20
4.8171739999999996
 30
0.0
 11
20.650001
 21
5.2500090000000004
 31
0.0
  0
LINE
  8
LY_3
  6
CONTINUOUS
 62
             110
  5
484
 10
20.149989999999999
 20
5.2500030000000004
 30
0.0
 11
19.948001999999999
 21
5.6828380000000003
 31
0.0
  0
LINE
  8
LY_3
  6
CONTINUOUS
 62
             110
  5
485
 10
20.650006999999999
 20
3.7500079999999998
 30
0.0
 11
20.851998999999999
 21
4.1828500000000002
 31
0.0
  0
LINE
  8
LY_3
  6
CONTINUOUS
 62
             110
  5
486
 10
19.948013
 20
3.3171590000000002
 30
0.0
 11
20.150002000000001
 21
3.749994
 31
0.0
  0
LINE
  8
LY_3
  6
CONTINUOUS
 62
             110
  5
487
 10
20.851983999999998
 20
1.8171630000000001
 30
0.0
 11
20.649995999999998
 21
2.2499980000000002
 31
0.0
  0
LINE
  8
LY_3
  6
CONTINUOUS
 62
             110
  5
488
 10
20.149996999999999
 20
2.249997
 30
0.0
 11
19.948004999999998
 21
2.682839
 31
0.0
  0
LINE
  8
LY_3
  6
CONTINUOUS
 62
             110
  5
489
 10
20.650002000000001
 20
0.750002
 30
0.0
 11
20.851990999999998
 21
1.1828369999999999
 31
0.0
  0
LINE
  8
LY_3
  6
CONTINUOUS
 62
             110
  5
48A
 10
19.948035000000001
 20
0.317166
 30
0.0
 11
20.150020999999999
 21
0.7499940000000001
 31
0.0
  0
LINE
  8
LY_3
  6
CONTINUOUS
 62
             110
  5
48B
 10
20.450664
 20
6.105734
 30
0.0
 11
19.948018000000001
 21
7.1828370000000001
 31
0.0
  0
LINE
  8
LY_3
  6
CONTINUOUS
 62
             110
  5
48C
 10
19.948025999999999
 20
4.8171710000000001
 30
0.0
 11
20.450680999999999
 21
5.8942940000000004
 31
0.0
  0
LINE
  8
LY_3
  6
CONTINUOUS
 62
             110
  5
48D
 10
20.450655999999999
 20
3.1057220000000001
 30
0.0
 11
19.947997999999998
 21
4.1828529999999997
 31
0.0
  0
LINE
  8
LY_3
  6
CONTINUOUS
 62
             110
  5
48E
 10
19.948014000000001
 20
1.817167
 30
0.0
 11
20.450665999999998
 21
2.8942839999999999
 31
0.0
  0
LINE
  8
LY_3
  6
CONTINUOUS
 62
             110
  5
48F
 10
20.450658000000001
 20
0.105723
 30
0.0
 11
19.948003
 21
1.1828460000000001
 31
0.0
  0
LINE
  8
LY_3
  6
CONTINUOUS
 62
             110
  5
490
 10
20.851994000000001
 20
6.3171670000000004
 30
0.0
 11
20.349342
 21
7.3942839999999999
 31
0.0
  0
LINE
  8
LY_3
  6
CONTINUOUS
 62
             110
  5
491
 10
20.349350000000001
 20
4.6057240000000004
 30
0.0
 11
20.852001999999999
 21
5.6828399999999997
 31
0.0
  0
LINE
  8
LY_3
  6
CONTINUOUS
 62
             110
  5
492
 10
20.852001000000001
 20
3.3171620000000002
 30
0.0
 11
20.349347999999999
 21
4.3942779999999999
 31
0.0
  0
LINE
  8
LY_3
  6
CONTINUOUS
 62
             110
  5
493
 10
20.349337999999999
 20
1.605721
 30
0.0
 11
20.851990000000001
 21
2.6828370000000001
 31
0.0
  0
LINE
  8
LY_3
  6
CONTINUOUS
 62
             110
  5
494
 10
20.851982
 20
0.31717
 30
0.0
 11
20.349333000000001
 21
1.39428
 31
0.0
  0
LINE
  8
LY_3
  6
CONTINUOUS
 62
               3
  5
495
 10
19.800003
 20
0.0
 30
0.0
 11
19.800003
 21
7.9500000000000002
 31
0.0
  0
LINE
  8
LY_3
  6
CONTINUOUS
 62
               3
  5
496
 10
16.800003
 20
6.5
 30
0.0
 11
19.800003
 21
6.5
 31
0.0
  0
LINE
  8
LY_3
  6
CONTINUOUS
 62
               3
  5
497
 10
21.0
 20
0.0
 30
0.0
 11
21.0
 21
8.0
 31
0.0
  0
LINE
  8
LY_3
  6
CONTINUOUS
 62
               3
  5
498
 10
21.0
 20
6.5
 30
0.0
 11
24.0
 21
6.5
 31
0.0
  0
LINE
  8
LY_3
  6
CONTINUOUS
 62
               3
  5
499
 10
16.0
 20
-8.3499999999999996
 30
0.0
 11
18.050000000000001
 21
-8.3499999999999996
 31
0.0
  0
LINE
  8
LY_3
  6
CONTINUOUS
 62
               3
  5
49A
 10
18.050000000000001
 20
-10.185551215283798
 30
0.0
 11
18.050000000000001
 21
0.0
 31
0.0
  0
LINE
  8
LY_3
  6
CONTINUOUS
 62
               3
  5
49B
 10
21.949999999999999
 20
-8.3499999999999996
 30
0.0
 11
24.0
 21
-8.3499999999999996
 31
0.0
  0
LINE
  8
LY_3
  6
CONTINUOUS
 62
               3
  5
49C
 10
21.949999999999999
 20
-10.185551215283798
 30
0.0
 11
21.949999999999999
 21
0.0
 31
0.0
  0
LINE
  8
LY_3
  6
CONTINUOUS
 62
               3
  5
49D
 10
21.949999999999999
 20
8.3499999999999996
 30
0.0
 11
24.0
 21
8.3499999999999996
 31
0.0
  0
LINE
  8
LY_3
  6
CONTINUOUS
 62
               3
  5
49E
 10
24.0
 20
-8.3499999999999996
 30
0.0
 11
24.0
 21
8.3499999999999996
 31
0.0
  0
LINE
  8
LY_3
  6
CONTINUOUS
 62
               3
  5
49F
 10
16.0
 20
-8.3499999999999996
 30
0.0
 11
16.0
 21
8.3499999999999996
 31
0.0
  0
LINE
  8
LY_3
  6
CONTINUOUS
 62
               3
  5
4A0
 10
16.0
 20
8.3499999999999996
 30
0.0
 11
18.050000000000001
 21
8.3499999999999996
 31
0.0
  0
CIRCLE
  8
LY_3
  6
CONTINUOUS
 62
               3
  5
4A1
 10
20.0
 20
12.002065734906475
 30
0.0
 40
2.665
  0
CIRCLE
  8
LY_3
  6
CONTINUOUS
 62
               3
  5
4A2
 10
20.0
 20
-12.002065734906475
 30
0.0
 40
2.665
  0
LINE
  8
LY_3
  6
CENTER
 62
             110
  5
4A3
 10
11.975465
 20
0.0
 30
0.0
 11
27.222915
 21
0.0
 31
0.0
  0
TEXT
  8
LY_3
  6
CONTINUOUS
 62
             110
  5
4A4
 10
-4.9673913235209355
 20
-17.25
 30
0.0
 40
2.5
  1
VP2010-M
 41
0.9779999417377556
  7
MX_NOTE_STANDARD
 11
-4.9673913235209355
 21
-14.75
 31
0.0
 73
               3
  0
CIRCLE
  8
LY_3
  6
CONTINUOUS
 62
               3
  5
4A5
 10
4.0000000054902323
 20
-9.6020581263149367
 30
0.0
 40
2.665
  0
CIRCLE
  8
LY_3
  6
CONTINUOUS
 62
               3
  5
4A6
 10
4.0
 20
10.402065734906474
 30
0.0
 40
2.665
  0
LINE
  8
LY_3
  6
CONTINUOUS
 62
               3
  5
4A7
 10
0.0
 20
5.8499999999999996
 30
0.0
 11
2.0500000000000007
 21
5.8499999999999996
 31
0.0
  0
LINE
  8
LY_3
  6
CONTINUOUS
 62
               3
  5
4A8
 10
0.0
 20
5.0
 30
0.0
 11
5.0
 21
5.0
 31
0.0
  0
LINE
  8
LY_3
  6
CONTINUOUS
 62
               3
  5
4A9
 10
0.0
 20
-5.8499999999999996
 30
0.0
 11
0.0
 21
5.8499999999999996
 31
0.0
  0
LINE
  8
LY_3
  6
CONTINUOUS
 62
               3
  5
4AA
 10
8.0
 20
-5.8499999999999996
 30
0.0
 11
8.0
 21
5.8499999999999996
 31
0.0
  0
LINE
  8
LY_3
  6
CONTINUOUS
 62
               3
  5
4AB
 10
5.9499999999999993
 20
5.8499999999999996
 30
0.0
 11
8.0
 21
5.8499999999999996
 31
0.0
  0
LINE
  8
LY_3
  6
CONTINUOUS
 62
               3
  5
4AC
 10
5.9499999999999993
 20
-7.7855439999999998
 30
0.0
 11
5.9499999999999993
 21
0.0
 31
0.0
  0
LINE
  8
LY_3
  6
CONTINUOUS
 62
               3
  5
4AD
 10
5.9499999999999993
 20
-5.8499999999999996
 30
0.0
 11
8.0
 21
-5.8499999999999996
 31
0.0
  0
LINE
  8
LY_3
  6
CONTINUOUS
 62
               3
  5
4AE
 10
2.0500000000000007
 20
-7.7855439999999998
 30
0.0
 11
2.0500000000000007
 21
0.0
 31
0.0
  0
LINE
  8
LY_3
  6
CONTINUOUS
 62
               3
  5
4AF
 10
0.0
 20
-5.8499999999999996
 30
0.0
 11
2.0500000000000007
 21
-5.8499999999999996
 31
0.0
  0
LINE
  8
LY_3
  6
CONTINUOUS
 62
               3
  5
4B0
 10
5.0
 20
3.5
 30
0.0
 11
8.0
 21
3.5
 31
0.0
  0
LINE
  8
LY_3
  6
CONTINUOUS
 62
               3
  5
4B1
 10
5.0
 20
0.0
 30
0.0
 11
5.0
 21
5.0
 31
0.0
  0
LINE
  8
LY_3
  6
CONTINUOUS
 62
               3
  5
4B2
 10
0.8000030000000002
 20
3.5
 30
0.0
 11
3.8000030000000002
 21
3.5
 31
0.0
  0
LINE
  8
LY_3
  6
CONTINUOUS
 62
               3
  5
4B3
 10
3.8000030000000002
 20
0.0
 30
0.0
 11
3.8000030000000002
 21
4.9500000000000002
 31
0.0
  0
LINE
  8
LY_3
  6
CONTINUOUS
 62
             110
  5
4B4
 10
4.8519819999999996
 20
0.31717
 30
0.0
 11
4.3493330000000014
 21
1.39428
 31
0.0
  0
LINE
  8
LY_3
  6
CONTINUOUS
 62
             110
  5
4B5
 10
4.3493379999999995
 20
1.605721
 30
0.0
 11
4.8519900000000007
 21
2.6828370000000001
 31
0.0
  0
LINE
  8
LY_3
  6
CONTINUOUS
 62
             110
  5
4B6
 10
4.8520010000000013
 20
3.3171620000000002
 30
0.0
 11
4.3493479999999991
 21
4.3942779999999999
 31
0.0
  0
LINE
  8
LY_3
  6
CONTINUOUS
 62
             110
  5
4B7
 10
4.4506580000000007
 20
0.105723
 30
0.0
 11
3.9480029999999999
 21
1.1828460000000001
 31
0.0
  0
LINE
  8
LY_3
  6
CONTINUOUS
 62
             110
  5
4B8
 10
3.9480140000000006
 20
1.817167
 30
0.0
 11
4.4506659999999982
 21
2.8942839999999999
 31
0.0
  0
LINE
  8
LY_3
  6
CONTINUOUS
 62
             110
  5
4B9
 10
4.4506559999999986
 20
3.1057220000000001
 30
0.0
 11
3.9479979999999983
 21
4.1828529999999997
 31
0.0
  0
LINE
  8
LY_3
  6
CONTINUOUS
 62
             110
  5
4BA
 10
3.9480350000000008
 20
0.317166
 30
0.0
 11
4.1500209999999988
 21
0.7499940000000001
 31
0.0
  0
LINE
  8
LY_3
  6
CONTINUOUS
 62
             110
  5
4BB
 10
4.6500020000000006
 20
0.750002
 30
0.0
 11
4.8519909999999982
 21
1.1828369999999999
 31
0.0
  0
LINE
  8
LY_3
  6
CONTINUOUS
 62
             110
  5
4BC
 10
4.149996999999999
 20
2.249997
 30
0.0
 11
3.9480049999999984
 21
2.682839
 31
0.0
  0
LINE
  8
LY_3
  6
CONTINUOUS
 62
             110
  5
4BD
 10
4.8519839999999981
 20
1.8171630000000001
 30
0.0
 11
4.649995999999998
 21
2.2499980000000002
 31
0.0
  0
LINE
  8
LY_3
  6
CONTINUOUS
 62
             110
  5
4BE
 10
3.9480129999999996
 20
3.3171590000000002
 30
0.0
 11
4.1500020000000006
 21
3.749994
 31
0.0
  0
LINE
  8
LY_3
  6
CONTINUOUS
 62
             110
  5
4BF
 10
4.6500069999999987
 20
3.7500079999999998
 30
0.0
 11
4.8519989999999993
 21
4.1828500000000002
 31
0.0
  0
LINE
  8
LY_3
  6
CENTER
 62
             110
  5
4C0
 10
-2.3037070000000011
 20
0.0
 30
0.0
 11
10.055296999999999
 21
0.0
 31
0.0
  0
ARC
  8
LY_3
  6
CONTINUOUS
 62
               3
  5
4C1
 10
4.0
 20
10.15
 30
0.0
 40
2.5
 50
218.73942459785567
 51
321.2605754021443
  0
ARC
  8
LY_3
  6
CONTINUOUS
 62
               3
  5
4C2
 10
4.0
 20
-9.3499920000000003
 30
0.0
 40
2.5
 50
38.739424999999997
 51
141.26057499999999
  0
CIRCLE
  8
LY_3
  6
CONTINUOUS
 62
             110
  5
4C3
 10
4.575882
 20
1.5
 30
0.0
 40
0.25
  0
CIRCLE
  8
LY_3
  6
CONTINUOUS
 62
             110
  5
4C4
 10
4.2241210000000002
 20
3.0
 30
0.0
 40
0.25
  0
ARC
  8
LY_3
  6
CONTINUOUS
 62
             110
  5
4C5
 10
4.2241210000000002
 20
0.0
 30
0.0
 40
0.25
 50
0.0
 51
181.050884
  0
ARC
  8
LY_3
  6
CONTINUOUS
 62
             110
  5
4C6
 10
4.1723479999999995
 20
3.0
 30
0.0
 40
0.75
 50
334.98342300000002
 51
25.0167
  0
ARC
  8
LY_3
  6
CONTINUOUS
 62
             110
  5
4C7
 10
4.6276389999999985
 20
1.5
 30
0.0
 40
0.75
 50
154.98319400000003
 51
205.01678899999999
  0
ARC
  8
LY_3
  6
CONTINUOUS
 62
             110
  5
4C8
 10
4.1723479999999995
 20
0.000008
 30
0.0
 40
0.75
 50
359.99941699999999
 51
25.0167
  0
ARC
  8
LY_3
  6
CONTINUOUS
 62
             110
  5
4C9
 10
4.6276550000000007
 20
0.000008
 30
0.0
 40
0.75
 50
154.98331700000003
 51
180.00059200000001
  0
ARC
  8
LY_3
  6
CONTINUOUS
 62
             110
  5
4CA
 10
4.1723479999999995
 20
1.5
 30
0.0
 40
0.75
 50
334.98322999999999
 51
25.016825000000011
  0
ARC
  8
LY_3
  6
CONTINUOUS
 62
             110
  5
4CB
 10
4.6276550000000007
 20
3.0
 30
0.0
 40
0.75
 50
154.98331700000003
 51
205.01659699999999
  0
LINE
  8
LY_3
  6
CONTINUOUS
 62
               3
  5
4CC
 10
5.9499999999999993
 20
5.8499999999999996
 30
0.0
 11
5.9499999999999993
 21
8.5855512152837967
 31
0.0
  0
LINE
  8
LY_3
  6
CONTINUOUS
 62
               3
  5
4CD
 10
2.0500000000000007
 20
5.8499999999999996
 30
0.0
 11
2.0500000000000007
 21
8.5855512152837967
 31
0.0
  0
CIRCLE
  8
LY_3
  6
CONTINUOUS
 62
             110
  5
4CE
 10
4.5758900000000011
 20
4.5000140000000002
 30
0.0
 40
0.25
  0
ARC
  8
LY_3
  6
CONTINUOUS
 62
             110
  5
4CF
 10
4.1723560000000006
 20
4.5000140000000002
 30
0.0
 40
0.75
 50
334.98322999999999
 51
25.016825000000011
  0
LINE
  8
LY_3
  6
CONTINUOUS
 62
             110
  5
4D0
 10
4.3493460000000006
 20
4.605734
 30
0.0
 11
4.4866689999999991
 21
4.9000000000000004
 31
0.0
  0
LINE
  8
LY_3
  6
CONTINUOUS
 62
             110
  5
4D1
 10
4.8519930000000002
 20
4.8171759999999999
 30
0.0
 11
4.8133419999999987
 21
4.9000000000000004
 31
0.0
  0
ARC
  8
LY_3
  6
CONTINUOUS
 62
             110
  5
4D2
 10
4.6276480000000006
 20
4.5000140000000002
 30
0.0
 40
0.75
 50
154.98319400000003
 51
205.01678899999999
  0
LINE
  8
LY_3
  6
CONTINUOUS
 62
             110
  5
4D3
 10
3.9480219999999981
 20
4.8171809999999997
 30
0.0
 11
3.9866710000000012
 21
4.9000000000000004
 31
0.0
  0
LINE
  8
LY_3
  6
CONTINUOUS
 62
               3
  5
4D4
 10
0.8000030000000002
 20
0.0
 30
0.0
 11
0.8000030000000002
 21
4.9500000000000002
 31
0.0
  0
LINE
  8
LY_3
  6
CONTINUOUS
 62
               3
  5
4D5
 10
0.8000030000000002
 20
4.9500000000000002
 30
0.0
 11
3.8000030000000002
 21
4.9500000000000002
 31
0.0
  0
LINE
  8
LY_3
  6
PHANTOM
 62
             110
  5
4D6
 10
3.8000030000000002
 20
4.9000000000000004
 30
0.0
 11
5.0
 21
4.9000000000000004
 31
0.0
  0
INSERT
  8
LY_3
  6
BYBLOCK
 62
             110
  5
4E0
  2
*X8
 10
0.0
 20
0.0
 30
0.0
  0
ENDSEC
  0
EOF
