  0
SECTION
  2
HEADER
  9
$ACADVER
  1
AC1009
  9
$DWGCODEPAGE
  3
dos932
  9
$INSBASE
 10
0.0
 20
0.0
 30
0.0
  9
$EXTMIN
 10
-3.0313970481540746
 20
-65.875
 30
0.0
  9
$EXTMAX
 10
136.96100000000001
 20
60.371360981046116
 30
0.0
  9
$LIMMIN
 10
-3.0313970481540746
 20
-65.875
  9
$LIMMAX
 10
136.96100000000001
 20
60.371360981046116
  9
$ORTHOMODE
 70
               0
  9
$REGENMODE
 70
               1
  9
$FILLMODE
 70
               1
  9
$QTEXTMODE
 70
               0
  9
$MIRRTEXT
 70
               1
  9
$DRAGMODE
 70
               2
  9
$LTSCALE
 40
1.0
  9
$OSMODE
 70
               0
  9
$ATTMODE
 70
               1
  9
$TEXTSIZE
 40
3.2000000476837158
  9
$TRACEWID
 40
0.05
  9
$TEXTSTYLE
  7
MX_NOTE_STANDARD
  9
$CLAYER
  8
LY_3
  9
$CELTYPE
  6
CONTINUOUS
  9
$CECOLOR
 62
             256
  9
$DIMSCALE
 40
1.0
  9
$DIMASZ
 40
2.5
  9
$DIMEXO
 40
2.0
  9
$DIMDLI
 40
3.75
  9
$DIMRND
 40
0.0
  9
$DIMDLE
 40
0.0
  9
$DIMEXE
 40
1.0
  9
$DIMTP
 40
0.0
  9
$DIMTM
 40
0.0
  9
$DIMTXT
 40
4.1655998229980469
  9
$DIMCEN
 40
2.5
  9
$DIMTSZ
 40
0.0
  9
$DIMTOL
 70
               0
  9
$DIMLIM
 70
               0
  9
$DIMTIH
 70
               0
  9
$DIMTOH
 70
               0
  9
$DIMSE1
 70
               0
  9
$DIMSE2
 70
               0
  9
$DIMTAD
 70
               1
  9
$DIMZIN
 70
               8
  9
$DIMBLK
  1

  9
$DIMASO
 70
               1
  9
$DIMSHO
 70
               1
  9
$DIMPOST
  1

  9
$DIMAPOST
  1

  9
$DIMALT
 70
               0
  9
$DIMALTD
 70
               4
  9
$DIMALTF
 40
0.03937007874016
  9
$DIMLFAC
 40
1.0
  9
$DIMTOFL
 70
               1
  9
$DIMTVP
 40
0.0
  9
$DIMTIX
 70
               0
  9
$DIMSOXD
 70
               0
  9
$DIMSAH
 70
               1
  9
$DIMBLK1
  1
_OPEN30
  9
$DIMBLK2
  1
_OPEN30
  9
$DIMSTYLE
  2
MXDIMSTYLE
  9
$DIMCLRD
 70
               0
  9
$DIMCLRE
 70
               0
  9
$DIMCLRT
 70
               0
  9
$DIMTFAC
 40
1.0
  9
$DIMGAP
 40
1.0
  9
$LUNITS
 70
               2
  9
$LUPREC
 70
               4
  9
$AXISMODE
 70
               0
  9
$AXISUNIT
 10
0.0
 20
0.0
  9
$SKETCHINC
 40
0.1
  9
$FILLETRAD
 40
0.0
  9
$AUNITS
 70
               0
  9
$AUPREC
 70
               0
  9
$MENU
  1
acad
  9
$ELEVATION
 40
0.0
  9
$PELEVATION
 40
0.0
  9
$THICKNESS
 40
0.0
  9
$LIMCHECK
 70
               0
  9
$BLIPMODE
 70
               1
  9
$CHAMFERA
 40
0.0
  9
$CHAMFERB
 40
0.0
  9
$SKPOLY
 70
               0
  9
$TDCREATE
 40
2455163.526712963
  9
$TDUPDATE
 40
2455163.526712963
  9
$TDINDWG
 40
0.0000000000
  9
$TDUSRTIMER
 40
0.0000000000
  9
$USRTIMER
 70
               1
  9
$ANGBASE
 50
0.0
  9
$ANGDIR
 70
               0
  9
$PDMODE
 70
               0
  9
$PDSIZE
 40
0.0
  9
$PLINEWID
 40
0.0
  9
$COORDS
 70
               1
  9
$SPLFRAME
 70
               0
  9
$SPLINETYPE
 70
               6
  9
$SPLINESEGS
 70
               8
  9
$ATTDIA
 70
               0
  9
$ATTREQ
 70
               1
  9
$HANDLING
 70
               1
  9
$HANDSEED
  5
D0
  9
$SURFTAB1
 70
               6
  9
$SURFTAB2
 70
               6
  9
$SURFTYPE
 70
               6
  9
$SURFU
 70
               6
  9
$SURFV
 70
               6
  9
$UCSNAME
  2

  9
$UCSORG
 10
0.0
 20
0.0
 30
0.0
  9
$UCSXDIR
 10
1.0
 20
0.0
 30
0.0
  9
$UCSYDIR
 10
0.0
 20
1.0
 30
0.0
  9
$PUCSNAME
  2

  9
$PUCSORG
 10
0.0
 20
0.0
 30
0.0
  9
$PUCSXDIR
 10
1.0
 20
0.0
 30
0.0
  9
$PUCSYDIR
 10
0.0
 20
1.0
 30
0.0
  9
$USERI1
 70
               0
  9
$USERI2
 70
               0
  9
$USERI3
 70
               0
  9
$USERI4
 70
               0
  9
$USERI5
 70
               0
  9
$USERR1
 40
0.0
  9
$USERR2
 40
0.0
  9
$USERR3
 40
0.0
  9
$USERR4
 40
0.0
  9
$USERR5
 40
0.0
  9
$WORLDVIEW
 70
               1
  9
$SHADEDGE
 70
               3
  9
$SHADEDIF
 70
              70
  9
$TILEMODE
 70
               1
  9
$MAXACTVP
 70
              16
  9
$PINSBASE
 10
0.0
 20
0.0
 30
0.0
  9
$PLIMCHECK
 70
               0
  9
$PEXTMIN
 10
1.0000000000000000E+20
 20
1.0000000000000000E+20
 30
1.0000000000000000E+20
  9
$PEXTMAX
 10
-1.0000000000000000E+20
 20
-1.0000000000000000E+20
 30
-1.0000000000000000E+20
  9
$PLIMMIN
 10
0.0
 20
0.0
  9
$PLIMMAX
 10
12.0
 20
9.0
  9
$UNITMODE
 70
               0
  9
$VISRETAIN
 70
               0
  9
$PLINEGEN
 70
               1
  9
$PSLTSCALE
 70
               0
  9
$TREEDEPTH
 70
            3020
  0
ENDSEC
  0
SECTION
  2
TABLES
  0
TABLE
  2
VPORT
 70
               1
  0
VPORT
  2
*ACTIVE
 70
               0
 10
0.0
 20
0.0
 11
1.0
 21
1.0
 12
66.964801475922968
 22
-2.7518195094769453
 13
0.0
 23
0.0
 14
1.0
 24
1.0
 15
0.0
 25
0.0
 16
0.0
 26
0.0
 36
1.0
 17
0.0
 27
0.0
 37
0.0
 40
127.50882459085658
 41
1.7320508075688772
 42
50.0
 43
0.0
 44
0.0
 50
0.0
 51
0.0
 71
               0
 72
             100
 73
               1
 74
               1
 75
               0
 76
               0
 77
               0
 78
               0
  0
ENDTAB
  0
TABLE
  2
LTYPE
 70
               2
  0
LTYPE
  2
CONTINUOUS
 70
              64
  3
Solid line
 72
              65
 73
               0
 40
0.0
  0
LTYPE
  2
CENTER
 70
              64
  3
Center ____ _ ____ _ ____ _ ____ _ ____ _ ____
 72
              65
 73
               4
 40
50.800000000000004
 49
31.75
 49
-6.3499999999999996
 49
6.3499999999999996
 49
-6.3499999999999996
  0
ENDTAB
  0
TABLE
  2
LAYER
 70
               3
  0
LAYER
  2
0
 70
               0
 62
               7
  6
CONTINUOUS
  0
LAYER
  2
DEFPOINTS
 70
               0
 62
               7
  6
CONTINUOUS
  0
LAYER
  2
LY_3
 70
               0
 62
               7
  6
CONTINUOUS
  0
ENDTAB
  0
TABLE
  2
STYLE
 70
               1
  0
STYLE
  2
MX_NOTE_STANDARD
 70
               0
 40
0.0
 41
1.0
 50
0.0
 71
               0
 42
3.2000000476837158
  3
txt.shx
  4
extfont.shx
  0
ENDTAB
  0
TABLE
  2
VIEW
 70
               0
  0
ENDTAB
  0
TABLE
  2
UCS
 70
               0
  0
ENDTAB
  0
TABLE
  2
APPID
 70
               1
  0
APPID
  2
ACAD
 70
               0
  0
ENDTAB
  0
TABLE
  2
DIMSTYLE
 70
               1
  0
DIMSTYLE
  2
MXDIMSTYLE
 70
               0
  3

  4

  5

  6
_OPEN30
  7
_OPEN30
 40
1.0
 41
2.5
 42
2.0
 43
3.75
 44
1.0
 45
0.0
 46
0.0
 47
0.0
 48
0.0
 71
               0
 72
               0
 73
               0
 74
               0
 75
               0
 76
               0
 77
               1
 78
               8
140
4.1655998229980469
141
2.5
142
0.0
143
0.03937007874016
144
1.0
145
0.0
146
1.0
147
1.0
170
               0
171
               4
172
               1
173
               1
174
               0
175
               0
176
               0
177
               0
178
               0
  0
ENDTAB
  0
ENDSEC
  0
SECTION
  2
BLOCKS
  0
BLOCK
  8
0
  6
BYBLOCK
 62
               0
  5
20
  2
_OPEN30
 70
               2
 10
0.0
 20
0.0
 30
0.0
  3
_OPEN30
  0
LINE
  8
0
  6
BYBLOCK
 62
               0
  5
21
 10
-1.0
 20
0.267949
 30
0.0
 11
0.0
 21
0.0
 31
0.0
  0
LINE
  8
0
  6
BYBLOCK
 62
               0
  5
22
 10
0.0
 20
0.0
 30
0.0
 11
-1.0
 21
-0.267949
 31
0.0
  0
LINE
  8
0
  6
BYBLOCK
 62
               0
  5
23
 10
0.0
 20
0.0
 30
0.0
 11
-1.0
 21
0.0
 31
0.0
  0
ENDBLK
  8
0
  6
BYBLOCK
 62
               0
  5
24
  0
ENDSEC
  0
SECTION
  2
ENTITIES
  0
TEXT
  8
LY_3
  6
CONTINUOUS
 62
             110
  5
25
 10
121.38235293973653
 20
-65.25
 30
0.0
 40
2.5
  1
VP2100
 41
0.9929999709374764
  7
MX_NOTE_STANDARD
 11
121.38235293973653
 21
-62.75
 31
0.0
 73
               3
  0
TEXT
  8
LY_3
  6
CONTINUOUS
 62
             110
  5
26
 10
97.359374995032937
 20
-57.25
 30
0.0
 40
2.5
  1
VP2080
 41
0.9380000114440918
  7
MX_NOTE_STANDARD
 11
97.359374995032937
 21
-54.75
 31
0.0
 73
               3
  0
TEXT
  8
LY_3
  6
CONTINUOUS
 62
             110
  5
27
 10
77.348817550486061
 20
-49.25
 30
0.0
 40
2.5
  1
VP2063
 41
0.9119999624200769
  7
MX_NOTE_STANDARD
 11
77.348817550486061
 21
-46.75
 31
0.0
 73
               3
  0
TEXT
  8
LY_3
  6
CONTINUOUS
 62
             110
  5
28
 10
61.359374995032951
 20
-41.25
 30
0.0
 40
2.5
  1
VP2050
 41
0.9380000114440918
  7
MX_NOTE_STANDARD
 11
61.359374995032951
 21
-38.75
 31
0.0
 73
               3
  0
TEXT
  8
LY_3
  6
CONTINUOUS
 62
             110
  5
29
 10
45.359374995032951
 20
-33.25
 30
0.0
 40
2.5
  1
VP2040
 41
0.9380000114440918
  7
MX_NOTE_STANDARD
 11
45.359374995032951
 21
-30.75
 31
0.0
 73
               3
  0
TEXT
  8
LY_3
  6
CONTINUOUS
 62
             110
  5
2A
 10
29.348817550486054
 20
-25.25
 30
0.0
 40
2.5
  1
VP2025
 41
0.9119999624200769
  7
MX_NOTE_STANDARD
 11
29.348817550486054
 21
-22.75
 31
0.0
 73
               3
  0
TEXT
  8
LY_3
  6
CONTINUOUS
 62
             110
  5
2B
 10
13.370535702568333
 20
-21.25
 30
0.0
 40
2.5
  1
VP2016
 41
0.9639999650955202
  7
MX_NOTE_STANDARD
 11
13.370535702568333
 21
-18.75
 31
0.0
 73
               3
  0
TEXT
  8
LY_3
  6
CONTINUOUS
 62
             110
  5
2C
 10
-2.6176470602634594
 20
-21.25
 30
0.0
 40
2.5
  1
VP2010
 41
0.9929999709374764
  7
MX_NOTE_STANDARD
 11
-2.6176470602634594
 21
-18.75
 31
0.0
 73
               3
  0
ARC
  8
LY_3
  6
CONTINUOUS
 62
               3
  5
2D
 10
126.30000000000001
 20
-55.338403
 30
0.0
 40
0.25
 50
180.0
 51
308.18348200000003
  0
ARC
  8
LY_3
  6
CONTINUOUS
 62
               3
  5
2E
 10
129.69999999999999
 20
-55.338403
 30
0.0
 40
0.25
 50
231.816518
 51
0.0
  0
ARC
  8
LY_3
  6
CONTINUOUS
 62
               3
  5
2F
 10
128.0
 20
-57.5
 30
0.0
 40
2.5
 50
51.816518000000009
 51
128.183482
  0
ARC
  8
LY_3
  6
CONTINUOUS
 62
               3
  5
30
 10
129.69999999999999
 20
55.338403
 30
0.0
 40
0.25
 50
0.0
 51
128.183482
  0
ARC
  8
LY_3
  6
CONTINUOUS
 62
               3
  5
31
 10
126.30000000000001
 20
55.338403
 30
0.0
 40
0.25
 50
51.816518000000009
 51
180.0
  0
LINE
  8
LY_3
  6
CONTINUOUS
 62
               3
  5
32
 10
122.0
 20
50.0
 30
0.0
 11
134.0
 21
50.0
 31
0.0
  0
ARC
  8
LY_3
  6
CONTINUOUS
 62
               3
  5
33
 10
128.0
 20
57.5
 30
0.0
 40
2.5
 50
231.816518
 51
308.18348200000003
  0
LINE
  8
LY_3
  6
CONTINUOUS
 62
               3
  5
34
 10
134.0
 20
-50.799999999999997
 30
0.0
 11
134.0
 21
50.799999999999997
 31
0.0
  0
LINE
  8
LY_3
  6
CONTINUOUS
 62
               3
  5
35
 10
129.94999999999999
 20
-50.799999999999997
 30
0.0
 11
134.0
 21
-50.799999999999997
 31
0.0
  0
LINE
  8
LY_3
  6
CONTINUOUS
 62
               3
  5
36
 10
129.94999999999999
 20
-55.338403
 30
0.0
 11
129.94999999999999
 21
0.0
 31
0.0
  0
LINE
  8
LY_3
  6
CONTINUOUS
 62
               3
  5
37
 10
126.05000000000001
 20
-55.338403
 30
0.0
 11
126.05000000000001
 21
0.0
 31
0.0
  0
LINE
  8
LY_3
  6
CONTINUOUS
 62
               3
  5
38
 10
122.0
 20
-50.799999999999997
 30
0.0
 11
126.05000000000001
 21
-50.799999999999997
 31
0.0
  0
LINE
  8
LY_3
  6
CONTINUOUS
 62
               3
  5
39
 10
122.0
 20
50.799999999999997
 30
0.0
 11
122.0
 21
-50.799999999999997
 31
0.0
  0
LINE
  8
LY_3
  6
CONTINUOUS
 62
               3
  5
3A
 10
129.94999999999999
 20
50.799999999999997
 30
0.0
 11
134.0
 21
50.799999999999997
 31
0.0
  0
LINE
  8
LY_3
  6
CONTINUOUS
 62
               3
  5
3B
 10
129.94999999999999
 20
55.338403
 30
0.0
 11
129.94999999999999
 21
50.799999999999997
 31
0.0
  0
LINE
  8
LY_3
  6
CONTINUOUS
 62
               3
  5
3C
 10
126.05000000000001
 20
55.338403
 30
0.0
 11
126.05000000000001
 21
50.799999999999997
 31
0.0
  0
LINE
  8
LY_3
  6
CONTINUOUS
 62
               3
  5
3D
 10
122.0
 20
50.799999999999997
 30
0.0
 11
126.05000000000001
 21
50.799999999999997
 31
0.0
  0
LINE
  8
LY_3
  6
CENTER
 62
             110
  5
3F
 10
118.0457
 20
0.0
 30
0.0
 11
136.96100000000001
 21
0.0
 31
0.0
  0
CIRCLE
  8
LY_3
  6
CONTINUOUS
 62
               3
  5
40
 10
128.0
 20
57.706360981046117
 30
0.0
 40
2.665
  0
CIRCLE
  8
LY_3
  6
CONTINUOUS
 62
               3
  5
41
 10
128.0
 20
-57.706360981046117
 30
0.0
 40
2.665
  0
ARC
  8
LY_3
  6
CONTINUOUS
 62
               3
  5
42
 10
102.3
 20
-45.838403
 30
0.0
 40
0.25
 50
180.0
 51
308.18348200000003
  0
ARC
  8
LY_3
  6
CONTINUOUS
 62
               3
  5
43
 10
105.7
 20
-45.838403
 30
0.0
 40
0.25
 50
231.816518
 51
0.0
  0
ARC
  8
LY_3
  6
CONTINUOUS
 62
               3
  5
44
 10
104.0
 20
-48.0
 30
0.0
 40
2.5
 50
51.816518000000009
 51
128.183482
  0
ARC
  8
LY_3
  6
CONTINUOUS
 62
               3
  5
45
 10
105.7
 20
45.838403
 30
0.0
 40
0.25
 50
0.0
 51
128.183482
  0
ARC
  8
LY_3
  6
CONTINUOUS
 62
               3
  5
46
 10
102.3
 20
45.838403
 30
0.0
 40
0.25
 50
51.816518000000009
 51
180.0
  0
LINE
  8
LY_3
  6
CONTINUOUS
 62
               3
  5
47
 10
98.0
 20
40.5
 30
0.0
 11
110.0
 21
40.5
 31
0.0
  0
ARC
  8
LY_3
  6
CONTINUOUS
 62
               3
  5
48
 10
104.0
 20
48.0
 30
0.0
 40
2.5
 50
231.816518
 51
308.18348200000003
  0
LINE
  8
LY_3
  6
CONTINUOUS
 62
               3
  5
49
 10
110.0
 20
-41.399999999999999
 30
0.0
 11
110.0
 21
41.399999999999999
 31
0.0
  0
LINE
  8
LY_3
  6
CONTINUOUS
 62
               3
  5
4A
 10
105.95
 20
-41.399999999999999
 30
0.0
 11
110.0
 21
-41.399999999999999
 31
0.0
  0
LINE
  8
LY_3
  6
CONTINUOUS
 62
               3
  5
4B
 10
105.95
 20
-45.838403
 30
0.0
 11
105.95
 21
0.0
 31
0.0
  0
LINE
  8
LY_3
  6
CONTINUOUS
 62
               3
  5
4C
 10
102.05
 20
-45.838403
 30
0.0
 11
102.05
 21
0.0
 31
0.0
  0
LINE
  8
LY_3
  6
CONTINUOUS
 62
               3
  5
4D
 10
98.0
 20
-41.399999999999999
 30
0.0
 11
102.05
 21
-41.399999999999999
 31
0.0
  0
LINE
  8
LY_3
  6
CONTINUOUS
 62
               3
  5
4E
 10
98.0
 20
41.399999999999999
 30
0.0
 11
98.0
 21
-41.399999999999999
 31
0.0
  0
LINE
  8
LY_3
  6
CONTINUOUS
 62
               3
  5
4F
 10
105.95
 20
41.399999999999999
 30
0.0
 11
110.0
 21
41.399999999999999
 31
0.0
  0
LINE
  8
LY_3
  6
CONTINUOUS
 62
               3
  5
50
 10
105.95
 20
45.838403
 30
0.0
 11
105.95
 21
41.399999999999999
 31
0.0
  0
LINE
  8
LY_3
  6
CONTINUOUS
 62
               3
  5
51
 10
102.05
 20
45.838403
 30
0.0
 11
102.05
 21
41.399999999999999
 31
0.0
  0
LINE
  8
LY_3
  6
CONTINUOUS
 62
               3
  5
52
 10
98.0
 20
41.399999999999999
 30
0.0
 11
102.05
 21
41.399999999999999
 31
0.0
  0
LINE
  8
LY_3
  6
CENTER
 62
             110
  5
53
 10
94.045699999999997
 20
0.0
 30
0.0
 11
112.961
 21
0.0
 31
0.0
  0
CIRCLE
  8
LY_3
  6
CONTINUOUS
 62
               3
  5
54
 10
104.0
 20
48.206360981046117
 30
0.0
 40
2.665
  0
CIRCLE
  8
LY_3
  6
CONTINUOUS
 62
               3
  5
55
 10
104.0
 20
-48.206360981046117
 30
0.0
 40
2.665
  0
ARC
  8
LY_3
  6
CONTINUOUS
 62
               3
  5
56
 10
82.299999999999997
 20
-38.338403
 30
0.0
 40
0.25
 50
180.0
 51
308.18348200000003
  0
ARC
  8
LY_3
  6
CONTINUOUS
 62
               3
  5
57
 10
85.700000000000003
 20
-38.338403
 30
0.0
 40
0.25
 50
231.816518
 51
0.0
  0
ARC
  8
LY_3
  6
CONTINUOUS
 62
               3
  5
58
 10
84.0
 20
-40.5
 30
0.0
 40
2.5
 50
51.816518000000009
 51
128.183482
  0
ARC
  8
LY_3
  6
CONTINUOUS
 62
               3
  5
59
 10
85.700000000000003
 20
38.338403
 30
0.0
 40
0.25
 50
0.0
 51
128.183482
  0
ARC
  8
LY_3
  6
CONTINUOUS
 62
               3
  5
5A
 10
82.299999999999997
 20
38.338403
 30
0.0
 40
0.25
 50
51.816518000000009
 51
180.0
  0
LINE
  8
LY_3
  6
CONTINUOUS
 62
               3
  5
5B
 10
80.0
 20
34.0
 30
0.0
 11
88.0
 21
34.0
 31
0.0
  0
ARC
  8
LY_3
  6
CONTINUOUS
 62
               3
  5
5C
 10
84.0
 20
40.5
 30
0.0
 40
2.5
 50
231.816518
 51
308.18348200000003
  0
LINE
  8
LY_3
  6
CONTINUOUS
 62
               3
  5
5D
 10
88.0
 20
-34.899999999999999
 30
0.0
 11
88.0
 21
34.899999999999999
 31
0.0
  0
LINE
  8
LY_3
  6
CONTINUOUS
 62
               3
  5
5E
 10
85.950000000000003
 20
-34.899999999999999
 30
0.0
 11
88.0
 21
-34.899999999999999
 31
0.0
  0
LINE
  8
LY_3
  6
CONTINUOUS
 62
               3
  5
5F
 10
85.950000000000003
 20
-38.338403
 30
0.0
 11
85.950000000000003
 21
0.0
 31
0.0
  0
LINE
  8
LY_3
  6
CONTINUOUS
 62
               3
  5
60
 10
82.049999999999997
 20
-38.338403
 30
0.0
 11
82.049999999999997
 21
0.0
 31
0.0
  0
LINE
  8
LY_3
  6
CONTINUOUS
 62
               3
  5
61
 10
80.0
 20
-34.899999999999999
 30
0.0
 11
82.049999999999997
 21
-34.899999999999999
 31
0.0
  0
LINE
  8
LY_3
  6
CONTINUOUS
 62
               3
  5
62
 10
80.0
 20
34.899999999999999
 30
0.0
 11
80.0
 21
-34.899999999999999
 31
0.0
  0
LINE
  8
LY_3
  6
CONTINUOUS
 62
               3
  5
63
 10
85.950000000000003
 20
34.899999999999999
 30
0.0
 11
88.0
 21
34.899999999999999
 31
0.0
  0
LINE
  8
LY_3
  6
CONTINUOUS
 62
               3
  5
64
 10
85.950000000000003
 20
38.338403
 30
0.0
 11
85.950000000000003
 21
34.899999999999999
 31
0.0
  0
LINE
  8
LY_3
  6
CONTINUOUS
 62
               3
  5
65
 10
82.049999999999997
 20
38.338403
 30
0.0
 11
82.049999999999997
 21
34.899999999999999
 31
0.0
  0
LINE
  8
LY_3
  6
CONTINUOUS
 62
               3
  5
66
 10
80.0
 20
34.899999999999999
 30
0.0
 11
82.049999999999997
 21
34.899999999999999
 31
0.0
  0
LINE
  8
LY_3
  6
CENTER
 62
             110
  5
67
 10
77.0
 20
0.0
 30
0.0
 11
91.0
 21
0.0
 31
0.0
  0
CIRCLE
  8
LY_3
  6
CONTINUOUS
 62
               3
  5
68
 10
84.0
 20
40.706360981046117
 30
0.0
 40
2.665
  0
CIRCLE
  8
LY_3
  6
CONTINUOUS
 62
               3
  5
69
 10
84.0
 20
-40.706360981046117
 30
0.0
 40
2.665
  0
ARC
  8
LY_3
  6
CONTINUOUS
 62
               3
  5
6A
 10
66.299999999999997
 20
-28.088403
 30
0.0
 40
0.25
 50
180.0
 51
308.18348200000003
  0
ARC
  8
LY_3
  6
CONTINUOUS
 62
               3
  5
6B
 10
69.700000000000003
 20
-28.088403
 30
0.0
 40
0.25
 50
231.816518
 51
0.0
  0
ARC
  8
LY_3
  6
CONTINUOUS
 62
               3
  5
6C
 10
68.0
 20
-30.25
 30
0.0
 40
2.5
 50
51.816518000000009
 51
128.183482
  0
ARC
  8
LY_3
  6
CONTINUOUS
 62
               3
  5
6D
 10
69.700000000000003
 20
28.088403
 30
0.0
 40
0.25
 50
0.0
 51
128.183482
  0
ARC
  8
LY_3
  6
CONTINUOUS
 62
               3
  5
6E
 10
66.299999999999997
 20
28.088403
 30
0.0
 40
0.25
 50
51.816518000000009
 51
180.0
  0
LINE
  8
LY_3
  6
CONTINUOUS
 62
               3
  5
6F
 10
64.0
 20
25.0
 30
0.0
 11
72.0
 21
25.0
 31
0.0
  0
ARC
  8
LY_3
  6
CONTINUOUS
 62
               3
  5
70
 10
68.0
 20
30.25
 30
0.0
 40
2.5
 50
231.816518
 51
308.18348200000003
  0
LINE
  8
LY_3
  6
CONTINUOUS
 62
               3
  5
71
 10
72.0
 20
-26.0
 30
0.0
 11
72.0
 21
26.0
 31
0.0
  0
LINE
  8
LY_3
  6
CONTINUOUS
 62
               3
  5
72
 10
69.950000000000003
 20
-26.0
 30
0.0
 11
72.0
 21
-26.0
 31
0.0
  0
LINE
  8
LY_3
  6
CONTINUOUS
 62
               3
  5
73
 10
69.950000000000003
 20
-28.088403
 30
0.0
 11
69.950000000000003
 21
0.0
 31
0.0
  0
LINE
  8
LY_3
  6
CONTINUOUS
 62
               3
  5
74
 10
66.049999999999997
 20
-28.088403
 30
0.0
 11
66.049999999999997
 21
0.0
 31
0.0
  0
LINE
  8
LY_3
  6
CONTINUOUS
 62
               3
  5
75
 10
64.0
 20
-26.0
 30
0.0
 11
66.049999999999997
 21
-26.0
 31
0.0
  0
LINE
  8
LY_3
  6
CONTINUOUS
 62
               3
  5
76
 10
64.0
 20
26.0
 30
0.0
 11
64.0
 21
-26.0
 31
0.0
  0
LINE
  8
LY_3
  6
CONTINUOUS
 62
               3
  5
77
 10
69.950000000000003
 20
26.0
 30
0.0
 11
72.0
 21
26.0
 31
0.0
  0
LINE
  8
LY_3
  6
CONTINUOUS
 62
               3
  5
78
 10
69.950000000000003
 20
28.088403
 30
0.0
 11
69.950000000000003
 21
26.0
 31
0.0
  0
LINE
  8
LY_3
  6
CONTINUOUS
 62
               3
  5
79
 10
66.049999999999997
 20
28.088403
 30
0.0
 11
66.049999999999997
 21
26.0
 31
0.0
  0
LINE
  8
LY_3
  6
CONTINUOUS
 62
               3
  5
7A
 10
64.0
 20
26.0
 30
0.0
 11
66.049999999999997
 21
26.0
 31
0.0
  0
LINE
  8
LY_3
  6
CENTER
 62
             110
  5
7B
 10
61.0
 20
0.0
 30
0.0
 11
75.0
 21
0.0
 31
0.0
  0
CIRCLE
  8
LY_3
  6
CONTINUOUS
 62
               3
  5
7C
 10
68.0
 20
30.456360981046117
 30
0.0
 40
2.665
  0
CIRCLE
  8
LY_3
  6
CONTINUOUS
 62
               3
  5
7D
 10
68.0
 20
-30.456360981046117
 30
0.0
 40
2.665
  0
LINE
  8
LY_3
  6
CONTINUOUS
 62
               3
  5
7E
 10
48.0
 20
19.5
 30
0.0
 11
56.0
 21
19.5
 31
0.0
  0
ARC
  8
LY_3
  6
CONTINUOUS
 62
               3
  5
7F
 10
50.299999999999997
 20
-21.838403
 30
0.0
 40
0.25
 50
180.0
 51
308.18348200000003
  0
ARC
  8
LY_3
  6
CONTINUOUS
 62
               3
  5
80
 10
52.0
 20
-24.0
 30
0.0
 40
2.5
 50
51.816518000000009
 51
128.183482
  0
ARC
  8
LY_3
  6
CONTINUOUS
 62
               3
  5
81
 10
53.700000000000003
 20
-21.838403
 30
0.0
 40
0.25
 50
231.816518
 51
0.0
  0
ARC
  8
LY_3
  6
CONTINUOUS
 62
               3
  5
82
 10
53.700000000000003
 20
21.838403
 30
0.0
 40
0.25
 50
0.0
 51
128.183482
  0
ARC
  8
LY_3
  6
CONTINUOUS
 62
               3
  5
83
 10
50.299999999999997
 20
21.838403
 30
0.0
 40
0.25
 50
51.816518000000009
 51
180.0
  0
ARC
  8
LY_3
  6
CONTINUOUS
 62
               3
  5
84
 10
52.0
 20
24.0
 30
0.0
 40
2.5
 50
231.816518
 51
308.18348200000003
  0
LINE
  8
LY_3
  6
CONTINUOUS
 62
               3
  5
85
 10
56.0
 20
-20.5
 30
0.0
 11
56.0
 21
20.5
 31
0.0
  0
LINE
  8
LY_3
  6
CONTINUOUS
 62
               3
  5
86
 10
53.950000000000003
 20
-20.5
 30
0.0
 11
56.0
 21
-20.5
 31
0.0
  0
LINE
  8
LY_3
  6
CONTINUOUS
 62
               3
  5
87
 10
53.950000000000003
 20
-21.838403
 30
0.0
 11
53.950000000000003
 21
0.0
 31
0.0
  0
LINE
  8
LY_3
  6
CONTINUOUS
 62
               3
  5
88
 10
50.049999999999997
 20
-21.838403
 30
0.0
 11
50.049999999999997
 21
0.0
 31
0.0
  0
LINE
  8
LY_3
  6
CONTINUOUS
 62
               3
  5
89
 10
48.0
 20
-20.5
 30
0.0
 11
50.049999999999997
 21
-20.5
 31
0.0
  0
LINE
  8
LY_3
  6
CONTINUOUS
 62
               3
  5
8A
 10
48.0
 20
20.5
 30
0.0
 11
48.0
 21
-20.5
 31
0.0
  0
LINE
  8
LY_3
  6
CONTINUOUS
 62
               3
  5
8B
 10
53.950000000000003
 20
20.5
 30
0.0
 11
56.0
 21
20.5
 31
0.0
  0
LINE
  8
LY_3
  6
CONTINUOUS
 62
               3
  5
8C
 10
53.950000000000003
 20
21.838403
 30
0.0
 11
53.950000000000003
 21
20.5
 31
0.0
  0
LINE
  8
LY_3
  6
CONTINUOUS
 62
               3
  5
8D
 10
50.049999999999997
 20
21.838403
 30
0.0
 11
50.049999999999997
 21
20.5
 31
0.0
  0
LINE
  8
LY_3
  6
CONTINUOUS
 62
               3
  5
8E
 10
48.0
 20
20.5
 30
0.0
 11
50.049999999999997
 21
20.5
 31
0.0
  0
LINE
  8
LY_3
  6
CENTER
 62
             110
  5
8F
 10
45.0
 20
0.0
 30
0.0
 11
59.0
 21
0.0
 31
0.0
  0
CIRCLE
  8
LY_3
  6
CONTINUOUS
 62
               3
  5
90
 10
52.0
 20
24.206360981046117
 30
0.0
 40
2.665
  0
CIRCLE
  8
LY_3
  6
CONTINUOUS
 62
               3
  5
91
 10
52.0
 20
-24.206360981046117
 30
0.0
 40
2.665
  0
ARC
  8
LY_3
  6
CONTINUOUS
 62
               3
  5
92
 10
34.299999999999997
 20
-14.588403
 30
0.0
 40
0.25
 50
180.0
 51
308.18348200000003
  0
ARC
  8
LY_3
  6
CONTINUOUS
 62
               3
  5
93
 10
37.700000000000003
 20
-14.588403
 30
0.0
 40
0.25
 50
231.816518
 51
0.0
  0
ARC
  8
LY_3
  6
CONTINUOUS
 62
               3
  5
94
 10
36.0
 20
-16.75
 30
0.0
 40
2.5
 50
51.816518000000009
 51
128.183482
  0
ARC
  8
LY_3
  6
CONTINUOUS
 62
               3
  5
95
 10
37.700000000000003
 20
14.588403
 30
0.0
 40
0.25
 50
0.0
 51
128.183482
  0
ARC
  8
LY_3
  6
CONTINUOUS
 62
               3
  5
96
 10
34.299999999999997
 20
14.588403
 30
0.0
 40
0.25
 50
51.816518000000009
 51
180.0
  0
LINE
  8
LY_3
  6
CONTINUOUS
 62
               3
  5
97
 10
32.0
 20
12.0
 30
0.0
 11
40.0
 21
12.0
 31
0.0
  0
ARC
  8
LY_3
  6
CONTINUOUS
 62
               3
  5
98
 10
36.0
 20
16.75
 30
0.0
 40
2.5
 50
231.816518
 51
308.18348200000003
  0
LINE
  8
LY_3
  6
CONTINUOUS
 62
               3
  5
99
 10
40.0
 20
-13.0
 30
0.0
 11
40.0
 21
13.0
 31
0.0
  0
LINE
  8
LY_3
  6
CONTINUOUS
 62
               3
  5
9A
 10
37.950000000000003
 20
-13.0
 30
0.0
 11
40.0
 21
-13.0
 31
0.0
  0
LINE
  8
LY_3
  6
CONTINUOUS
 62
               3
  5
9B
 10
37.950000000000003
 20
-14.588403
 30
0.0
 11
37.950000000000003
 21
0.0
 31
0.0
  0
LINE
  8
LY_3
  6
CONTINUOUS
 62
               3
  5
9C
 10
34.049999999999997
 20
-14.588403
 30
0.0
 11
34.049999999999997
 21
0.0
 31
0.0
  0
LINE
  8
LY_3
  6
CONTINUOUS
 62
               3
  5
9D
 10
32.0
 20
-13.0
 30
0.0
 11
34.049999999999997
 21
-13.0
 31
0.0
  0
LINE
  8
LY_3
  6
CONTINUOUS
 62
               3
  5
9E
 10
32.0
 20
13.0
 30
0.0
 11
32.0
 21
-13.0
 31
0.0
  0
LINE
  8
LY_3
  6
CONTINUOUS
 62
               3
  5
9F
 10
37.950000000000003
 20
13.0
 30
0.0
 11
40.0
 21
13.0
 31
0.0
  0
LINE
  8
LY_3
  6
CONTINUOUS
 62
               3
  5
A0
 10
37.950000000000003
 20
14.588403
 30
0.0
 11
37.950000000000003
 21
13.0
 31
0.0
  0
LINE
  8
LY_3
  6
CONTINUOUS
 62
               3
  5
A1
 10
34.049999999999997
 20
14.588403
 30
0.0
 11
34.049999999999997
 21
13.0
 31
0.0
  0
LINE
  8
LY_3
  6
CONTINUOUS
 62
               3
  5
A2
 10
32.0
 20
13.0
 30
0.0
 11
34.049999999999997
 21
13.0
 31
0.0
  0
CIRCLE
  8
LY_3
  6
CONTINUOUS
 62
               3
  5
A3
 10
36.0
 20
16.956360981046117
 30
0.0
 40
2.665
  0
CIRCLE
  8
LY_3
  6
CONTINUOUS
 62
               3
  5
A4
 10
36.0
 20
-16.956360981046117
 30
0.0
 40
2.665
  0
LINE
  8
LY_3
  6
CENTER
 62
             110
  5
A5
 10
29.0
 20
0.0
 30
0.0
 11
43.0
 21
0.0
 31
0.0
  0
ARC
  8
LY_3
  6
CONTINUOUS
 62
               3
  5
A6
 10
18.300000000000001
 20
-9.5884029999999996
 30
0.0
 40
0.25
 50
180.0
 51
308.18348200000003
  0
ARC
  8
LY_3
  6
CONTINUOUS
 62
               3
  5
A7
 10
21.699999999999999
 20
-9.5884029999999996
 30
0.0
 40
0.25
 50
231.816518
 51
0.0
  0
ARC
  8
LY_3
  6
CONTINUOUS
 62
               3
  5
A8
 10
20.0
 20
-11.75
 30
0.0
 40
2.5
 50
51.816518000000009
 51
128.183482
  0
ARC
  8
LY_3
  6
CONTINUOUS
 62
               3
  5
A9
 10
21.699999999999999
 20
9.5884029999999996
 30
0.0
 40
0.25
 50
0.0
 51
128.183482
  0
ARC
  8
LY_3
  6
CONTINUOUS
 62
               3
  5
AA
 10
18.300000000000001
 20
9.5884029999999996
 30
0.0
 40
0.25
 50
51.816518000000009
 51
180.0
  0
LINE
  8
LY_3
  6
CONTINUOUS
 62
               3
  5
AB
 10
16.0
 20
8.0
 30
0.0
 11
24.0
 21
8.0
 31
0.0
  0
ARC
  8
LY_3
  6
CONTINUOUS
 62
               3
  5
AC
 10
20.0
 20
11.75
 30
0.0
 40
2.5
 50
231.816518
 51
308.18348200000003
  0
LINE
  8
LY_3
  6
CONTINUOUS
 62
               3
  5
AD
 10
24.0
 20
-8.5
 30
0.0
 11
24.0
 21
8.5
 31
0.0
  0
LINE
  8
LY_3
  6
CONTINUOUS
 62
               3
  5
AE
 10
21.949999999999999
 20
-8.5
 30
0.0
 11
24.0
 21
-8.5
 31
0.0
  0
LINE
  8
LY_3
  6
CONTINUOUS
 62
               3
  5
AF
 10
21.949999999999999
 20
-9.5884029999999996
 30
0.0
 11
21.949999999999999
 21
0.0
 31
0.0
  0
LINE
  8
LY_3
  6
CONTINUOUS
 62
               3
  5
B0
 10
18.050000000000001
 20
-9.5884029999999996
 30
0.0
 11
18.050000000000001
 21
0.0
 31
0.0
  0
LINE
  8
LY_3
  6
CONTINUOUS
 62
               3
  5
B1
 10
16.0
 20
-8.5
 30
0.0
 11
18.050000000000001
 21
-8.5
 31
0.0
  0
LINE
  8
LY_3
  6
CONTINUOUS
 62
               3
  5
B2
 10
16.0
 20
8.5
 30
0.0
 11
16.0
 21
-8.5
 31
0.0
  0
LINE
  8
LY_3
  6
CONTINUOUS
 62
               3
  5
B3
 10
21.949999999999999
 20
8.5
 30
0.0
 11
24.0
 21
8.5
 31
0.0
  0
LINE
  8
LY_3
  6
CONTINUOUS
 62
               3
  5
B4
 10
21.949999999999999
 20
9.5884029999999996
 30
0.0
 11
21.949999999999999
 21
8.5
 31
0.0
  0
LINE
  8
LY_3
  6
CONTINUOUS
 62
               3
  5
B5
 10
18.050000000000001
 20
9.5884029999999996
 30
0.0
 11
18.050000000000001
 21
8.5
 31
0.0
  0
LINE
  8
LY_3
  6
CONTINUOUS
 62
               3
  5
B6
 10
16.0
 20
8.5
 30
0.0
 11
18.050000000000001
 21
8.5
 31
0.0
  0
LINE
  8
LY_3
  6
CENTER
 62
             110
  5
B7
 10
13.0
 20
0.0
 30
0.0
 11
27.0
 21
0.0
 31
0.0
  0
CIRCLE
  8
LY_3
  6
CONTINUOUS
 62
               3
  5
B8
 10
20.0
 20
11.956360981046116
 30
0.0
 40
2.665
  0
CIRCLE
  8
LY_3
  6
CONTINUOUS
 62
               3
  5
B9
 10
20.0
 20
-11.956360981046116
 30
0.0
 40
2.665
  0
CIRCLE
  8
LY_3
  6
CONTINUOUS
 62
               3
  5
BA
 10
4.0
 20
-10.356360981046116
 30
0.0
 40
2.665
  0
CIRCLE
  8
LY_3
  6
CONTINUOUS
 62
               3
  5
BB
 10
4.0
 20
10.356360981046116
 30
0.0
 40
2.665
  0
LINE
  8
LY_3
  6
CENTER
 62
             110
  5
BC
 10
-3.0
 20
0.0
 30
0.0
 11
11.0
 21
0.0
 31
0.0
  0
LINE
  8
LY_3
  6
CONTINUOUS
 62
               3
  5
BD
 10
0.0
 20
6.0
 30
0.0
 11
2.0499999999999998
 21
6.0
 31
0.0
  0
LINE
  8
LY_3
  6
CONTINUOUS
 62
               3
  5
BE
 10
2.0499999999999998
 20
7.9884029999999999
 30
0.0
 11
2.0499999999999998
 21
6.0
 31
0.0
  0
LINE
  8
LY_3
  6
CONTINUOUS
 62
               3
  5
BF
 10
5.9500000000000002
 20
7.9884029999999999
 30
0.0
 11
5.9500000000000002
 21
6.0
 31
0.0
  0
LINE
  8
LY_3
  6
CONTINUOUS
 62
               3
  5
C0
 10
5.9500000000000002
 20
6.0
 30
0.0
 11
8.0
 21
6.0
 31
0.0
  0
LINE
  8
LY_3
  6
CONTINUOUS
 62
               3
  5
C1
 10
0.0
 20
6.0
 30
0.0
 11
0.0
 21
-6.0
 31
0.0
  0
LINE
  8
LY_3
  6
CONTINUOUS
 62
               3
  5
C2
 10
0.0
 20
-6.0
 30
0.0
 11
2.0499999999999998
 21
-6.0
 31
0.0
  0
LINE
  8
LY_3
  6
CONTINUOUS
 62
               3
  5
C3
 10
2.0499999999999998
 20
-7.9884029999999999
 30
0.0
 11
2.0499999999999998
 21
0.0
 31
0.0
  0
LINE
  8
LY_3
  6
CONTINUOUS
 62
               3
  5
C4
 10
5.9500000000000002
 20
-7.9884029999999999
 30
0.0
 11
5.9500000000000002
 21
0.0
 31
0.0
  0
LINE
  8
LY_3
  6
CONTINUOUS
 62
               3
  5
C5
 10
5.9500000000000002
 20
-6.0
 30
0.0
 11
8.0
 21
-6.0
 31
0.0
  0
LINE
  8
LY_3
  6
CONTINUOUS
 62
               3
  5
C6
 10
8.0
 20
-6.0
 30
0.0
 11
8.0
 21
6.0
 31
0.0
  0
ARC
  8
LY_3
  6
CONTINUOUS
 62
               3
  5
C7
 10
4.0
 20
10.15
 30
0.0
 40
2.5
 50
231.816518
 51
308.18348200000003
  0
LINE
  8
LY_3
  6
CONTINUOUS
 62
               3
  5
C8
 10
0.0
 20
5.0
 30
0.0
 11
8.0
 21
5.0
 31
0.0
  0
ARC
  8
LY_3
  6
CONTINUOUS
 62
               3
  5
C9
 10
2.2999999999999998
 20
7.9884029999999999
 30
0.0
 40
0.25
 50
51.816518000000009
 51
180.0
  0
ARC
  8
LY_3
  6
CONTINUOUS
 62
               3
  5
CA
 10
5.7000000000000002
 20
7.9884029999999999
 30
0.0
 40
0.25
 50
0.0
 51
128.183482
  0
ARC
  8
LY_3
  6
CONTINUOUS
 62
               3
  5
CB
 10
4.0
 20
-10.15
 30
0.0
 40
2.5
 50
51.816518000000009
 51
128.183482
  0
ARC
  8
LY_3
  6
CONTINUOUS
 62
               3
  5
CC
 10
5.7000000000000002
 20
-7.9884029999999999
 30
0.0
 40
0.25
 50
231.816518
 51
0.0
  0
ARC
  8
LY_3
  6
CONTINUOUS
 62
               3
  5
CD
 10
2.2999999999999998
 20
-7.9884029999999999
 30
0.0
 40
0.25
 50
180.0
 51
308.18348200000003
  0
ENDSEC
  0
EOF
