  0
SECTION
  2
HEADER
  9
$ACADVER
  1
AC1009
  9
$DWGCODEPAGE
  3
dos932
  9
$INSBASE
 10
0.0
 20
0.0
 30
0.0
  9
$EXTMIN
 10
-59.900000095367432
 20
-70.000000476837158
 30
0.0
  9
$EXTMAX
 10
605.7233011907349
 20
113.5
 30
0.0
  9
$LIMMIN
 10
-59.900000095367432
 20
-70.000000476837158
  9
$LIMMAX
 10
605.7233011907349
 20
113.5
  9
$ORTHOMODE
 70
               0
  9
$REGENMODE
 70
               1
  9
$FILLMODE
 70
               1
  9
$QTEXTMODE
 70
               0
  9
$MIRRTEXT
 70
               1
  9
$DRAGMODE
 70
               2
  9
$LTSCALE
 40
1.0
  9
$OSMODE
 70
               0
  9
$ATTMODE
 70
               1
  9
$TEXTSIZE
 40
3.2000000476837158
  9
$TRACEWID
 40
0.05
  9
$TEXTSTYLE
  7
MX_NOTE_STANDARD
  9
$CLAYER
  8
LY_3
  9
$CELTYPE
  6
CONTINUOUS
  9
$CECOLOR
 62
             256
  9
$DIMSCALE
 40
1.0
  9
$DIMASZ
 40
2.5
  9
$DIMEXO
 40
2.0
  9
$DIMDLI
 40
3.75
  9
$DIMRND
 40
0.0
  9
$DIMDLE
 40
0.0
  9
$DIMEXE
 40
1.0
  9
$DIMTP
 40
0.0
  9
$DIMTM
 40
0.0
  9
$DIMTXT
 40
4.1655998229980469
  9
$DIMCEN
 40
2.5
  9
$DIMTSZ
 40
0.0
  9
$DIMTOL
 70
               0
  9
$DIMLIM
 70
               0
  9
$DIMTIH
 70
               0
  9
$DIMTOH
 70
               0
  9
$DIMSE1
 70
               0
  9
$DIMSE2
 70
               0
  9
$DIMTAD
 70
               1
  9
$DIMZIN
 70
               8
  9
$DIMBLK
  1

  9
$DIMASO
 70
               1
  9
$DIMSHO
 70
               1
  9
$DIMPOST
  1

  9
$DIMAPOST
  1

  9
$DIMALT
 70
               0
  9
$DIMALTD
 70
               4
  9
$DIMALTF
 40
0.03937007874016
  9
$DIMLFAC
 40
1.0
  9
$DIMTOFL
 70
               1
  9
$DIMTVP
 40
0.0
  9
$DIMTIX
 70
               0
  9
$DIMSOXD
 70
               0
  9
$DIMSAH
 70
               1
  9
$DIMBLK1
  1
_OPEN30
  9
$DIMBLK2
  1
_OPEN30
  9
$DIMSTYLE
  2
MXDIMSTYLE
  9
$DIMCLRD
 70
               0
  9
$DIMCLRE
 70
               0
  9
$DIMCLRT
 70
               0
  9
$DIMTFAC
 40
1.0
  9
$DIMGAP
 40
1.0
  9
$LUNITS
 70
               2
  9
$LUPREC
 70
               4
  9
$AXISMODE
 70
               0
  9
$AXISUNIT
 10
0.0
 20
0.0
  9
$SKETCHINC
 40
0.1
  9
$FILLETRAD
 40
0.0
  9
$AUNITS
 70
               0
  9
$AUPREC
 70
               0
  9
$MENU
  1
acad
  9
$ELEVATION
 40
0.0
  9
$PELEVATION
 40
0.0
  9
$THICKNESS
 40
0.0
  9
$LIMCHECK
 70
               0
  9
$BLIPMODE
 70
               1
  9
$CHAMFERA
 40
0.0
  9
$CHAMFERB
 40
0.0
  9
$SKPOLY
 70
               0
  9
$TDCREATE
 40
2455163.526331019
  9
$TDUPDATE
 40
2455163.526331019
  9
$TDINDWG
 40
0.0000000000
  9
$TDUSRTIMER
 40
0.0000000000
  9
$USRTIMER
 70
               1
  9
$ANGBASE
 50
0.0
  9
$ANGDIR
 70
               0
  9
$PDMODE
 70
               0
  9
$PDSIZE
 40
0.0
  9
$PLINEWID
 40
0.0
  9
$COORDS
 70
               1
  9
$SPLFRAME
 70
               0
  9
$SPLINETYPE
 70
               6
  9
$SPLINESEGS
 70
               8
  9
$ATTDIA
 70
               0
  9
$ATTREQ
 70
               1
  9
$HANDLING
 70
               1
  9
$HANDSEED
  5
378
  9
$SURFTAB1
 70
               6
  9
$SURFTAB2
 70
               6
  9
$SURFTYPE
 70
               6
  9
$SURFU
 70
               6
  9
$SURFV
 70
               6
  9
$UCSNAME
  2

  9
$UCSORG
 10
0.0
 20
0.0
 30
0.0
  9
$UCSXDIR
 10
1.0
 20
0.0
 30
0.0
  9
$UCSYDIR
 10
0.0
 20
1.0
 30
0.0
  9
$PUCSNAME
  2

  9
$PUCSORG
 10
0.0
 20
0.0
 30
0.0
  9
$PUCSXDIR
 10
1.0
 20
0.0
 30
0.0
  9
$PUCSYDIR
 10
0.0
 20
1.0
 30
0.0
  9
$USERI1
 70
               0
  9
$USERI2
 70
               0
  9
$USERI3
 70
               0
  9
$USERI4
 70
               0
  9
$USERI5
 70
               0
  9
$USERR1
 40
0.0
  9
$USERR2
 40
0.0
  9
$USERR3
 40
0.0
  9
$USERR4
 40
0.0
  9
$USERR5
 40
0.0
  9
$WORLDVIEW
 70
               1
  9
$SHADEDGE
 70
               3
  9
$SHADEDIF
 70
              70
  9
$TILEMODE
 70
               1
  9
$MAXACTVP
 70
              16
  9
$PINSBASE
 10
0.0
 20
0.0
 30
0.0
  9
$PLIMCHECK
 70
               0
  9
$PEXTMIN
 10
1.0000000000000000E+20
 20
1.0000000000000000E+20
 30
1.0000000000000000E+20
  9
$PEXTMAX
 10
-1.0000000000000000E+20
 20
-1.0000000000000000E+20
 30
-1.0000000000000000E+20
  9
$PLIMMIN
 10
0.0
 20
0.0
  9
$PLIMMAX
 10
12.0
 20
9.0
  9
$UNITMODE
 70
               0
  9
$VISRETAIN
 70
               0
  9
$PLINEGEN
 70
               1
  9
$PSLTSCALE
 70
               0
  9
$TREEDEPTH
 70
            3020
  0
ENDSEC
  0
SECTION
  2
TABLES
  0
TABLE
  2
VPORT
 70
               1
  0
VPORT
  2
*ACTIVE
 70
               0
 10
0.0
 20
0.0
 11
1.0
 21
1.0
 12
272.91165054768373
 22
21.749999761581421
 13
0.0
 23
0.0
 14
1.0
 24
1.0
 15
0.0
 25
0.0
 16
0.0
 26
0.0
 36
1.0
 17
0.0
 27
0.0
 37
0.0
 40
185.33500048160553
 41
1.7320508075688772
 42
50.0
 43
0.0
 44
0.0
 50
0.0
 51
0.0
 71
               0
 72
             100
 73
               1
 74
               1
 75
               0
 76
               0
 77
               0
 78
               0
  0
ENDTAB
  0
TABLE
  2
LTYPE
 70
               3
  0
LTYPE
  2
CONTINUOUS
 70
              64
  3
Solid line
 72
              65
 73
               0
 40
0.0
  0
LTYPE
  2
DASHED
 70
              64
  3
Dashed __ __ __ __ __ __ __ __ __ __ __ __ __ _
 72
              65
 73
               2
 40
19.049999999999997
 49
12.699999999999999
 49
-6.3499999999999996
  0
LTYPE
  2
CENTER
 70
              64
  3
Center ____ _ ____ _ ____ _ ____ _ ____ _ ____
 72
              65
 73
               4
 40
50.800000000000004
 49
31.75
 49
-6.3499999999999996
 49
6.3499999999999996
 49
-6.3499999999999996
  0
ENDTAB
  0
TABLE
  2
LAYER
 70
               3
  0
LAYER
  2
0
 70
               0
 62
               7
  6
CONTINUOUS
  0
LAYER
  2
DEFPOINTS
 70
               0
 62
               7
  6
CONTINUOUS
  0
LAYER
  2
LY_3
 70
               0
 62
               7
  6
CONTINUOUS
  0
ENDTAB
  0
TABLE
  2
STYLE
 70
               1
  0
STYLE
  2
MX_NOTE_STANDARD
 70
               0
 40
0.0
 41
1.0
 50
0.0
 71
               0
 42
3.2000000476837158
  3
txt.shx
  4
extfont.shx
  0
ENDTAB
  0
TABLE
  2
VIEW
 70
               0
  0
ENDTAB
  0
TABLE
  2
UCS
 70
               0
  0
ENDTAB
  0
TABLE
  2
APPID
 70
               1
  0
APPID
  2
ACAD
 70
               0
  0
ENDTAB
  0
TABLE
  2
DIMSTYLE
 70
               1
  0
DIMSTYLE
  2
MXDIMSTYLE
 70
               0
  3

  4

  5

  6
_OPEN30
  7
_OPEN30
 40
1.0
 41
2.5
 42
2.0
 43
3.75
 44
1.0
 45
0.0
 46
0.0
 47
0.0
 48
0.0
 71
               0
 72
               0
 73
               0
 74
               0
 75
               0
 76
               0
 77
               1
 78
               8
140
4.1655998229980469
141
2.5
142
0.0
143
0.03937007874016
144
1.0
145
0.0
146
1.0
147
1.0
170
               0
171
               4
172
               1
173
               1
174
               0
175
               0
176
               0
177
               0
178
               0
  0
ENDTAB
  0
ENDSEC
  0
SECTION
  2
BLOCKS
  0
BLOCK
  8
0
  6
BYBLOCK
 62
               0
  5
20
  2
_OPEN30
 70
               2
 10
0.0
 20
0.0
 30
0.0
  3
_OPEN30
  0
LINE
  8
0
  6
BYBLOCK
 62
               0
  5
21
 10
-1.0
 20
0.267949
 30
0.0
 11
0.0
 21
0.0
 31
0.0
  0
LINE
  8
0
  6
BYBLOCK
 62
               0
  5
22
 10
0.0
 20
0.0
 30
0.0
 11
-1.0
 21
-0.267949
 31
0.0
  0
LINE
  8
0
  6
BYBLOCK
 62
               0
  5
23
 10
0.0
 20
0.0
 30
0.0
 11
-1.0
 21
0.0
 31
0.0
  0
ENDBLK
  8
0
  6
BYBLOCK
 62
               0
  5
24
  0
ENDSEC
  0
SECTION
  2
ENTITIES
  0
TEXT
  8
LY_3
  6
CONTINUOUS
 62
             110
  5
25
 10
479.06249835901116
 20
-68.0
 30
0.0
 40
8.0
  1
VP1050N
 41
0.9839999884843825
  7
MX_NOTE_STANDARD
 11
479.06249835901116
 21
-60.0
 31
0.0
 73
               3
  0
CIRCLE
  8
LY_3
  6
CONTINUOUS
 62
               3
  5
26
 10
454.30000000000001
 20
-11.300000000000001
 30
0.0
 40
3.7000000000000002
  0
CIRCLE
  8
LY_3
  6
CONTINUOUS
 62
               3
  5
27
 10
454.30000000000001
 20
11.300000000000001
 30
0.0
 40
3.7000000000000002
  0
CIRCLE
  8
LY_3
  6
CONTINUOUS
 62
               3
  5
28
 10
559.0
 20
11.0
 30
0.0
 40
3.7000000000000002
  0
TEXT
  8
LY_3
  6
CONTINUOUS
 62
             110
  5
29
 10
601.72330103178922
 20
12.36518991416931
 30
0.0
 40
4.8000001907348633
  1
A
  7
MX_NOTE_STANDARD
 11
601.72330103178922
 21
17.165190104904173
 31
0.0
 73
               3
  0
TEXT
  8
LY_3
  6
CONTINUOUS
 62
             110
  5
2A
 10
402.02706903178915
 20
11.682195914169309
 30
0.0
 40
4.8000001907348633
  1
A
  7
MX_NOTE_STANDARD
 11
402.02706903178915
 21
16.482196104904173
 31
0.0
 73
               3
  0
POLYLINE
  8
LY_3
  6
CONTINUOUS
 62
             110
  5
2B
 66
               1
 10
0.0
 20
0.0
 30
0.0
  0
VERTEX
  8
LY_3
  6
CONTINUOUS
 62
             110
  5
35F
 10
595.39984800000002
 20
0.0
 30
0.0
  0
VERTEX
  8
LY_3
  6
CONTINUOUS
 62
             110
  5
360
 10
595.39984800000002
 20
16.639023999999999
 30
0.0
  0
SEQEND
  8
LY_3
  6
CONTINUOUS
 62
             110
  5
361
  0
INSERT
  8
LY_3
  6
CONTINUOUS
 62
             110
  5
2C
  2
_OPEN30
 10
595.39984800000002
 20
0.0
 30
0.0
 41
2.77
 42
2.77
 50
270.0
 43
2.77
  0
POLYLINE
  8
LY_3
  6
CONTINUOUS
 62
             110
  5
2D
 66
               1
 10
0.0
 20
0.0
 30
0.0
  0
VERTEX
  8
LY_3
  6
CONTINUOUS
 62
             110
  5
362
 10
412.00751500000001
 20
0.0
 30
0.0
  0
VERTEX
  8
LY_3
  6
CONTINUOUS
 62
             110
  5
363
 10
412.00751500000001
 20
16.639023999999999
 30
0.0
  0
SEQEND
  8
LY_3
  6
CONTINUOUS
 62
             110
  5
364
  0
INSERT
  8
LY_3
  6
CONTINUOUS
 62
             110
  5
2E
  2
_OPEN30
 10
412.00751500000001
 20
0.0
 30
0.0
 41
2.77
 42
2.77
 50
270.0
 43
2.77
  0
LINE
  8
LY_3
  6
CONTINUOUS
 62
               3
  5
2F
 10
586.65024900000003
 20
0.0
 30
0.0
 11
604.14944800000001
 21
0.0
 31
0.0
  0
LINE
  8
LY_3
  6
CONTINUOUS
 62
               3
  5
30
 10
402.68417099999999
 20
0.0
 30
0.0
 11
421.33085900000003
 21
0.0
 31
0.0
  0
TEXT
  8
LY_3
  6
CONTINUOUS
 62
             110
  5
31
 10
496.40383911132812
 20
66.599999904632568
 30
0.0
 40
4.8000001907348633
  1
Ａ－Ａ視
 41
0.833333300219643
  7
MX_NOTE_STANDARD
 72
               1
 11
506.0
 21
69.0
 31
0.0
 73
               2
  0
ARC
  8
LY_3
  6
CONTINUOUS
 62
               3
  5
32
 10
554.5
 20
-36.599997999999999
 30
0.0
 40
2.0
 50
89.999999000000003
 51
179.99999500000001
  0
ARC
  8
LY_3
  6
CONTINUOUS
 62
               3
  5
33
 10
563.5
 20
-36.599997999999999
 30
0.0
 40
2.0
 50
359.99999000000003
 51
89.999999000000017
  0
ARC
  8
LY_3
  6
CONTINUOUS
 62
             110
  5
34
 10
569.5
 20
-45.599997999999999
 30
0.0
 40
1.0
 50
179.99999500000001
 51
270.00000399999999
  0
ARC
  8
LY_3
  6
CONTINUOUS
 62
             110
  5
35
 10
574.5
 20
-45.599997999999999
 30
0.0
 40
1.0
 50
270.00000399999999
 51
0.0000049999999943
  0
ARC
  8
LY_3
  6
CONTINUOUS
 62
             110
  5
36
 10
569.53709600000002
 20
-33.792977
 30
0.0
 40
1.0
 50
40.946345999999998
 51
177.61405999999999
  0
ARC
  8
LY_3
  6
CONTINUOUS
 62
             110
  5
37
 10
553.67530099999999
 20
-47.555366999999997
 30
0.0
 40
22.0
 50
7.2377739999999999
 51
40.946339000000002
  0
ARC
  8
LY_3
  6
CONTINUOUS
 62
             110
  5
38
 10
548.46290199999999
 20
-33.792977
 30
0.0
 40
1.0
 50
2.385939
 51
139.05366699999999
  0
ARC
  8
LY_3
  6
CONTINUOUS
 62
             110
  5
39
 10
548.5
 20
-45.599997999999999
 30
0.0
 40
1.0
 50
270.00000399999999
 51
0.0000049999999943
  0
ARC
  8
LY_3
  6
CONTINUOUS
 62
             110
  5
3A
 10
543.5
 20
-45.599997999999999
 30
0.0
 40
1.0
 50
179.99999500000001
 51
270.00000399999999
  0
ARC
  8
LY_3
  6
CONTINUOUS
 62
             110
  5
3B
 10
564.324701
 20
-47.555366999999997
 30
0.0
 40
22.0
 50
139.053663
 51
172.76223100000001
  0
ARC
  8
LY_3
  6
CONTINUOUS
 62
               3
  5
3C
 10
553.67530099999999
 20
-47.555366999999997
 30
0.0
 40
25.0
 50
6.7890889999999997
 51
60.80591299999999
  0
ARC
  8
LY_3
  6
CONTINUOUS
 62
               3
  5
3D
 10
564.324701
 20
-47.555366999999997
 30
0.0
 40
25.0
 50
119.19408599999998
 51
173.21092400000001
  0
ARC
  8
LY_3
  6
CONTINUOUS
 62
               3
  5
3E
 10
564.540798
 20
-33.599997999999999
 30
0.0
 40
1.0
 50
270.00000399999999
 51
357.61405600000001
  0
ARC
  8
LY_3
  6
CONTINUOUS
 62
               3
  5
3F
 10
565.47873300000003
 20
-23.099997999999999
 30
0.0
 40
0.5
 50
357.61405600000001
 51
90.000003000000035
  0
ARC
  8
LY_3
  6
CONTINUOUS
 62
               3
  5
40
 10
552.52126699999997
 20
-23.099997999999999
 30
0.0
 40
0.5
 50
89.999999000000003
 51
182.38594399999999
  0
ARC
  8
LY_3
  6
CONTINUOUS
 62
               3
  5
41
 10
553.459202
 20
-33.599997999999999
 30
0.0
 40
1.0
 50
182.38594399999999
 51
270.00000399999999
  0
ARC
  8
LY_3
  6
CONTINUOUS
 62
               3
  5
42
 10
550.5
 20
-47.599997999999999
 30
0.0
 40
2.0
 50
270.00000399999999
 51
0.0000049999999943
  0
ARC
  8
LY_3
  6
CONTINUOUS
 62
               3
  5
43
 10
567.5
 20
-47.599997999999999
 30
0.0
 40
2.0
 50
179.99999500000001
 51
270.00000399999999
  0
ARC
  8
LY_3
  6
CONTINUOUS
 62
               3
  5
44
 10
541.5
 20
-47.599997999999999
 30
0.0
 40
2.0
 50
179.99999500000001
 51
270.00000399999999
  0
ARC
  8
LY_3
  6
CONTINUOUS
 62
               3
  5
45
 10
576.5
 20
-47.599997999999999
 30
0.0
 40
2.0
 50
270.00000399999999
 51
0.0000049999999943
  0
ARC
  8
LY_3
  6
CONTINUOUS
 62
               3
  5
46
 10
464.25
 20
83.25
 30
0.0
 40
0.75
 50
0.0
 51
90.000003000000007
  0
ARC
  8
LY_3
  6
CONTINUOUS
 62
               3
  5
47
 10
464.25
 20
108.75
 30
0.0
 40
0.75
 50
269.99999700000001
 51
0.0
  0
ARC
  8
LY_3
  6
CONTINUOUS
 62
               3
  5
48
 10
550.75
 20
108.0
 30
0.0
 40
0.75
 50
0.0
 51
90.000003000000007
  0
ARC
  8
LY_3
  6
CONTINUOUS
 62
               3
  5
49
 10
550.75
 20
84.0
 30
0.0
 40
0.75
 50
269.99999700000001
 51
0.0
  0
ARC
  8
LY_3
  6
CONTINUOUS
 62
               3
  5
4A
 10
504.0
 20
0.0
 30
0.0
 40
32.5
 50
187.68081599999999
 51
352.31916699999999
  0
ARC
  8
LY_3
  6
CONTINUOUS
 62
               3
  5
4B
 10
504.0
 20
0.0
 30
0.0
 40
32.5
 50
7.6808360000000002
 51
172.31917000000001
  0
ARC
  8
LY_3
  6
CONTINUOUS
 62
               3
  5
4C
 10
445.0
 20
85.0
 30
0.0
 40
1.0
 50
179.99999099999999
 51
270.000001
  0
ARC
  8
LY_3
  6
CONTINUOUS
 62
               3
  5
4D
 10
445.0
 20
107.0
 30
0.0
 40
1.0
 50
90.000003000000007
 51
180.00000499999999
  0
ARC
  8
LY_3
  6
CONTINUOUS
 62
               3
  5
4E
 10
511.70000500000003
 20
-37.200001
 30
0.0
 40
85.0
 50
108.55003100000002
 51
138.76006000000001
  0
ARC
  8
LY_3
  6
CONTINUOUS
 62
               3
  5
4F
 10
511.70000500000003
 20
37.200001
 30
0.0
 40
85.0
 50
221.23993999999999
 51
251.44996900000004
  0
ARC
  8
LY_3
  6
CONTINUOUS
 62
               3
  5
50
 10
566.0
 20
-18.0
 30
0.0
 40
3.0
 50
269.99999700000001
 51
0.0
  0
ARC
  8
LY_3
  6
CONTINUOUS
 62
               3
  5
51
 10
566.0
 20
-4.0
 30
0.0
 40
3.0
 50
0.0
 51
90.000003000000007
  0
ARC
  8
LY_3
  6
CONTINUOUS
 62
               3
  5
52
 10
566.0
 20
4.0
 30
0.0
 40
3.0
 50
269.99999700000001
 51
0.0
  0
ARC
  8
LY_3
  6
CONTINUOUS
 62
               3
  5
53
 10
566.0
 20
18.0
 30
0.0
 40
3.0
 50
0.0
 51
90.000003000000007
  0
ARC
  8
LY_3
  6
CONTINUOUS
 62
               3
  5
54
 10
566.0
 20
87.0
 30
0.0
 40
3.0
 50
269.99999700000001
 51
0.0
  0
ARC
  8
LY_3
  6
CONTINUOUS
 62
               3
  5
55
 10
566.0
 20
105.0
 30
0.0
 40
3.0
 50
0.0
 51
90.000003000000007
  0
ARC
  8
LY_3
  6
CONTINUOUS
 62
               3
  5
56
 10
390.0
 20
0.0
 30
0.0
 40
75.0
 50
0.763966
 51
23.134333999999999
  0
ARC
  8
LY_3
  6
CONTINUOUS
 62
               3
  5
57
 10
390.0
 20
0.0
 30
0.0
 40
75.0
 50
336.86566599999998
 51
359.23603400000002
  0
ARC
  8
LY_3
  6
DASHED
 62
             110
  5
59
 10
504.0
 20
0.0
 30
0.0
 40
40.5
 50
181.414841
 51
358.58514600000001
  0
CIRCLE
  8
LY_3
  6
CONTINUOUS
 62
               3
  5
5A
 10
454.30000000000001
 20
-11.300000000000001
 30
0.0
 40
4.0
  0
CIRCLE
  8
LY_3
  6
CONTINUOUS
 62
               3
  5
5B
 10
454.30000000000001
 20
11.300000000000001
 30
0.0
 40
4.0
  0
CIRCLE
  8
LY_3
  6
CONTINUOUS
 62
               3
  5
5C
 10
559.0
 20
11.0
 30
0.0
 40
4.0
  0
CIRCLE
  8
LY_3
  6
CONTINUOUS
 62
               3
  5
5D
 10
559.0
 20
-11.0
 30
0.0
 40
4.0
  0
ARC
  8
LY_3
  6
CONTINUOUS
 62
               3
  5
5E
 10
549.60975599999995
 20
26.0
 30
0.0
 40
5.0
 50
209.68543100000002
 51
270.00001800000001
  0
ARC
  8
LY_3
  6
CONTINUOUS
 62
               3
  5
5F
 10
504.0
 20
0.0
 30
0.0
 40
47.5
 50
1.2063159999999999
 51
114.02809600000001
  0
ARC
  8
LY_3
  6
CONTINUOUS
 62
               3
  5
60
 10
454.0
 20
11.0
 30
0.0
 40
10.0
 50
128.43469999999999
 51
270.000001
  0
ARC
  8
LY_3
  6
DASHED
 62
             110
  5
61
 10
504.0
 20
0.0
 30
0.0
 40
40.5
 50
1.4148540000000001
 51
178.585159
  0
ARC
  8
LY_3
  6
CONTINUOUS
 62
               3
  5
62
 10
549.60975599999995
 20
-26.0
 30
0.0
 40
5.0
 50
89.999927
 51
150.314514
  0
ARC
  8
LY_3
  6
CONTINUOUS
 62
               3
  5
63
 10
504.0
 20
0.0
 30
0.0
 40
47.5
 50
245.97190400000002
 51
358.79368399999998
  0
ARC
  8
LY_3
  6
CONTINUOUS
 62
               3
  5
64
 10
454.0
 20
-11.0
 30
0.0
 40
10.0
 50
89.999927
 51
231.56529700000002
  0
LINE
  8
LY_3
  6
CONTINUOUS
 62
               3
  5
65
 10
561.999999
 20
-49.000000999999997
 30
0.0
 11
563.0
 21
-48.0
 31
0.0
  0
LINE
  8
LY_3
  6
CONTINUOUS
 62
               3
  5
66
 10
554.99999800000001
 20
-48.000002000000002
 30
0.0
 11
555.99999800000001
 21
-49.000002000000002
 31
0.0
  0
LINE
  8
LY_3
  6
CONTINUOUS
 62
               3
  5
67
 10
555.0
 20
-48.0
 30
0.0
 11
563.0
 21
-48.0
 31
0.0
  0
LINE
  8
LY_3
  6
CONTINUOUS
 62
               3
  5
68
 10
562.0
 20
-34.599997999999999
 30
0.0
 11
562.0
 21
-49.0
 31
0.0
  0
LINE
  8
LY_3
  6
CONTINUOUS
 62
               3
  5
69
 10
556.0
 20
-34.599997999999999
 30
0.0
 11
556.0
 21
-49.0
 31
0.0
  0
LINE
  8
LY_3
  6
CONTINUOUS
 62
             110
  5
6A
 10
575.5
 20
-45.599997999999999
 30
0.0
 11
575.5
 21
-44.783645999999997
 31
0.0
  0
LINE
  8
LY_3
  6
CONTINUOUS
 62
             110
  5
6B
 10
569.5
 20
-46.599997999999999
 30
0.0
 11
574.5
 21
-46.599997999999999
 31
0.0
  0
LINE
  8
LY_3
  6
CONTINUOUS
 62
             110
  5
6C
 10
568.499999
 20
-34.662470999999996
 30
0.0
 11
568.53796299999999
 21
-33.751345999999998
 31
0.0
  0
LINE
  8
LY_3
  6
CONTINUOUS
 62
             110
  5
6D
 10
568.5
 20
-45.599997999999999
 30
0.0
 11
568.5
 21
-34.662470999999996
 31
0.0
  0
LINE
  8
LY_3
  6
CONTINUOUS
 62
             110
  5
6E
 10
549.5
 20
-34.662469999999999
 30
0.0
 11
549.46203600000001
 21
-33.751345999999998
 31
0.0
  0
LINE
  8
LY_3
  6
CONTINUOUS
 62
             110
  5
6F
 10
549.5
 20
-45.599997999999999
 30
0.0
 11
549.5
 21
-34.662472000000001
 31
0.0
  0
LINE
  8
LY_3
  6
CONTINUOUS
 62
             110
  5
70
 10
542.5
 20
-45.599997999999999
 30
0.0
 11
542.5
 21
-44.783645999999997
 31
0.0
  0
LINE
  8
LY_3
  6
CONTINUOUS
 62
             110
  5
71
 10
548.5
 20
-46.599997999999999
 30
0.0
 11
543.5
 21
-46.599997999999999
 31
0.0
  0
LINE
  8
LY_3
  6
CONTINUOUS
 62
               3
  5
72
 10
578.5
 20
-47.599997999999999
 30
0.0
 11
578.5
 21
-44.599997999999999
 31
0.0
  0
LINE
  8
LY_3
  6
CONTINUOUS
 62
               3
  5
73
 10
565.53993200000002
 20
-33.641627999999997
 30
0.0
 11
565.97829899999999
 21
-23.120813999999999
 31
0.0
  0
LINE
  8
LY_3
  6
CONTINUOUS
 62
               3
  5
74
 10
552.46006799999998
 20
-33.641629000000002
 30
0.0
 11
552.02170000000001
 21
-23.120815
 31
0.0
  0
LINE
  8
LY_3
  6
CONTINUOUS
 62
               3
  5
75
 10
564.540798
 20
-34.599997999999999
 30
0.0
 11
553.459202
 21
-34.599997999999999
 31
0.0
  0
LINE
  8
LY_3
  6
DASHED
 62
             110
  5
76
 10
556.0
 20
-34.599997999999999
 30
0.0
 11
556.0
 21
-22.599997999999999
 31
0.0
  0
LINE
  8
LY_3
  6
DASHED
 62
             110
  5
77
 10
562.0
 20
-34.599997999999999
 30
0.0
 11
562.0
 21
-22.599997999999999
 31
0.0
  0
LINE
  8
LY_3
  6
DASHED
 62
             110
  5
78
 10
555.0
 20
-34.599997999999999
 30
0.0
 11
555.0
 21
-22.599997999999999
 31
0.0
  0
LINE
  8
LY_3
  6
DASHED
 62
             110
  5
79
 10
563.0
 20
-34.599997999999999
 30
0.0
 11
563.0
 21
-22.599997999999999
 31
0.0
  0
LINE
  8
LY_3
  6
CONTINUOUS
 62
               3
  5
7A
 10
550.5
 20
-49.599997999999999
 30
0.0
 11
541.5
 21
-49.599997999999999
 31
0.0
  0
LINE
  8
LY_3
  6
CONTINUOUS
 62
               3
  5
7B
 10
565.5
 20
-47.599997999999999
 30
0.0
 11
565.5
 21
-36.599997999999999
 31
0.0
  0
LINE
  8
LY_3
  6
CONTINUOUS
 62
               3
  5
7C
 10
552.5
 20
-47.599997999999999
 30
0.0
 11
552.5
 21
-36.599997999999999
 31
0.0
  0
LINE
  8
LY_3
  6
CONTINUOUS
 62
               3
  5
7D
 10
539.5
 20
-47.599997999999999
 30
0.0
 11
539.5
 21
-44.599992999999998
 31
0.0
  0
LINE
  8
LY_3
  6
CONTINUOUS
 62
               3
  5
7E
 10
576.5
 20
-49.599997999999999
 30
0.0
 11
567.5
 21
-49.599997999999999
 31
0.0
  0
LINE
  8
LY_3
  6
CONTINUOUS
 62
               3
  5
7F
 10
549.0
 20
91.75
 30
0.0
 11
569.0
 21
91.75
 31
0.0
  0
LINE
  8
LY_3
  6
CONTINUOUS
 62
               3
  5
80
 10
549.0
 20
100.25
 30
0.0
 11
569.0
 21
100.25
 31
0.0
  0
LINE
  8
LY_3
  6
CONTINUOUS
 62
               3
  5
81
 10
464.99333200000001
 20
83.25
 30
0.0
 11
550.75
 21
83.25
 31
0.0
  0
LINE
  8
LY_3
  6
CONTINUOUS
 62
               3
  5
82
 10
464.99333200000001
 20
108.75
 30
0.0
 11
550.75
 21
108.75
 31
0.0
  0
LINE
  8
LY_3
  6
CONTINUOUS
 62
               3
  5
83
 10
551.48947099999998
 20
84.0
 30
0.0
 11
566.0
 21
84.0
 31
0.0
  0
LINE
  8
LY_3
  6
CONTINUOUS
 62
               3
  5
84
 10
551.48947099999998
 20
108.0
 30
0.0
 11
566.0
 21
108.0
 31
0.0
  0
LINE
  8
LY_3
  6
CONTINUOUS
 62
               3
  5
85
 10
445.0
 20
84.0
 30
0.0
 11
464.25
 21
84.0
 31
0.0
  0
LINE
  8
LY_3
  6
CONTINUOUS
 62
               3
  5
86
 10
445.0
 20
108.0
 30
0.0
 11
464.25
 21
108.0
 31
0.0
  0
LINE
  8
LY_3
  6
CONTINUOUS
 62
               3
  5
87
 10
462.0
 20
1.0
 30
0.0
 11
462.0
 21
-1.0
 31
0.0
  0
LINE
  8
LY_3
  6
CONTINUOUS
 62
               3
  5
88
 10
567.5
 20
-22.599997999999999
 30
0.0
 11
550.5
 21
-22.599997999999999
 31
0.0
  0
LINE
  8
LY_3
  6
CONTINUOUS
 62
               3
  5
89
 10
567.5
 20
-21.0
 30
0.0
 11
567.5
 21
-22.599997999999999
 31
0.0
  0
LINE
  8
LY_3
  6
CONTINUOUS
 62
               3
  5
8A
 10
550.5
 20
-21.0
 30
0.0
 11
550.5
 21
-22.599997999999999
 31
0.0
  0
LINE
  8
LY_3
  6
DASHED
 62
               3
  5
8B
 10
563.19999700000005
 20
-21.0
 30
0.0
 11
563.19999700000005
 21
-22.599997999999999
 31
0.0
  0
LINE
  8
LY_3
  6
DASHED
 62
               3
  5
8C
 10
554.80000299999995
 20
-21.0
 30
0.0
 11
554.80000299999995
 21
-22.599997999999999
 31
0.0
  0
LINE
  8
LY_3
  6
CONTINUOUS
 62
               3
  5
8D
 10
542.0
 20
83.25
 30
0.0
 11
542.0
 21
89.933479000000005
 31
0.0
  0
LINE
  8
LY_3
  6
CONTINUOUS
 62
               3
  5
8E
 10
535.10359200000005
 20
83.25
 30
0.0
 11
535.10359200000005
 21
88.349997999999999
 31
0.0
  0
LINE
  8
LY_3
  6
CONTINUOUS
 62
               3
  5
8F
 10
535.10358699999995
 20
88.349993999999995
 30
0.0
 11
544.48765200000003
 21
90.749995999999996
 31
0.0
  0
LINE
  8
LY_3
  6
CONTINUOUS
 62
               3
  5
90
 10
532.63782400000002
 20
90.750001999999995
 30
0.0
 11
531.93071699999996
 21
92.000003000000007
 31
0.0
  0
LINE
  8
LY_3
  6
CONTINUOUS
 62
               3
  5
91
 10
526.273865
 20
88.349992
 30
0.0
 11
532.63782700000002
 21
90.749993000000003
 31
0.0
  0
LINE
  8
LY_3
  6
CONTINUOUS
 62
               3
  5
92
 10
525.56675700000005
 20
89.599998999999997
 30
0.0
 11
531.93071499999996
 21
91.999999000000003
 31
0.0
  0
LINE
  8
LY_3
  6
CONTINUOUS
 62
               3
  5
93
 10
526.27386300000001
 20
88.349999999999994
 30
0.0
 11
525.56675600000005
 21
89.600001000000006
 31
0.0
  0
LINE
  8
LY_3
  6
CONTINUOUS
 62
               3
  5
94
 10
481.72614599999997
 20
88.349992
 30
0.0
 11
482.43325300000004
 21
89.599992999999998
 31
0.0
  0
LINE
  8
LY_3
  6
CONTINUOUS
 62
               3
  5
95
 10
475.36217299999998
 20
90.750000999999997
 30
0.0
 11
476.06927899999999
 21
91.999999000000003
 31
0.0
  0
LINE
  8
LY_3
  6
CONTINUOUS
 62
               3
  5
96
 10
482.43324199999995
 20
89.600003999999998
 30
0.0
 11
476.06928399999998
 21
92.000004000000004
 31
0.0
  0
LINE
  8
LY_3
  6
CONTINUOUS
 62
               3
  5
97
 10
481.72613999999999
 20
88.350002000000003
 30
0.0
 11
475.362168
 21
90.750007999999994
 31
0.0
  0
LINE
  8
LY_3
  6
CONTINUOUS
 62
               3
  5
98
 10
472.89640800000001
 20
88.350001000000006
 30
0.0
 11
463.512339
 21
90.750003000000007
 31
0.0
  0
LINE
  8
LY_3
  6
CONTINUOUS
 62
               3
  5
99
 10
472.89640800000001
 20
83.25
 30
0.0
 11
472.89640800000001
 21
88.349997999999999
 31
0.0
  0
LINE
  8
LY_3
  6
CONTINUOUS
 62
               3
  5
9A
 10
466.0
 20
83.25
 30
0.0
 11
466.0
 21
89.933464000000001
 31
0.0
  0
LINE
  8
LY_3
  6
CONTINUOUS
 62
               3
  5
9B
 10
525.56675700000005
 20
102.39999899999999
 30
0.0
 11
531.93072199999995
 21
99.999995999999996
 31
0.0
  0
LINE
  8
LY_3
  6
CONTINUOUS
 62
               3
  5
9C
 10
526.273866
 20
103.649998
 30
0.0
 11
532.63782400000002
 21
101.24999699999999
 31
0.0
  0
LINE
  8
LY_3
  6
CONTINUOUS
 62
               3
  5
9D
 10
532.63782500000002
 20
101.25000300000001
 30
0.0
 11
531.93071699999996
 21
100.00000199999999
 31
0.0
  0
LINE
  8
LY_3
  6
CONTINUOUS
 62
               3
  5
9E
 10
526.27386200000001
 20
103.649998
 30
0.0
 11
525.56675800000005
 21
102.400003
 31
0.0
  0
LINE
  8
LY_3
  6
CONTINUOUS
 62
               3
  5
9F
 10
535.10359000000005
 20
103.650002
 30
0.0
 11
544.48765800000001
 21
101.249999
 31
0.0
  0
LINE
  8
LY_3
  6
CONTINUOUS
 62
               3
  5
A0
 10
472.896413
 20
103.649998
 30
0.0
 11
463.51234399999998
 21
101.24999699999999
 31
0.0
  0
LINE
  8
LY_3
  6
CONTINUOUS
 62
               3
  5
A1
 10
481.72614499999997
 20
103.649995
 30
0.0
 11
482.43325200000004
 21
102.39999400000001
 31
0.0
  0
LINE
  8
LY_3
  6
CONTINUOUS
 62
               3
  5
A2
 10
475.36217699999997
 20
101.249989
 30
0.0
 11
476.06928399999998
 21
99.999988000000002
 31
0.0
  0
LINE
  8
LY_3
  6
CONTINUOUS
 62
               3
  5
A3
 10
481.72613899999999
 20
103.649995
 30
0.0
 11
475.36218100000002
 21
101.249994
 31
0.0
  0
LINE
  8
LY_3
  6
CONTINUOUS
 62
               3
  5
A4
 10
482.43325100000004
 20
102.39998900000001
 30
0.0
 11
476.06929300000002
 21
99.999988999999999
 31
0.0
  0
LINE
  8
LY_3
  6
CONTINUOUS
 62
               3
  5
A5
 10
542.0
 20
108.75
 30
0.0
 11
542.0
 21
102.06652800000001
 31
0.0
  0
LINE
  8
LY_3
  6
CONTINUOUS
 62
               3
  5
A6
 10
535.10359200000005
 20
108.75
 30
0.0
 11
535.10359200000005
 21
103.64999400000001
 31
0.0
  0
LINE
  8
LY_3
  6
CONTINUOUS
 62
               3
  5
A7
 10
472.89640800000001
 20
108.75
 30
0.0
 11
472.89640800000001
 21
103.64999400000001
 31
0.0
  0
LINE
  8
LY_3
  6
CONTINUOUS
 62
               3
  5
A8
 10
466.0
 20
108.75
 30
0.0
 11
466.0
 21
102.06652800000001
 31
0.0
  0
LINE
  8
LY_3
  6
DASHED
 62
             110
  5
A9
 10
549.0
 20
-21.0
 30
0.0
 11
549.0
 21
-1.0
 31
0.0
  0
LINE
  8
LY_3
  6
DASHED
 62
             110
  5
AA
 10
455.99631899999997
 20
-27.003578999999998
 30
0.0
 11
466.85645
 21
-16.143449
 31
0.0
  0
LINE
  8
LY_3
  6
CONTINUOUS
 62
               3
  5
AB
 10
466.00000299999999
 20
-0.999995
 30
0.0
 11
471.79159400000003
 21
-4.3437720000000004
 31
0.0
  0
LINE
  8
LY_3
  6
CONTINUOUS
 62
               3
  5
AC
 10
536.20840999999996
 20
-4.3437770000000002
 30
0.0
 11
542.00000199999999
 21
-0.999999
 31
0.0
  0
LINE
  8
LY_3
  6
DASHED
 62
             110
  5
AD
 10
526.98097099999995
 20
-22.980969999999999
 30
0.0
 11
532.63782600000002
 21
-28.637823999999998
 31
0.0
  0
LINE
  8
LY_3
  6
DASHED
 62
             110
  5
AE
 10
526.26298299999996
 20
-23.677195999999999
 30
0.0
 11
531.93071899999995
 21
-29.344930999999999
 31
0.0
  0
LINE
  8
LY_3
  6
DASHED
 62
             110
  5
AF
 10
481.01902600000005
 20
-22.980969999999999
 30
0.0
 11
475.36217699999997
 21
-28.637819
 31
0.0
  0
LINE
  8
LY_3
  6
DASHED
 62
             110
  5
B0
 10
481.73701400000004
 20
-23.677195999999999
 30
0.0
 11
476.06928399999998
 21
-29.344926000000001
 31
0.0
  0
LINE
  8
LY_3
  6
CONTINUOUS
 62
               3
  5
B1
 10
466.00000199999999
 20
0.999996
 30
0.0
 11
471.79159299999998
 21
4.3437729999999997
 31
0.0
  0
LINE
  8
LY_3
  6
CONTINUOUS
 62
               3
  5
B2
 10
536.20840999999996
 20
4.3437770000000002
 30
0.0
 11
542.00000199999999
 21
1.0000009999999999
 31
0.0
  0
LINE
  8
LY_3
  6
DASHED
 62
             110
  5
B3
 10
481.01902900000005
 20
22.980972000000001
 30
0.0
 11
475.36217499999998
 21
28.637826
 31
0.0
  0
LINE
  8
LY_3
  6
DASHED
 62
             110
  5
B4
 10
481.73701700000004
 20
23.677198000000001
 30
0.0
 11
476.06928099999999
 21
29.344933000000001
 31
0.0
  0
LINE
  8
LY_3
  6
DASHED
 62
             110
  5
B5
 10
526.26298099999997
 20
23.677198000000001
 30
0.0
 11
531.93071599999996
 21
29.344933000000001
 31
0.0
  0
LINE
  8
LY_3
  6
DASHED
 62
             110
  5
B6
 10
526.98096899999996
 20
22.980972000000001
 30
0.0
 11
532.63782300000003
 21
28.637826
 31
0.0
  0
LINE
  8
LY_3
  6
CONTINUOUS
 62
               3
  5
B7
 10
563.0
 20
-34.599997999999999
 30
0.0
 11
563.0
 21
-48.0
 31
0.0
  0
LINE
  8
LY_3
  6
CONTINUOUS
 62
               3
  5
B8
 10
555.0
 20
-34.599997999999999
 30
0.0
 11
555.0
 21
-48.0
 31
0.0
  0
LINE
  8
LY_3
  6
CENTER
 62
             110
  5
BA
 10
559.0
 20
17.0
 30
0.0
 11
559.0
 21
-52.200038999999997
 31
0.0
  0
LINE
  8
LY_3
  6
CENTER
 62
             110
  5
BB
 10
553.0
 20
11.0
 30
0.0
 11
565.0
 21
11.0
 31
0.0
  0
LINE
  8
LY_3
  6
CONTINUOUS
 62
               3
  5
BC
 10
569.0
 20
18.0
 30
0.0
 11
569.0
 21
4.0
 31
0.0
  0
LINE
  8
LY_3
  6
CONTINUOUS
 62
               3
  5
BD
 10
549.60975599999995
 20
21.0
 30
0.0
 11
566.0
 21
21.0
 31
0.0
  0
LINE
  8
LY_3
  6
DASHED
 62
             110
  5
BE
 10
549.0
 20
21.0
 30
0.0
 11
549.0
 21
1.0
 31
0.0
  0
LINE
  8
LY_3
  6
CONTINUOUS
 62
               3
  5
BF
 10
542.0
 20
1.0
 30
0.0
 11
566.0
 21
1.0
 31
0.0
  0
LINE
  8
LY_3
  6
CENTER
 62
             110
  5
C0
 10
430.94057199999997
 20
0.0
 30
0.0
 11
578.558448
 21
0.0
 31
0.0
  0
LINE
  8
LY_3
  6
CENTER
 62
             110
  5
C1
 10
504.0
 20
55.911911000000003
 30
0.0
 11
504.0
 21
-52.0
 31
0.0
  0
LINE
  8
LY_3
  6
DASHED
 62
             110
  5
C2
 10
455.99631999999997
 20
27.003582999999999
 30
0.0
 11
466.85645699999998
 21
16.143446999999998
 31
0.0
  0
LINE
  8
LY_3
  6
CENTER
 62
             110
  5
C3
 10
454.30000000000001
 20
17.0
 30
0.0
 11
454.30000000000001
 21
-17.0
 31
0.0
  0
LINE
  8
LY_3
  6
CENTER
 62
             110
  5
C4
 10
448.30000000000001
 20
11.300000000000001
 30
0.0
 11
460.30000000000001
 21
11.300000000000001
 31
0.0
  0
LINE
  8
LY_3
  6
CONTINUOUS
 62
               3
  5
C5
 10
454.0
 20
1.0
 30
0.0
 11
466.0
 21
1.0
 31
0.0
  0
LINE
  8
LY_3
  6
CONTINUOUS
 62
               3
  5
C6
 10
482.43324299999995
 20
89.599997999999999
 30
0.0
 11
525.56675700000005
 21
89.599997999999999
 31
0.0
  0
LINE
  8
LY_3
  6
CONTINUOUS
 62
               3
  5
C7
 10
476.06928299999998
 20
92.0
 30
0.0
 11
531.93071699999996
 21
92.0
 31
0.0
  0
LINE
  8
LY_3
  6
CONTINUOUS
 62
               3
  5
C8
 10
544.48765200000003
 20
90.75
 30
0.0
 11
544.48765200000003
 21
96.0
 31
0.0
  0
LINE
  8
LY_3
  6
CONTINUOUS
 62
               3
  5
C9
 10
532.63782500000002
 20
90.75
 30
0.0
 11
544.48765200000003
 21
90.75
 31
0.0
  0
LINE
  8
LY_3
  6
CONTINUOUS
 62
               3
  5
CA
 10
526.273865
 20
88.349997999999999
 30
0.0
 11
535.10359200000005
 21
88.349997999999999
 31
0.0
  0
LINE
  8
LY_3
  6
CONTINUOUS
 62
               3
  5
CB
 10
481.726135
 20
88.349997999999999
 30
0.0
 11
472.89640800000001
 21
88.349997999999999
 31
0.0
  0
LINE
  8
LY_3
  6
CONTINUOUS
 62
               3
  5
CC
 10
475.36218300000002
 20
90.75
 30
0.0
 11
463.51234399999998
 21
90.75
 31
0.0
  0
LINE
  8
LY_3
  6
CONTINUOUS
 62
               3
  5
CD
 10
463.51234399999998
 20
90.75
 30
0.0
 11
463.51234399999998
 21
93.599999999999994
 31
0.0
  0
LINE
  8
LY_3
  6
CONTINUOUS
 62
               3
  5
CE
 10
463.51234399999998
 20
101.25
 30
0.0
 11
463.51234399999998
 21
98.400000000000006
 31
0.0
  0
LINE
  8
LY_3
  6
CONTINUOUS
 62
               3
  5
CF
 10
475.36218300000002
 20
101.25
 30
0.0
 11
463.51234399999998
 21
101.25
 31
0.0
  0
LINE
  8
LY_3
  6
CONTINUOUS
 62
               3
  5
D0
 10
481.726135
 20
103.64999400000001
 30
0.0
 11
472.89640800000001
 21
103.64999400000001
 31
0.0
  0
LINE
  8
LY_3
  6
CONTINUOUS
 62
               3
  5
D1
 10
476.06928299999998
 20
100.0
 30
0.0
 11
531.93071699999996
 21
100.0
 31
0.0
  0
LINE
  8
LY_3
  6
CONTINUOUS
 62
               3
  5
D2
 10
482.43324299999995
 20
102.39999400000001
 30
0.0
 11
525.56675700000005
 21
102.39999400000001
 31
0.0
  0
LINE
  8
LY_3
  6
CONTINUOUS
 62
               3
  5
D3
 10
526.273865
 20
103.64999400000001
 30
0.0
 11
535.10359200000005
 21
103.64999400000001
 31
0.0
  0
LINE
  8
LY_3
  6
CONTINUOUS
 62
               3
  5
D4
 10
532.63782500000002
 20
101.25
 30
0.0
 11
544.48765200000003
 21
101.25
 31
0.0
  0
LINE
  8
LY_3
  6
CONTINUOUS
 62
               3
  5
D5
 10
544.48765200000003
 20
101.25
 30
0.0
 11
544.48765200000003
 21
96.0
 31
0.0
  0
LINE
  8
LY_3
  6
DASHED
 62
             110
  5
D6
 10
450.30000000000001
 20
93.599999999999994
 30
0.0
 11
450.30000000000001
 21
84.0
 31
0.0
  0
LINE
  8
LY_3
  6
DASHED
 62
             110
  5
D7
 10
458.30000000000001
 20
93.599999999999994
 30
0.0
 11
458.30000000000001
 21
84.0
 31
0.0
  0
LINE
  8
LY_3
  6
DASHED
 62
             110
  5
D8
 10
555.0
 20
91.75
 30
0.0
 11
555.0
 21
84.0
 31
0.0
  0
LINE
  8
LY_3
  6
DASHED
 62
             110
  5
D9
 10
563.0
 20
91.75
 30
0.0
 11
563.0
 21
84.0
 31
0.0
  0
LINE
  8
LY_3
  6
DASHED
 62
             110
  5
DA
 10
563.0
 20
108.0
 30
0.0
 11
563.0
 21
100.25
 31
0.0
  0
LINE
  8
LY_3
  6
DASHED
 62
             110
  5
DB
 10
555.0
 20
108.0
 30
0.0
 11
555.0
 21
100.25
 31
0.0
  0
LINE
  8
LY_3
  6
DASHED
 62
             110
  5
DC
 10
458.30000000000001
 20
108.0
 30
0.0
 11
458.30000000000001
 21
98.400000000000006
 31
0.0
  0
LINE
  8
LY_3
  6
DASHED
 62
             110
  5
DD
 10
450.30000000000001
 20
108.0
 30
0.0
 11
450.30000000000001
 21
98.400000000000006
 31
0.0
  0
LINE
  8
LY_3
  6
CENTER
 62
             110
  5
DE
 10
454.30000000000001
 20
111.63716100000001
 30
0.0
 11
454.30000000000001
 21
78.5
 31
0.0
  0
LINE
  8
LY_3
  6
CENTER
 62
             110
  5
DF
 10
559.0
 20
109.832077
 30
0.0
 11
559.0
 21
80.072997999999998
 31
0.0
  0
LINE
  8
LY_3
  6
CONTINUOUS
 62
               3
  5
E0
 10
569.0
 20
91.75
 30
0.0
 11
569.0
 21
87.0
 31
0.0
  0
LINE
  8
LY_3
  6
CONTINUOUS
 62
               3
  5
E1
 10
444.0
 20
93.599999999999994
 30
0.0
 11
444.0
 21
85.0
 31
0.0
  0
LINE
  8
LY_3
  6
CONTINUOUS
 62
               3
  5
E2
 10
444.0
 20
98.400000000000006
 30
0.0
 11
466.85650600000002
 21
98.400000000000006
 31
0.0
  0
LINE
  8
LY_3
  6
CONTINUOUS
 62
               3
  5
E3
 10
444.0
 20
93.599999999999994
 30
0.0
 11
466.85650600000002
 21
93.599999999999994
 31
0.0
  0
LINE
  8
LY_3
  6
CONTINUOUS
 62
               3
  5
E4
 10
466.85650600000002
 20
98.400000000000006
 30
0.0
 11
466.85650600000002
 21
93.599999999999994
 31
0.0
  0
LINE
  8
LY_3
  6
CONTINUOUS
 62
               3
  5
E5
 10
549.0
 20
100.25
 30
0.0
 11
549.0
 21
91.75
 31
0.0
  0
LINE
  8
LY_3
  6
CONTINUOUS
 62
               3
  5
E6
 10
569.0
 20
104.75
 30
0.0
 11
569.0
 21
100.0
 31
0.0
  0
LINE
  8
LY_3
  6
CONTINUOUS
 62
               3
  5
E7
 10
444.0
 20
107.0
 30
0.0
 11
444.0
 21
98.400000000000006
 31
0.0
  0
LINE
  8
LY_3
  6
CENTER
 62
             110
  5
E8
 10
439.0
 20
96.0
 30
0.0
 11
571.64628200000004
 21
96.0
 31
0.0
  0
LINE
  8
LY_3
  6
CONTINUOUS
 62
               3
  5
E9
 10
563.0
 20
1.0
 30
0.0
 11
563.0
 21
-1.0
 31
0.0
  0
LINE
  8
LY_3
  6
CONTINUOUS
 62
               3
  5
EA
 10
555.0
 20
1.0
 30
0.0
 11
555.0
 21
-1.0
 31
0.0
  0
LINE
  8
LY_3
  6
CONTINUOUS
 62
               3
  5
EB
 10
556.0
 20
-49.0
 30
0.0
 11
562.0
 21
-49.0
 31
0.0
  0
LINE
  8
LY_3
  6
CONTINUOUS
 62
               3
  5
EC
 10
462.0
 20
98.400000000000006
 30
0.0
 11
462.0
 21
93.599999999999994
 31
0.0
  0
LINE
  8
LY_3
  6
CONTINUOUS
 62
               3
  5
ED
 10
446.0
 20
5.0
 30
0.0
 11
446.0
 21
-5.0
 31
0.0
  0
LINE
  8
LY_3
  6
CONTINUOUS
 62
               3
  5
EE
 10
569.0
 20
-18.0
 30
0.0
 11
569.0
 21
-4.0
 31
0.0
  0
LINE
  8
LY_3
  6
CONTINUOUS
 62
               3
  5
EF
 10
549.60975599999995
 20
-21.0
 30
0.0
 11
567.5
 21
-21.0
 31
0.0
  0
LINE
  8
LY_3
  6
CONTINUOUS
 62
               3
  5
F0
 10
542.0
 20
-1.0
 30
0.0
 11
566.0
 21
-1.0
 31
0.0
  0
LINE
  8
LY_3
  6
CENTER
 62
             110
  5
F1
 10
448.30000000000001
 20
-11.300000000000001
 30
0.0
 11
460.30000000000001
 21
-11.300000000000001
 31
0.0
  0
LINE
  8
LY_3
  6
CENTER
 62
             110
  5
F2
 10
553.0
 20
-11.0
 30
0.0
 11
565.0
 21
-11.0
 31
0.0
  0
LINE
  8
LY_3
  6
CONTINUOUS
 62
               3
  5
F3
 10
454.0
 20
-1.0
 30
0.0
 11
466.0
 21
-1.0
 31
0.0
  0
LINE
  8
LY_3
  6
CENTER
 62
             110
  5
F4
 10
504.0
 20
113.5
 30
0.0
 11
504.0
 21
78.5
 31
0.0
  0
TEXT
  8
LY_3
  6
CONTINUOUS
 62
             110
  5
F5
 10
279.06249835901116
 20
-68.0
 30
0.0
 40
8.0
  1
VP1040N
 41
0.9839999884843825
  7
MX_NOTE_STANDARD
 11
279.06249835901116
 21
-60.0
 31
0.0
 73
               3
  0
CIRCLE
  8
LY_3
  6
CONTINUOUS
 62
               3
  5
F6
 10
266.30000000000001
 20
7.2999999999999998
 30
0.0
 40
1.7
  0
CIRCLE
  8
LY_3
  6
CONTINUOUS
 62
               3
  5
F7
 10
266.30000000000001
 20
-7.2999999999999998
 30
0.0
 40
1.7
  0
CIRCLE
  8
LY_3
  6
CONTINUOUS
 62
               3
  5
F8
 10
346.0
 20
8.0
 30
0.0
 40
2.2000000000000002
  0
POLYLINE
  8
LY_3
  6
CONTINUOUS
 62
             110
  5
F9
 66
               1
 10
0.0
 20
0.0
 30
0.0
  0
VERTEX
  8
LY_3
  6
CONTINUOUS
 62
             110
  5
365
 10
374.0
 20
0.0
 30
0.0
  0
VERTEX
  8
LY_3
  6
CONTINUOUS
 62
             110
  5
366
 10
374.0
 20
10.0
 30
0.0
  0
SEQEND
  8
LY_3
  6
CONTINUOUS
 62
             110
  5
367
  0
INSERT
  8
LY_3
  6
CONTINUOUS
 62
             110
  5
FA
  2
_OPEN30
 10
374.0
 20
0.0
 30
0.0
 41
2.77
 42
2.77
 50
270.0
 43
2.77
  0
POLYLINE
  8
LY_3
  6
CONTINUOUS
 62
             110
  5
FB
 66
               1
 10
0.0
 20
0.0
 30
0.0
  0
VERTEX
  8
LY_3
  6
CONTINUOUS
 62
             110
  5
368
 10
232.0
 20
0.0
 30
0.0
  0
VERTEX
  8
LY_3
  6
CONTINUOUS
 62
             110
  5
369
 10
232.0
 20
10.0
 30
0.0
  0
SEQEND
  8
LY_3
  6
CONTINUOUS
 62
             110
  5
36A
  0
INSERT
  8
LY_3
  6
CONTINUOUS
 62
             110
  5
FC
  2
_OPEN30
 10
232.0
 20
0.0
 30
0.0
 41
2.77
 42
2.77
 50
270.0
 43
2.77
  0
TEXT
  8
LY_3
  6
CONTINUOUS
 62
             110
  5
FD
 10
224.59999990463257
 20
2.5999999046325684
 30
0.0
 40
4.8000001907348633
  1
A
  7
MX_NOTE_STANDARD
 72
               1
 11
227.0
 21
5.0
 31
0.0
 73
               2
  0
TEXT
  8
LY_3
  6
CONTINUOUS
 62
             110
  5
FE
 10
376.59999990463257
 20
2.5999999046325684
 30
0.0
 40
4.8000001907348633
  1
A
  7
MX_NOTE_STANDARD
 72
               1
 11
379.0
 21
5.0
 31
0.0
 73
               2
  0
TEXT
  8
LY_3
  6
CONTINUOUS
 62
             110
  5
FF
 10
296.40383911132812
 20
65.599999904632568
 30
0.0
 40
4.8000001907348633
  1
Ａ－Ａ視
 41
0.833333300219643
  7
MX_NOTE_STANDARD
 72
               1
 11
306.0
 21
68.0
 31
0.0
 73
               2
  0
ARC
  8
LY_3
  6
CONTINUOUS
 62
               3
  5
100
 10
342.5
 20
-29.0
 30
0.0
 40
1.0
 50
89.999999000000003
 51
179.99999500000001
  0
ARC
  8
LY_3
  6
CONTINUOUS
 62
               3
  5
101
 10
349.5
 20
-29.0
 30
0.0
 40
1.0
 50
359.99999000000003
 51
89.999999000000017
  0
ARC
  8
LY_3
  6
CONTINUOUS
 62
             110
  5
102
 10
353.74467800000002
 20
-24.178833000000001
 30
0.0
 40
1.0
 50
41.719824000000003
 51
176.42366699999999
  0
ARC
  8
LY_3
  6
CONTINUOUS
 62
             110
  5
103
 10
341.05574000000001
 20
-35.492139999999999
 30
0.0
 40
18.0
 50
4.2786390000000001
 51
41.719824000000003
  0
ARC
  8
LY_3
  6
CONTINUOUS
 62
             110
  5
104
 10
358.0
 20
-35.0
 30
0.0
 40
1.0
 50
270.00000399999999
 51
0.0000049999999943
  0
ARC
  8
LY_3
  6
CONTINUOUS
 62
             110
  5
105
 10
353.5
 20
-35.0
 30
0.0
 40
1.0
 50
179.99999500000001
 51
270.00000399999999
  0
ARC
  8
LY_3
  6
CONTINUOUS
 62
             110
  5
106
 10
338.5
 20
-35.0
 30
0.0
 40
1.0
 50
270.00000399999999
 51
0.0000049999999943
  0
ARC
  8
LY_3
  6
CONTINUOUS
 62
             110
  5
107
 10
334.0
 20
-35.0
 30
0.0
 40
1.0
 50
179.99999500000001
 51
270.00000399999999
  0
ARC
  8
LY_3
  6
CONTINUOUS
 62
             110
  5
108
 10
338.25532499999997
 20
-24.178833000000001
 30
0.0
 40
1.0
 50
3.5763319999999998
 51
138.28018900000001
  0
ARC
  8
LY_3
  6
CONTINUOUS
 62
             110
  5
109
 10
350.94425999999999
 20
-35.492137999999997
 30
0.0
 40
18.0
 50
138.28018900000001
 51
175.72136000000003
  0
ARC
  8
LY_3
  6
CONTINUOUS
 62
               3
  5
10A
 10
341.05574000000001
 20
-35.492139999999999
 30
0.0
 40
20.0
 50
4.2786390000000001
 51
59.812966999999993
  0
ARC
  8
LY_3
  6
CONTINUOUS
 62
               3
  5
10B
 10
350.94425999999999
 20
-35.492137999999997
 30
0.0
 40
20.0
 50
120.18703099999999
 51
175.72136000000003
  0
ARC
  8
LY_3
  6
CONTINUOUS
 62
               3
  5
10C
 10
341.96972699999998
 20
-27.5
 30
0.0
 40
0.5
 50
183.576337
 51
270.00000399999999
  0
ARC
  8
LY_3
  6
CONTINUOUS
 62
               3
  5
10D
 10
341.28222699999998
 20
-16.5
 30
0.0
 40
0.5
 50
89.999999000000003
 51
183.576337
  0
ARC
  8
LY_3
  6
CONTINUOUS
 62
               3
  5
10E
 10
350.71777300000002
 20
-16.5
 30
0.0
 40
0.5
 50
356.42366299999998
 51
90.000003000000035
  0
ARC
  8
LY_3
  6
CONTINUOUS
 62
               3
  5
10F
 10
350.03027300000002
 20
-27.5
 30
0.0
 40
0.5
 50
270.00000399999999
 51
356.42366299999998
  0
ARC
  8
LY_3
  6
CONTINUOUS
 62
               3
  5
110
 10
352.5
 20
-36.0
 30
0.0
 40
2.0
 50
179.99999500000001
 51
270.00000399999999
  0
ARC
  8
LY_3
  6
CONTINUOUS
 62
               3
  5
111
 10
339.5
 20
-36.0
 30
0.0
 40
2.0
 50
270.00000399999999
 51
0.0000049999999943
  0
ARC
  8
LY_3
  6
CONTINUOUS
 62
               3
  5
112
 10
359.0
 20
-36.0
 30
0.0
 40
2.0
 50
270.00000399999999
 51
0.0000049999999943
  0
ARC
  8
LY_3
  6
CONTINUOUS
 62
               3
  5
113
 10
333.0
 20
-36.0
 30
0.0
 40
2.0
 50
184.96450400000001
 51
270.00000399999999
  0
ARC
  8
LY_3
  6
CONTINUOUS
 62
               3
  5
114
 10
310.03073899999998
 20
24.261703000000001
 30
0.0
 40
60.0
 50
215.374651
 51
256.04088000000002
  0
ARC
  8
LY_3
  6
CONTINUOUS
 62
               3
  5
115
 10
266.0
 20
-7.0
 30
0.0
 40
6.0
 50
90.000003000000007
 51
215.37464800000001
  0
ARC
  8
LY_3
  6
CONTINUOUS
 62
               3
  5
116
 10
310.03073899999998
 20
-24.261702
 30
0.0
 40
60.0
 50
103.95912
 51
144.625349
  0
ARC
  8
LY_3
  6
CONTINUOUS
 62
               3
  5
117
 10
266.0
 20
7.0
 30
0.0
 40
6.0
 50
144.625349
 51
270.000001
  0
ARC
  8
LY_3
  6
CONTINUOUS
 62
               3
  5
118
 10
351.0
 20
-13.0
 30
0.0
 40
2.0
 50
269.99999700000001
 51
0.0
  0
ARC
  8
LY_3
  6
CONTINUOUS
 62
               3
  5
119
 10
351.0
 20
-3.0
 30
0.0
 40
2.0
 50
0.0
 51
90.000003000000007
  0
ARC
  8
LY_3
  6
CONTINUOUS
 62
               3
  5
11A
 10
351.0
 20
3.0
 30
0.0
 40
2.0
 50
269.99999700000001
 51
0.0
  0
ARC
  8
LY_3
  6
CONTINUOUS
 62
               3
  5
11B
 10
351.0
 20
13.0
 30
0.0
 40
2.0
 50
0.0
 51
90.000003000000007
  0
ARC
  8
LY_3
  6
CONTINUOUS
 62
               3
  5
11C
 10
338.64101800000003
 20
-20.0
 30
0.0
 40
5.0
 50
90.000003000000007
 51
149.99999700000001
  0
ARC
  8
LY_3
  6
CONTINUOUS
 62
               3
  5
11D
 10
338.64101800000003
 20
20.0
 30
0.0
 40
5.0
 50
210.00000299999999
 51
269.99999700000001
  0
ARC
  8
LY_3
  6
CONTINUOUS
 62
               3
  5
11E
 10
274.25
 20
97.25
 30
0.0
 40
0.75
 50
269.99999700000001
 51
0.0
  0
ARC
  8
LY_3
  6
CONTINUOUS
 62
               3
  5
11F
 10
274.25
 20
78.75
 30
0.0
 40
0.75
 50
0.0
 51
90.000003000000007
  0
ARC
  8
LY_3
  6
CONTINUOUS
 62
               3
  5
120
 10
338.25
 20
79.5
 30
0.0
 40
0.75
 50
269.99999700000001
 51
0.0
  0
ARC
  8
LY_3
  6
CONTINUOUS
 62
               3
  5
121
 10
338.25
 20
96.5
 30
0.0
 40
0.75
 50
0.0
 51
90.000003000000007
  0
ARC
  8
LY_3
  6
CONTINUOUS
 62
               3
  5
122
 10
351.0
 20
94.5
 30
0.0
 40
2.0
 50
0.0
 51
90.000003000000007
  0
ARC
  8
LY_3
  6
CONTINUOUS
 62
               3
  5
123
 10
351.0
 20
81.5
 30
0.0
 40
2.0
 50
269.99999700000001
 51
0.0
  0
ARC
  8
LY_3
  6
CONTINUOUS
 62
               3
  5
124
 10
304.0
 20
0.0
 30
0.0
 40
24.0
 50
189.03789300000003
 51
350.962087
  0
ARC
  8
LY_3
  6
CONTINUOUS
 62
               3
  5
125
 10
304.0
 20
0.0
 30
0.0
 40
24.0
 50
9.0379100000000001
 51
170.96209400000001
  0
ARC
  8
LY_3
  6
CONTINUOUS
 62
               3
  5
126
 10
225.0
 20
0.0
 30
0.0
 40
50.0
 50
1.1459919999999999
 51
24.624694999999999
  0
ARC
  8
LY_3
  6
CONTINUOUS
 62
               3
  5
127
 10
261.0
 20
80.5
 30
0.0
 40
1.0
 50
179.99999099999999
 51
270.000001
  0
ARC
  8
LY_3
  6
CONTINUOUS
 62
               3
  5
128
 10
261.0
 20
95.5
 30
0.0
 40
1.0
 50
90.000003000000007
 51
180.00000499999999
  0
ARC
  8
LY_3
  6
CONTINUOUS
 62
               3
  5
129
 10
225.0
 20
0.0
 30
0.0
 40
50.0
 50
335.37530500000003
 51
358.85400800000002
  0
ARC
  8
LY_3
  6
DASHED
 62
             110
  5
12A
 10
304.0
 20
0.0
 30
0.0
 40
30.0
 50
181.91019399999999
 51
358.089787
  0
CIRCLE
  8
LY_3
  6
CONTINUOUS
 62
               3
  5
12B
 10
266.30000000000001
 20
-7.2999999999999998
 30
0.0
 40
2.0
  0
CIRCLE
  8
LY_3
  6
CONTINUOUS
 62
               3
  5
12C
 10
266.30000000000001
 20
7.2999999999999998
 30
0.0
 40
2.0
  0
CIRCLE
  8
LY_3
  6
CONTINUOUS
 62
               3
  5
12D
 10
346.0
 20
8.0
 30
0.0
 40
2.5
  0
CIRCLE
  8
LY_3
  6
CONTINUOUS
 62
               3
  5
12E
 10
346.0
 20
-8.0
 30
0.0
 40
2.5
  0
ARC
  8
LY_3
  6
CONTINUOUS
 62
               3
  5
12F
 10
304.0
 20
0.0
 30
0.0
 40
35.0
 50
1.6372450000000001
 51
103.95912
  0
ARC
  8
LY_3
  6
DASHED
 62
             110
  5
130
 10
304.0
 20
0.0
 30
0.0
 40
30.0
 50
1.9102129999999997
 51
178.08980600000001
  0
ARC
  8
LY_3
  6
CONTINUOUS
 62
               3
  5
131
 10
304.0
 20
0.0
 30
0.0
 40
35.0
 50
256.04088000000002
 51
358.36275499999999
  0
LINE
  8
LY_3
  6
CONTINUOUS
 62
             110
  5
132
 10
352.52540399999998
 20
-27.655946
 30
0.0
 11
352.746622
 21
-24.116454999999998
 31
0.0
  0
LINE
  8
LY_3
  6
CONTINUOUS
 62
             110
  5
133
 10
359.0
 20
-35.0
 30
0.0
 11
359.0
 21
-34.0
 31
0.0
  0
LINE
  8
LY_3
  6
CONTINUOUS
 62
             110
  5
134
 10
353.5
 20
-36.0
 30
0.0
 11
358.0
 21
-36.0
 31
0.0
  0
LINE
  8
LY_3
  6
CONTINUOUS
 62
             110
  5
135
 10
352.5
 20
-35.0
 30
0.0
 11
352.5
 21
-27.671341000000002
 31
0.0
  0
LINE
  8
LY_3
  6
CONTINUOUS
 62
             110
  5
136
 10
339.47459300000003
 20
-27.655946
 30
0.0
 11
339.25337500000001
 21
-24.116455999999999
 31
0.0
  0
LINE
  8
LY_3
  6
CONTINUOUS
 62
             110
  5
137
 10
339.5
 20
-35.0
 30
0.0
 11
339.5
 21
-27.671341999999999
 31
0.0
  0
LINE
  8
LY_3
  6
CONTINUOUS
 62
             110
  5
138
 10
338.5
 20
-36.0
 30
0.0
 11
334.0
 21
-36.0
 31
0.0
  0
LINE
  8
LY_3
  6
CONTINUOUS
 62
             110
  5
139
 10
333.0
 20
-35.0
 30
0.0
 11
333.0
 21
-34.0
 31
0.0
  0
LINE
  8
LY_3
  6
CONTINUOUS
 62
               3
  5
13A
 10
361.0
 20
-36.0
 30
0.0
 11
361.0
 21
-34.0
 31
0.0
  0
LINE
  8
LY_3
  6
CONTINUOUS
 62
               3
  5
13B
 10
331.0
 20
-36.0
 30
0.0
 11
331.0
 21
-34.0
 31
0.0
  0
LINE
  8
LY_3
  6
CONTINUOUS
 62
               3
  5
13C
 10
341.47069799999997
 20
-27.531189000000001
 30
0.0
 11
340.78319799999997
 21
-16.531189000000001
 31
0.0
  0
LINE
  8
LY_3
  6
CONTINUOUS
 62
               3
  5
13D
 10
350.52929899999998
 20
-27.531189000000001
 30
0.0
 11
351.21679899999998
 21
-16.531189000000001
 31
0.0
  0
LINE
  8
LY_3
  6
CONTINUOUS
 62
               3
  5
13E
 10
350.03027300000002
 20
-28.0
 30
0.0
 11
341.96972699999998
 21
-28.0
 31
0.0
  0
LINE
  8
LY_3
  6
DASHED
 62
             110
  5
13F
 10
348.0
 20
-28.0
 30
0.0
 11
348.0
 21
-16.0
 31
0.0
  0
LINE
  8
LY_3
  6
DASHED
 62
             110
  5
140
 10
344.0
 20
-28.0
 30
0.0
 11
344.0
 21
-16.0
 31
0.0
  0
LINE
  8
LY_3
  6
DASHED
 62
             110
  5
141
 10
348.5
 20
-28.0
 30
0.0
 11
348.5
 21
-16.0
 31
0.0
  0
LINE
  8
LY_3
  6
DASHED
 62
             110
  5
142
 10
343.5
 20
-28.0
 30
0.0
 11
343.5
 21
-16.0
 31
0.0
  0
LINE
  8
LY_3
  6
CONTINUOUS
 62
               3
  5
143
 10
341.5
 20
-36.0
 30
0.0
 11
341.5
 21
-29.0
 31
0.0
  0
LINE
  8
LY_3
  6
CONTINUOUS
 62
               3
  5
144
 10
339.5
 20
-38.0
 30
0.0
 11
333.0
 21
-38.0
 31
0.0
  0
LINE
  8
LY_3
  6
CONTINUOUS
 62
               3
  5
145
 10
350.5
 20
-36.0
 30
0.0
 11
350.5
 21
-29.0
 31
0.0
  0
LINE
  8
LY_3
  6
CONTINUOUS
 62
               3
  5
146
 10
359.0
 20
-38.0
 30
0.0
 11
352.5
 21
-38.0
 31
0.0
  0
LINE
  8
LY_3
  6
CONTINUOUS
 62
               3
  5
147
 10
338.0
 20
90.75
 30
0.0
 11
338.0
 21
85.25
 31
0.0
  0
LINE
  8
LY_3
  6
CONTINUOUS
 62
               3
  5
148
 10
274.98999800000001
 20
78.75
 30
0.0
 11
338.25
 21
78.75
 31
0.0
  0
LINE
  8
LY_3
  6
CONTINUOUS
 62
               3
  5
149
 10
274.98999800000001
 20
97.25
 30
0.0
 11
338.25
 21
97.25
 31
0.0
  0
LINE
  8
LY_3
  6
CONTINUOUS
 62
               3
  5
14A
 10
339.0
 20
79.5
 30
0.0
 11
351.0
 21
79.5
 31
0.0
  0
LINE
  8
LY_3
  6
CONTINUOUS
 62
               3
  5
14B
 10
339.0
 20
96.5
 30
0.0
 11
351.0
 21
96.5
 31
0.0
  0
LINE
  8
LY_3
  6
CONTINUOUS
 62
               3
  5
14C
 10
261.0
 20
79.5
 30
0.0
 11
274.25
 21
79.5
 31
0.0
  0
LINE
  8
LY_3
  6
CONTINUOUS
 62
               3
  5
14D
 10
261.0
 20
96.5
 30
0.0
 11
274.25
 21
96.5
 31
0.0
  0
LINE
  8
LY_3
  6
CONTINUOUS
 62
               3
  5
14E
 10
272.5
 20
1.0
 30
0.0
 11
272.5
 21
-1.0
 31
0.0
  0
LINE
  8
LY_3
  6
DASHED
 62
               3
  5
14F
 10
348.65000199999997
 20
-15.0
 30
0.0
 11
348.65000199999997
 21
-16.0
 31
0.0
  0
LINE
  8
LY_3
  6
DASHED
 62
               3
  5
150
 10
343.34999800000003
 20
-15.0
 30
0.0
 11
343.34999800000003
 21
-16.0
 31
0.0
  0
LINE
  8
LY_3
  6
CONTINUOUS
 62
               3
  5
151
 10
351.0
 20
-14.828427
 30
0.0
 11
351.0
 21
-16.0
 31
0.0
  0
LINE
  8
LY_3
  6
CONTINUOUS
 62
               3
  5
152
 10
341.0
 20
-15.0
 30
0.0
 11
341.0
 21
-16.0
 31
0.0
  0
LINE
  8
LY_3
  6
CONTINUOUS
 62
               3
  5
153
 10
351.0
 20
-16.0
 30
0.0
 11
341.0
 21
-16.0
 31
0.0
  0
LINE
  8
LY_3
  6
CONTINUOUS
 62
               3
  5
154
 10
351.0
 20
-15.0
 30
0.0
 11
338.64101800000003
 21
-15.0
 31
0.0
  0
LINE
  8
LY_3
  6
CONTINUOUS
 62
               3
  5
155
 10
325.21320400000002
 20
82.999998000000005
 30
0.0
 11
324.49430599999999
 21
83.750000999999997
 31
0.0
  0
LINE
  8
LY_3
  6
CONTINUOUS
 62
               3
  5
156
 10
320.617009
 20
81.549999999999997
 30
0.0
 11
319.89484800000002
 21
82.199996999999996
 31
0.0
  0
LINE
  8
LY_3
  6
CONTINUOUS
 62
               3
  5
157
 10
320.61701199999999
 20
81.550004000000001
 30
0.0
 11
325.21320400000002
 21
83.0
 31
0.0
  0
LINE
  8
LY_3
  6
CONTINUOUS
 62
               3
  5
158
 10
319.89485200000001
 20
82.199990999999997
 30
0.0
 11
324.49431099999998
 21
83.749994999999998
 31
0.0
  0
LINE
  8
LY_3
  6
CONTINUOUS
 62
               3
  5
159
 10
325.21320300000002
 20
93.000001999999995
 30
0.0
 11
324.49430799999999
 21
92.250001999999995
 31
0.0
  0
LINE
  8
LY_3
  6
CONTINUOUS
 62
               3
  5
15A
 10
320.61701199999999
 20
94.449996999999996
 30
0.0
 11
319.89485300000001
 21
93.800003000000004
 31
0.0
  0
LINE
  8
LY_3
  6
CONTINUOUS
 62
               3
  5
15B
 10
319.89485200000001
 20
93.800003000000004
 30
0.0
 11
324.49430799999999
 21
92.25
 31
0.0
  0
LINE
  8
LY_3
  6
CONTINUOUS
 62
               3
  5
15C
 10
320.61701499999998
 20
94.450000000000003
 30
0.0
 11
325.21320700000001
 21
93.000004000000004
 31
0.0
  0
LINE
  8
LY_3
  6
CONTINUOUS
 62
               3
  5
15D
 10
333.98332800000003
 20
83.0
 30
0.0
 11
327.14059200000003
 21
81.550003000000004
 31
0.0
  0
LINE
  8
LY_3
  6
CONTINUOUS
 62
               3
  5
15E
 10
327.14059400000002
 20
94.450001
 30
0.0
 11
333.98332599999998
 21
93.000005000000002
 31
0.0
  0
LINE
  8
LY_3
  6
CONTINUOUS
 62
               3
  5
15F
 10
332.5
 20
82.685676999999998
 30
0.0
 11
332.5
 21
78.75
 31
0.0
  0
LINE
  8
LY_3
  6
CONTINUOUS
 62
               3
  5
160
 10
327.14059400000002
 20
81.550003000000004
 30
0.0
 11
327.14059400000002
 21
78.75
 31
0.0
  0
LINE
  8
LY_3
  6
CONTINUOUS
 62
               3
  5
161
 10
327.14059400000002
 20
97.25
 30
0.0
 11
327.14059400000002
 21
94.449996999999996
 31
0.0
  0
LINE
  8
LY_3
  6
CONTINUOUS
 62
               3
  5
162
 10
332.5
 20
97.25
 30
0.0
 11
332.5
 21
93.314323000000002
 31
0.0
  0
LINE
  8
LY_3
  6
CONTINUOUS
 62
               3
  5
163
 10
287.382994
 20
81.550002000000006
 30
0.0
 11
288.10515400000003
 21
82.199996999999996
 31
0.0
  0
LINE
  8
LY_3
  6
CONTINUOUS
 62
               3
  5
164
 10
282.78680400000002
 20
82.999994000000001
 30
0.0
 11
283.50569899999999
 21
83.749994000000001
 31
0.0
  0
LINE
  8
LY_3
  6
CONTINUOUS
 62
               3
  5
165
 10
287.382992
 20
81.550004000000001
 30
0.0
 11
282.78679299999999
 21
83.000001999999995
 31
0.0
  0
LINE
  8
LY_3
  6
CONTINUOUS
 62
               3
  5
166
 10
288.10514899999998
 20
82.199991999999995
 30
0.0
 11
283.50569300000001
 21
83.749994999999998
 31
0.0
  0
LINE
  8
LY_3
  6
CONTINUOUS
 62
               3
  5
167
 10
282.78679699999998
 20
92.999996999999993
 30
0.0
 11
283.50568900000002
 21
92.25
 31
0.0
  0
LINE
  8
LY_3
  6
CONTINUOUS
 62
               3
  5
168
 10
287.382992
 20
94.449991999999995
 30
0.0
 11
288.105142
 21
93.800004999999999
 31
0.0
  0
LINE
  8
LY_3
  6
CONTINUOUS
 62
               3
  5
169
 10
287.38298600000002
 20
94.449995000000001
 30
0.0
 11
282.78679399999999
 21
92.999999000000003
 31
0.0
  0
LINE
  8
LY_3
  6
CONTINUOUS
 62
               3
  5
16A
 10
288.10515400000003
 20
93.799999999999997
 30
0.0
 11
283.505695
 21
92.249995999999996
 31
0.0
  0
LINE
  8
LY_3
  6
CONTINUOUS
 62
               3
  5
16B
 10
283.50569200000001
 20
83.75
 30
0.0
 11
324.49430799999999
 21
83.75
 31
0.0
  0
LINE
  8
LY_3
  6
CONTINUOUS
 62
               3
  5
16C
 10
283.50569200000001
 20
92.25
 30
0.0
 11
324.49430799999999
 21
92.25
 31
0.0
  0
LINE
  8
LY_3
  6
DASHED
 62
             110
  5
16D
 10
338.0
 20
-13.305571
 30
0.0
 11
338.0
 21
-1.0
 31
0.0
  0
LINE
  8
LY_3
  6
DASHED
 62
             110
  5
16E
 10
268.56041299999998
 20
-18.439568000000001
 30
0.0
 11
276.064187
 21
-10.935795000000001
 31
0.0
  0
LINE
  8
LY_3
  6
DASHED
 62
             110
  5
16F
 10
320.97056400000002
 20
-16.970565000000001
 30
0.0
 11
325.21320500000002
 21
-21.213206
 31
0.0
  0
LINE
  8
LY_3
  6
DASHED
 62
             110
  5
170
 10
320.24871899999999
 20
-17.662932999999999
 30
0.0
 11
324.50609800000001
 21
-21.920311999999999
 31
0.0
  0
LINE
  8
LY_3
  6
DASHED
 62
             110
  5
171
 10
287.751284
 20
-17.662928000000001
 30
0.0
 11
283.4939
 21
-21.920311999999999
 31
0.0
  0
LINE
  8
LY_3
  6
DASHED
 62
             110
  5
172
 10
287.02943900000002
 20
-16.970559999999999
 30
0.0
 11
282.78679299999999
 21
-21.213206
 31
0.0
  0
LINE
  8
LY_3
  6
CONTINUOUS
 62
               3
  5
173
 10
280.85940799999997
 20
81.549995999999993
 30
0.0
 11
274.01667600000002
 21
82.999993000000003
 31
0.0
  0
LINE
  8
LY_3
  6
CONTINUOUS
 62
               3
  5
174
 10
280.85940499999998
 20
94.449991999999995
 30
0.0
 11
274.01667300000003
 21
92.999995999999996
 31
0.0
  0
LINE
  8
LY_3
  6
CONTINUOUS
 62
               3
  5
175
 10
275.50000799999998
 20
82.685676999999998
 30
0.0
 11
275.50000799999998
 21
78.75
 31
0.0
  0
LINE
  8
LY_3
  6
CONTINUOUS
 62
               3
  5
176
 10
280.85940599999998
 20
81.550003000000004
 30
0.0
 11
280.85940599999998
 21
78.75
 31
0.0
  0
LINE
  8
LY_3
  6
CONTINUOUS
 62
               3
  5
177
 10
280.85940599999998
 20
97.25
 30
0.0
 11
280.85940599999998
 21
94.449996999999996
 31
0.0
  0
LINE
  8
LY_3
  6
CONTINUOUS
 62
               3
  5
178
 10
275.50000799999998
 20
97.25
 30
0.0
 11
275.50000799999998
 21
93.314323000000002
 31
0.0
  0
LINE
  8
LY_3
  6
CONTINUOUS
 62
               3
  5
179
 10
325.21320300000002
 20
83.0
 30
0.0
 11
333.98333000000002
 21
83.0
 31
0.0
  0
LINE
  8
LY_3
  6
CONTINUOUS
 62
               3
  5
17A
 10
325.21320300000002
 20
93.0
 30
0.0
 11
333.98333000000002
 21
93.0
 31
0.0
  0
LINE
  8
LY_3
  6
CONTINUOUS
 62
               3
  5
17B
 10
274.01666999999998
 20
83.0
 30
0.0
 11
282.78679699999998
 21
83.0
 31
0.0
  0
LINE
  8
LY_3
  6
CONTINUOUS
 62
               3
  5
17C
 10
274.01666999999998
 20
93.0
 30
0.0
 11
282.78679699999998
 21
93.0
 31
0.0
  0
LINE
  8
LY_3
  6
CONTINUOUS
 62
               3
  5
17D
 10
327.70203099999998
 20
-3.7701099999999999
 30
0.0
 11
332.500001
 21
-1.0000009999999999
 31
0.0
  0
LINE
  8
LY_3
  6
CONTINUOUS
 62
               3
  5
17E
 10
275.50000199999999
 20
-0.999996
 30
0.0
 11
280.29796900000002
 21
-3.7701030000000002
 31
0.0
  0
LINE
  8
LY_3
  6
CONTINUOUS
 62
               3
  5
17F
 10
327.70203099999998
 20
3.7701099999999999
 30
0.0
 11
332.500001
 21
1.0
 31
0.0
  0
LINE
  8
LY_3
  6
CONTINUOUS
 62
               3
  5
180
 10
275.5
 20
0.999999
 30
0.0
 11
280.29796699999997
 21
3.7701060000000002
 31
0.0
  0
LINE
  8
LY_3
  6
DASHED
 62
             110
  5
181
 10
287.02943599999998
 20
16.970562999999999
 30
0.0
 11
282.78679599999998
 21
21.213203
 31
0.0
  0
LINE
  8
LY_3
  6
DASHED
 62
             110
  5
182
 10
287.751282
 20
17.662931
 30
0.0
 11
283.50569000000002
 21
21.908522000000001
 31
0.0
  0
LINE
  8
LY_3
  6
DASHED
 62
             110
  5
183
 10
320.248717
 20
17.662932000000001
 30
0.0
 11
324.49430699999999
 21
21.908522000000001
 31
0.0
  0
LINE
  8
LY_3
  6
DASHED
 62
             110
  5
184
 10
320.97056299999997
 20
16.970564
 30
0.0
 11
325.21320300000002
 21
21.213204999999999
 31
0.0
  0
LINE
  8
LY_3
  6
CENTER
 62
             110
  5
185
 10
342.0
 20
8.0
 30
0.0
 11
350.0
 21
8.0
 31
0.0
  0
LINE
  8
LY_3
  6
CENTER
 62
             110
  5
186
 10
346.0
 20
11.276213
 30
0.0
 11
346.0
 21
-37.0
 31
0.0
  0
LINE
  8
LY_3
  6
CONTINUOUS
 62
               3
  5
187
 10
353.0
 20
13.0
 30
0.0
 11
353.0
 21
3.0
 31
0.0
  0
LINE
  8
LY_3
  6
CONTINUOUS
 62
               3
  5
188
 10
338.64101800000003
 20
15.0
 30
0.0
 11
351.0
 21
15.0
 31
0.0
  0
LINE
  8
LY_3
  6
DASHED
 62
             110
  5
189
 10
338.0
 20
15.0
 30
0.0
 11
338.0
 21
1.0
 31
0.0
  0
LINE
  8
LY_3
  6
CONTINUOUS
 62
               3
  5
18A
 10
332.5
 20
1.0
 30
0.0
 11
351.0
 21
1.0
 31
0.0
  0
LINE
  8
LY_3
  6
DASHED
 62
             110
  5
18B
 10
268.56041099999999
 20
18.439565000000002
 30
0.0
 11
276.06418500000001
 21
10.935791
 31
0.0
  0
LINE
  8
LY_3
  6
CENTER
 62
             110
  5
18C
 10
266.30000000000001
 20
10.0
 30
0.0
 11
266.30000000000001
 21
-12.0
 31
0.0
  0
LINE
  8
LY_3
  6
CENTER
 62
             110
  5
18D
 10
262.30000000000001
 20
7.2999999999999998
 30
0.0
 11
270.30000000000001
 21
7.2999999999999998
 31
0.0
  0
LINE
  8
LY_3
  6
CONTINUOUS
 62
               3
  5
18E
 10
266.0
 20
1.0
 30
0.0
 11
275.5
 21
1.0
 31
0.0
  0
LINE
  8
LY_3
  6
CENTER
 62
             110
  5
18F
 10
245.661473
 20
0.0
 30
0.0
 11
361.35768000000002
 21
0.0
 31
0.0
  0
LINE
  8
LY_3
  6
CENTER
 62
             110
  5
190
 10
304.0
 20
40.0
 30
0.0
 11
304.0
 21
-40.0
 31
0.0
  0
LINE
  8
LY_3
  6
CONTINUOUS
 62
               3
  5
191
 10
369.0
 20
0.0
 30
0.0
 11
379.0
 21
0.0
 31
0.0
  0
LINE
  8
LY_3
  6
CENTER
 62
             110
  5
192
 10
258.5
 20
88.0
 30
0.0
 11
359.0
 21
88.0
 31
0.0
  0
LINE
  8
LY_3
  6
CONTINUOUS
 62
               3
  5
193
 10
333.98333000000002
 20
83.0
 30
0.0
 11
333.98333000000002
 21
88.0
 31
0.0
  0
LINE
  8
LY_3
  6
CONTINUOUS
 62
               3
  5
194
 10
320.61701199999999
 20
81.550003000000004
 30
0.0
 11
326.981335
 21
81.550003000000004
 31
0.0
  0
LINE
  8
LY_3
  6
CONTINUOUS
 62
               3
  5
195
 10
288.10514799999999
 20
82.199996999999996
 30
0.0
 11
319.89485200000001
 21
82.199996999999996
 31
0.0
  0
LINE
  8
LY_3
  6
CONTINUOUS
 62
               3
  5
196
 10
287.38298800000001
 20
81.550003000000004
 30
0.0
 11
280.85940599999998
 21
81.550003000000004
 31
0.0
  0
LINE
  8
LY_3
  6
CONTINUOUS
 62
               3
  5
197
 10
274.01666999999998
 20
83.0
 30
0.0
 11
274.01666999999998
 21
86.25
 31
0.0
  0
LINE
  8
LY_3
  6
CONTINUOUS
 62
               3
  5
198
 10
287.38298800000001
 20
94.449996999999996
 30
0.0
 11
280.85940599999998
 21
94.449996999999996
 31
0.0
  0
LINE
  8
LY_3
  6
CONTINUOUS
 62
               3
  5
199
 10
274.01666999999998
 20
93.0
 30
0.0
 11
274.01666999999998
 21
89.75
 31
0.0
  0
LINE
  8
LY_3
  6
CONTINUOUS
 62
               3
  5
19A
 10
288.10514799999999
 20
93.800003000000004
 30
0.0
 11
319.89485200000001
 21
93.800003000000004
 31
0.0
  0
LINE
  8
LY_3
  6
CONTINUOUS
 62
               3
  5
19B
 10
320.61701199999999
 20
94.449996999999996
 30
0.0
 11
326.981335
 21
94.449996999999996
 31
0.0
  0
LINE
  8
LY_3
  6
CONTINUOUS
 62
               3
  5
19C
 10
333.98333000000002
 20
93.0
 30
0.0
 11
333.98333000000002
 21
88.0
 31
0.0
  0
LINE
  8
LY_3
  6
DASHED
 62
             110
  5
19D
 10
348.5
 20
85.25
 30
0.0
 11
348.5
 21
79.5
 31
0.0
  0
LINE
  8
LY_3
  6
DASHED
 62
             110
  5
19E
 10
343.5
 20
85.25
 30
0.0
 11
343.5
 21
79.5
 31
0.0
  0
LINE
  8
LY_3
  6
DASHED
 62
             110
  5
19F
 10
264.30000000000001
 20
86.25
 30
0.0
 11
264.30000000000001
 21
79.5
 31
0.0
  0
LINE
  8
LY_3
  6
DASHED
 62
             110
  5
1A0
 10
268.30000000000001
 20
86.25
 30
0.0
 11
268.30000000000001
 21
79.5
 31
0.0
  0
LINE
  8
LY_3
  6
DASHED
 62
             110
  5
1A1
 10
264.30000000000001
 20
96.5
 30
0.0
 11
264.30000000000001
 21
89.75
 31
0.0
  0
LINE
  8
LY_3
  6
DASHED
 62
             110
  5
1A2
 10
268.30000000000001
 20
96.5
 30
0.0
 11
268.30000000000001
 21
89.75
 31
0.0
  0
LINE
  8
LY_3
  6
DASHED
 62
             110
  5
1A3
 10
348.5
 20
96.5
 30
0.0
 11
348.5
 21
90.75
 31
0.0
  0
LINE
  8
LY_3
  6
DASHED
 62
             110
  5
1A4
 10
343.5
 20
96.5
 30
0.0
 11
343.5
 21
90.75
 31
0.0
  0
LINE
  8
LY_3
  6
CENTER
 62
             110
  5
1A5
 10
346.0
 20
100.0
 30
0.0
 11
346.0
 21
76.0
 31
0.0
  0
LINE
  8
LY_3
  6
CENTER
 62
             110
  5
1A6
 10
266.30000000000001
 20
100.0
 30
0.0
 11
266.30000000000001
 21
76.0
 31
0.0
  0
LINE
  8
LY_3
  6
CONTINUOUS
 62
               3
  5
1A7
 10
260.0
 20
86.25
 30
0.0
 11
260.0
 21
80.5
 31
0.0
  0
LINE
  8
LY_3
  6
CONTINUOUS
 62
               3
  5
1A8
 10
260.0
 20
89.75
 30
0.0
 11
276.06420100000003
 21
89.75
 31
0.0
  0
LINE
  8
LY_3
  6
CONTINUOUS
 62
               3
  5
1A9
 10
260.0
 20
86.25
 30
0.0
 11
276.06420100000003
 21
86.25
 31
0.0
  0
LINE
  8
LY_3
  6
CONTINUOUS
 62
               3
  5
1AA
 10
276.06420100000003
 20
89.75
 30
0.0
 11
276.06420100000003
 21
86.25
 31
0.0
  0
LINE
  8
LY_3
  6
CONTINUOUS
 62
               3
  5
1AB
 10
353.0
 20
85.25
 30
0.0
 11
353.0
 21
81.5
 31
0.0
  0
LINE
  8
LY_3
  6
CONTINUOUS
 62
               3
  5
1AC
 10
338.0
 20
90.75
 30
0.0
 11
353.0
 21
90.75
 31
0.0
  0
LINE
  8
LY_3
  6
CONTINUOUS
 62
               3
  5
1AD
 10
338.0
 20
85.25
 30
0.0
 11
353.0
 21
85.25
 31
0.0
  0
LINE
  8
LY_3
  6
CONTINUOUS
 62
               3
  5
1AE
 10
353.0
 20
94.5
 30
0.0
 11
353.0
 21
90.75
 31
0.0
  0
LINE
  8
LY_3
  6
CONTINUOUS
 62
               3
  5
1AF
 10
260.0
 20
95.5
 30
0.0
 11
260.0
 21
89.75
 31
0.0
  0
LINE
  8
LY_3
  6
CONTINUOUS
 62
               3
  5
1B0
 10
227.0
 20
0.0
 30
0.0
 11
237.0
 21
0.0
 31
0.0
  0
LINE
  8
LY_3
  6
CONTINUOUS
 62
               3
  5
1B1
 10
348.0
 20
-28.0
 30
0.0
 11
348.0
 21
-37.0
 31
0.0
  0
LINE
  8
LY_3
  6
CONTINUOUS
 62
               3
  5
1B2
 10
348.5
 20
-28.0
 30
0.0
 11
348.5
 21
-36.5
 31
0.0
  0
LINE
  8
LY_3
  6
CONTINUOUS
 62
               3
  5
1B3
 10
348.00000599999998
 20
-37.000005000000002
 30
0.0
 11
348.50000399999999
 21
-36.500008000000001
 31
0.0
  0
LINE
  8
LY_3
  6
CONTINUOUS
 62
               3
  5
1B4
 10
343.5
 20
-28.0
 30
0.0
 11
343.5
 21
-36.5
 31
0.0
  0
LINE
  8
LY_3
  6
CONTINUOUS
 62
               3
  5
1B5
 10
344.0
 20
-28.0
 30
0.0
 11
344.0
 21
-37.0
 31
0.0
  0
LINE
  8
LY_3
  6
CONTINUOUS
 62
               3
  5
1B6
 10
343.5
 20
-36.5
 30
0.0
 11
348.5
 21
-36.5
 31
0.0
  0
LINE
  8
LY_3
  6
CONTINUOUS
 62
               3
  5
1B7
 10
343.500044
 20
-36.499949999999998
 30
0.0
 11
344.00003800000002
 21
-36.999946000000001
 31
0.0
  0
LINE
  8
LY_3
  6
CONTINUOUS
 62
               3
  5
1B8
 10
344.0
 20
-37.0
 30
0.0
 11
348.0
 21
-37.0
 31
0.0
  0
LINE
  8
LY_3
  6
CONTINUOUS
 62
               3
  5
1B9
 10
272.5
 20
89.75
 30
0.0
 11
272.5
 21
86.25
 31
0.0
  0
LINE
  8
LY_3
  6
CONTINUOUS
 62
               3
  5
1BA
 10
262.5
 20
2.1266020000000001
 30
0.0
 11
262.5
 21
-2.1266029999999998
 31
0.0
  0
LINE
  8
LY_3
  6
CONTINUOUS
 62
               3
  5
1BB
 10
348.5
 20
1.0
 30
0.0
 11
348.5
 21
-1.0
 31
0.0
  0
LINE
  8
LY_3
  6
CONTINUOUS
 62
               3
  5
1BC
 10
343.5
 20
1.0
 30
0.0
 11
343.5
 21
-1.0
 31
0.0
  0
LINE
  8
LY_3
  6
CENTER
 62
             110
  5
1BD
 10
342.0
 20
-8.0
 30
0.0
 11
350.0
 21
-8.0
 31
0.0
  0
LINE
  8
LY_3
  6
CONTINUOUS
 62
               3
  5
1BE
 10
353.0
 20
-13.0
 30
0.0
 11
353.0
 21
-3.0
 31
0.0
  0
LINE
  8
LY_3
  6
CONTINUOUS
 62
               3
  5
1BF
 10
332.5
 20
-1.0
 30
0.0
 11
351.0
 21
-1.0
 31
0.0
  0
LINE
  8
LY_3
  6
CENTER
 62
             110
  5
1C0
 10
262.30000000000001
 20
-7.2999999999999998
 30
0.0
 11
270.30000000000001
 21
-7.2999999999999998
 31
0.0
  0
LINE
  8
LY_3
  6
CONTINUOUS
 62
               3
  5
1C1
 10
266.0
 20
-1.0
 30
0.0
 11
275.5
 21
-1.0
 31
0.0
  0
LINE
  8
LY_3
  6
CENTER
 62
             110
  5
1C2
 10
304.0
 20
100.0
 30
0.0
 11
304.0
 21
76.0
 31
0.0
  0
TEXT
  8
LY_3
  6
CONTINUOUS
 62
             110
  5
1C3
 10
119.03048621991502
 20
-68.0
 30
0.0
 40
8.0
  1
VP1025N
 41
0.9599999860437907
  7
MX_NOTE_STANDARD
 11
119.03048621991502
 21
-60.0
 31
0.0
 73
               3
  0
TEXT
  8
LY_3
  6
CONTINUOUS
 62
             110
  5
1C4
 10
-54.894581845807899
 20
-68.0
 30
0.0
 40
8.0
  1
VP1010N/VP1016N
 41
1.016999935407237
  7
MX_NOTE_STANDARD
 11
-54.894581845807899
 21
-60.0
 31
0.0
 73
               3
  0
CIRCLE
  8
LY_3
  6
CONTINUOUS
 62
               3
  5
1C5
 10
176.0
 20
7.0
 30
0.0
 40
2.2000000000000002
  0
CIRCLE
  8
LY_3
  6
CONTINUOUS
 62
               3
  5
1C6
 10
115.80000000000001
 20
-7.2999999999999998
 30
0.0
 40
1.7
  0
CIRCLE
  8
LY_3
  6
CONTINUOUS
 62
               3
  5
1C7
 10
115.80000000000001
 20
7.2999999999999998
 30
0.0
 40
1.7
  0
POLYLINE
  8
LY_3
  6
CONTINUOUS
 62
             110
  5
1C8
 66
               1
 10
0.0
 20
0.0
 30
0.0
  0
VERTEX
  8
LY_3
  6
CONTINUOUS
 62
             110
  5
36B
 10
200.0
 20
0.0
 30
0.0
  0
VERTEX
  8
LY_3
  6
CONTINUOUS
 62
             110
  5
36C
 10
200.0
 20
10.0
 30
0.0
  0
SEQEND
  8
LY_3
  6
CONTINUOUS
 62
             110
  5
36D
  0
INSERT
  8
LY_3
  6
CONTINUOUS
 62
             110
  5
1C9
  2
_OPEN30
 10
200.0
 20
0.0
 30
0.0
 41
2.77
 42
2.77
 50
270.0
 43
2.77
  0
POLYLINE
  8
LY_3
  6
CONTINUOUS
 62
             110
  5
1CA
 66
               1
 10
0.0
 20
0.0
 30
0.0
  0
VERTEX
  8
LY_3
  6
CONTINUOUS
 62
             110
  5
36E
 10
88.0
 20
0.0
 30
0.0
  0
VERTEX
  8
LY_3
  6
CONTINUOUS
 62
             110
  5
36F
 10
88.0
 20
10.0
 30
0.0
  0
SEQEND
  8
LY_3
  6
CONTINUOUS
 62
             110
  5
370
  0
INSERT
  8
LY_3
  6
CONTINUOUS
 62
             110
  5
1CB
  2
_OPEN30
 10
88.0
 20
0.0
 30
0.0
 41
2.77
 42
2.77
 50
270.0
 43
2.77
  0
TEXT
  8
LY_3
  6
CONTINUOUS
 62
             110
  5
1CC
 10
202.59999990463257
 20
2.5999999046325684
 30
0.0
 40
4.8000001907348633
  1
A
  7
MX_NOTE_STANDARD
 72
               1
 11
205.0
 21
5.0
 31
0.0
 73
               2
  0
TEXT
  8
LY_3
  6
CONTINUOUS
 62
             110
  5
1CD
 10
80.599999904632568
 20
2.5999999046325684
 30
0.0
 40
4.8000001907348633
  1
A
  7
MX_NOTE_STANDARD
 72
               1
 11
83.0
 21
5.0
 31
0.0
 73
               2
  0
TEXT
  8
LY_3
  6
CONTINUOUS
 62
             110
  5
1CE
 10
135.40383911132812
 20
58.099999904632568
 30
0.0
 40
4.8000001907348633
  1
Ａ－Ａ視
 41
0.833333300219643
  7
MX_NOTE_STANDARD
 72
               1
 11
145.0
 21
60.5
 31
0.0
 73
               2
  0
ARC
  8
LY_3
  6
CONTINUOUS
 62
               3
  5
1CF
 10
172.5
 20
-27.0
 30
0.0
 40
1.0
 50
89.999999000000003
 51
179.99999500000001
  0
ARC
  8
LY_3
  6
CONTINUOUS
 62
               3
  5
1D0
 10
179.5
 20
-27.0
 30
0.0
 40
1.0
 50
359.99999000000003
 51
89.999999000000017
  0
ARC
  8
LY_3
  6
CONTINUOUS
 62
             110
  5
1D1
 10
183.74467799999999
 20
-22.178833000000001
 30
0.0
 40
1.0
 50
41.719824000000003
 51
176.42366699999999
  0
ARC
  8
LY_3
  6
CONTINUOUS
 62
             110
  5
1D2
 10
171.05574000000001
 20
-33.492139000000002
 30
0.0
 40
18.0
 50
4.2786390000000001
 51
41.719824000000003
  0
ARC
  8
LY_3
  6
CONTINUOUS
 62
             110
  5
1D3
 10
188.0
 20
-33.0
 30
0.0
 40
1.0
 50
270.00000399999999
 51
0.0000049999999943
  0
ARC
  8
LY_3
  6
CONTINUOUS
 62
             110
  5
1D4
 10
183.5
 20
-33.0
 30
0.0
 40
1.0
 50
179.99999500000001
 51
270.00000399999999
  0
ARC
  8
LY_3
  6
CONTINUOUS
 62
             110
  5
1D5
 10
168.5
 20
-33.0
 30
0.0
 40
1.0
 50
270.00000399999999
 51
0.0000049999999943
  0
ARC
  8
LY_3
  6
CONTINUOUS
 62
             110
  5
1D6
 10
164.0
 20
-33.0
 30
0.0
 40
1.0
 50
179.99999500000001
 51
270.00000399999999
  0
ARC
  8
LY_3
  6
CONTINUOUS
 62
             110
  5
1D7
 10
168.255325
 20
-22.178833000000001
 30
0.0
 40
1.0
 50
3.5763319999999998
 51
138.28018900000001
  0
ARC
  8
LY_3
  6
CONTINUOUS
 62
             110
  5
1D8
 10
180.94425999999999
 20
-33.492139000000002
 30
0.0
 40
18.0
 50
138.28018900000001
 51
175.72136000000003
  0
ARC
  8
LY_3
  6
CONTINUOUS
 62
               3
  5
1D9
 10
171.05574000000001
 20
-33.492139000000002
 30
0.0
 40
20.0
 50
4.2786390000000001
 51
59.812966999999993
  0
ARC
  8
LY_3
  6
CONTINUOUS
 62
               3
  5
1DA
 10
180.94425999999999
 20
-33.492139000000002
 30
0.0
 40
20.0
 50
120.18703099999999
 51
175.72136000000003
  0
ARC
  8
LY_3
  6
CONTINUOUS
 62
               3
  5
1DB
 10
171.96972700000001
 20
-25.5
 30
0.0
 40
0.5
 50
183.576337
 51
270.00000399999999
  0
ARC
  8
LY_3
  6
CONTINUOUS
 62
               3
  5
1DC
 10
171.28222700000001
 20
-14.5
 30
0.0
 40
0.5
 50
89.999999000000003
 51
183.576337
  0
ARC
  8
LY_3
  6
CONTINUOUS
 62
               3
  5
1DD
 10
180.71777299999999
 20
-14.5
 30
0.0
 40
0.5
 50
356.42366299999998
 51
90.000003000000035
  0
ARC
  8
LY_3
  6
CONTINUOUS
 62
               3
  5
1DE
 10
180.03027299999999
 20
-25.5
 30
0.0
 40
0.5
 50
270.00000399999999
 51
356.42366299999998
  0
ARC
  8
LY_3
  6
CONTINUOUS
 62
               3
  5
1DF
 10
182.5
 20
-34.0
 30
0.0
 40
2.0
 50
179.99999500000001
 51
270.00000399999999
  0
ARC
  8
LY_3
  6
CONTINUOUS
 62
               3
  5
1E0
 10
169.5
 20
-34.0
 30
0.0
 40
2.0
 50
270.00000399999999
 51
0.0000049999999943
  0
ARC
  8
LY_3
  6
CONTINUOUS
 62
               3
  5
1E1
 10
189.0
 20
-34.0
 30
0.0
 40
2.0
 50
270.00000399999999
 51
0.0000049999999943
  0
ARC
  8
LY_3
  6
CONTINUOUS
 62
               3
  5
1E2
 10
163.0
 20
-34.0
 30
0.0
 40
2.0
 50
184.96450400000001
 51
270.00000399999999
  0
ARC
  8
LY_3
  6
CONTINUOUS
 62
               3
  5
1E3
 10
121.25
 20
88.25
 30
0.0
 40
0.75
 50
269.99999700000001
 51
0.0
  0
ARC
  8
LY_3
  6
CONTINUOUS
 62
               3
  5
1E4
 10
121.25
 20
71.75
 30
0.0
 40
0.75
 50
0.0
 51
90.000003000000007
  0
ARC
  8
LY_3
  6
CONTINUOUS
 62
               3
  5
1E5
 10
170.75
 20
87.5
 30
0.0
 40
0.75
 50
0.0
 51
90.000003000000007
  0
ARC
  8
LY_3
  6
CONTINUOUS
 62
               3
  5
1E6
 10
170.75
 20
72.5
 30
0.0
 40
0.75
 50
269.99999700000001
 51
0.0
  0
ARC
  8
LY_3
  6
CONTINUOUS
 62
               3
  5
1E7
 10
181.0
 20
74.5
 30
0.0
 40
2.0
 50
269.99999700000001
 51
0.0
  0
ARC
  8
LY_3
  6
CONTINUOUS
 62
               3
  5
1E8
 10
181.0
 20
85.5
 30
0.0
 40
2.0
 50
0.0
 51
90.000003000000007
  0
ARC
  8
LY_3
  6
DASHED
 62
             110
  5
1E9
 10
144.0
 20
0.0
 30
0.0
 40
22.5
 50
182.605234
 51
357.39474899999999
  0
ARC
  8
LY_3
  6
DASHED
 62
             110
  5
1EA
 10
144.0
 20
0.0
 30
0.0
 40
22.5
 50
2.605251
 51
177.394766
  0
ARC
  8
LY_3
  6
CONTINUOUS
 62
               3
  5
1EB
 10
144.0
 20
0.0
 30
0.0
 40
16.5
 50
194.74892800000001
 51
345.25106399999999
  0
ARC
  8
LY_3
  6
CONTINUOUS
 62
               3
  5
1EC
 10
144.0
 20
0.0
 30
0.0
 40
16.5
 50
14.748935999999999
 51
165.25107199999999
  0
ARC
  8
LY_3
  6
CONTINUOUS
 62
               3
  5
1ED
 10
145.849998
 20
-17.5
 30
0.0
 40
45.0
 50
100.746977
 51
140.760527
  0
ARC
  8
LY_3
  6
CONTINUOUS
 62
               3
  5
1EE
 10
180.0
 20
-10.0
 30
0.0
 40
3.0
 50
269.99999700000001
 51
0.0
  0
ARC
  8
LY_3
  6
CONTINUOUS
 62
               3
  5
1EF
 10
180.0
 20
-4.0
 30
0.0
 40
3.0
 50
0.0
 51
90.000003000000007
  0
ARC
  8
LY_3
  6
CONTINUOUS
 62
               3
  5
1F0
 10
180.0
 20
4.0
 30
0.0
 40
3.0
 50
269.99999700000001
 51
0.0
  0
ARC
  8
LY_3
  6
CONTINUOUS
 62
               3
  5
1F1
 10
180.0
 20
10.0
 30
0.0
 40
3.0
 50
0.0
 51
90.000003000000007
  0
ARC
  8
LY_3
  6
CONTINUOUS
 62
               3
  5
1F2
 10
110.5
 20
73.5
 30
0.0
 40
1.0
 50
179.99999099999999
 51
270.000001
  0
ARC
  8
LY_3
  6
CONTINUOUS
 62
               3
  5
1F3
 10
110.5
 20
86.5
 30
0.0
 40
1.0
 50
90.000003000000007
 51
180.00000499999999
  0
ARC
  8
LY_3
  6
CONTINUOUS
 62
               3
  5
1F4
 10
87.0
 20
0.0
 30
0.0
 40
35.0
 50
1.6372450000000001
 51
29.733538000000003
  0
ARC
  8
LY_3
  6
CONTINUOUS
 62
               3
  5
1F5
 10
87.0
 20
0.0
 30
0.0
 40
35.0
 50
330.26646200000005
 51
358.36275499999999
  0
ARC
  8
LY_3
  6
CONTINUOUS
 62
               3
  5
1F6
 10
145.849998
 20
17.5
 30
0.0
 40
45.0
 50
218.58484000000001
 51
259.25302299999998
  0
CIRCLE
  8
LY_3
  6
CONTINUOUS
 62
               3
  5
1F7
 10
176.0
 20
7.0
 30
0.0
 40
2.5
  0
CIRCLE
  8
LY_3
  6
CONTINUOUS
 62
               3
  5
1F8
 10
115.80000000000001
 20
-7.2999999999999998
 30
0.0
 40
2.0
  0
CIRCLE
  8
LY_3
  6
CONTINUOUS
 62
               3
  5
1F9
 10
115.80000000000001
 20
7.2999999999999998
 30
0.0
 40
2.0
  0
CIRCLE
  8
LY_3
  6
CONTINUOUS
 62
               3
  5
1FA
 10
176.0
 20
-7.0
 30
0.0
 40
2.5
  0
ARC
  8
LY_3
  6
CONTINUOUS
 62
               3
  5
1FB
 10
171.06012000000001
 20
-18.0
 30
0.0
 40
5.0
 50
90.000003000000007
 51
146.36872700000001
  0
ARC
  8
LY_3
  6
CONTINUOUS
 62
               3
  5
1FC
 10
171.06012000000001
 20
18.0
 30
0.0
 40
5.0
 50
213.631259
 51
269.99999700000001
  0
ARC
  8
LY_3
  6
CONTINUOUS
 62
               3
  5
1FD
 10
144.0
 20
0.0
 30
0.0
 40
27.5
 50
2.083942
 51
103.76047699999999
  0
ARC
  8
LY_3
  6
CONTINUOUS
 62
               3
  5
1FE
 10
115.5
 20
7.0
 30
0.0
 40
6.0
 50
138.63224
 51
270.000001
  0
ARC
  8
LY_3
  6
CONTINUOUS
 62
               3
  5
1FF
 10
115.5
 20
-7.0
 30
0.0
 40
6.0
 50
89.999927
 51
221.36775600000001
  0
ARC
  8
LY_3
  6
CONTINUOUS
 62
               3
  5
200
 10
144.0
 20
0.0
 30
0.0
 40
27.5
 50
256.23952300000002
 51
357.91605800000002
  0
LINE
  8
LY_3
  6
CONTINUOUS
 62
               3
  5
201
 10
178.5
 20
-26.0
 30
0.0
 11
178.5
 21
-37.5
 31
0.0
  0
LINE
  8
LY_3
  6
CONTINUOUS
 62
             110
  5
202
 10
182.525407
 20
-25.655946
 30
0.0
 11
182.74662499999999
 21
-22.116454999999998
 31
0.0
  0
LINE
  8
LY_3
  6
CONTINUOUS
 62
             110
  5
203
 10
189.0
 20
-33.0
 30
0.0
 11
189.0
 21
-32.0
 31
0.0
  0
LINE
  8
LY_3
  6
CONTINUOUS
 62
             110
  5
204
 10
183.5
 20
-34.0
 30
0.0
 11
188.0
 21
-34.0
 31
0.0
  0
LINE
  8
LY_3
  6
CONTINUOUS
 62
             110
  5
205
 10
182.5
 20
-33.0
 30
0.0
 11
182.5
 21
-25.671341000000002
 31
0.0
  0
LINE
  8
LY_3
  6
CONTINUOUS
 62
             110
  5
206
 10
169.474593
 20
-25.655946
 30
0.0
 11
169.25337500000001
 21
-22.116454999999998
 31
0.0
  0
LINE
  8
LY_3
  6
CONTINUOUS
 62
             110
  5
207
 10
169.5
 20
-33.0
 30
0.0
 11
169.5
 21
-25.671341000000002
 31
0.0
  0
LINE
  8
LY_3
  6
CONTINUOUS
 62
             110
  5
208
 10
168.5
 20
-34.0
 30
0.0
 11
164.0
 21
-34.0
 31
0.0
  0
LINE
  8
LY_3
  6
CONTINUOUS
 62
             110
  5
209
 10
163.0
 20
-33.0
 30
0.0
 11
163.0
 21
-32.0
 31
0.0
  0
LINE
  8
LY_3
  6
CONTINUOUS
 62
               3
  5
20A
 10
191.0
 20
-34.0
 30
0.0
 11
191.0
 21
-32.0
 31
0.0
  0
LINE
  8
LY_3
  6
CONTINUOUS
 62
               3
  5
20B
 10
161.0
 20
-34.0
 30
0.0
 11
161.0
 21
-32.0
 31
0.0
  0
LINE
  8
LY_3
  6
CONTINUOUS
 62
               3
  5
20C
 10
171.470699
 20
-25.531189000000001
 30
0.0
 11
170.783199
 21
-14.531188999999999
 31
0.0
  0
LINE
  8
LY_3
  6
CONTINUOUS
 62
               3
  5
20D
 10
180.529302
 20
-25.531189000000001
 30
0.0
 11
181.216802
 21
-14.531188999999999
 31
0.0
  0
LINE
  8
LY_3
  6
CONTINUOUS
 62
               3
  5
20E
 10
180.03027299999999
 20
-26.0
 30
0.0
 11
171.96972700000001
 21
-26.0
 31
0.0
  0
LINE
  8
LY_3
  6
DASHED
 62
             110
  5
20F
 10
178.0
 20
-26.0
 30
0.0
 11
178.0
 21
-14.0
 31
0.0
  0
LINE
  8
LY_3
  6
DASHED
 62
             110
  5
210
 10
174.0
 20
-26.0
 30
0.0
 11
174.0
 21
-14.0
 31
0.0
  0
LINE
  8
LY_3
  6
DASHED
 62
             110
  5
211
 10
178.5
 20
-26.0
 30
0.0
 11
178.5
 21
-14.0
 31
0.0
  0
LINE
  8
LY_3
  6
DASHED
 62
             110
  5
212
 10
173.5
 20
-26.0
 30
0.0
 11
173.5
 21
-14.0
 31
0.0
  0
LINE
  8
LY_3
  6
CONTINUOUS
 62
               3
  5
213
 10
171.5
 20
-34.0
 30
0.0
 11
171.5
 21
-27.0
 31
0.0
  0
LINE
  8
LY_3
  6
CONTINUOUS
 62
               3
  5
214
 10
169.5
 20
-36.0
 30
0.0
 11
163.0
 21
-36.0
 31
0.0
  0
LINE
  8
LY_3
  6
CONTINUOUS
 62
               3
  5
215
 10
180.5
 20
-34.0
 30
0.0
 11
180.5
 21
-27.0
 31
0.0
  0
LINE
  8
LY_3
  6
CONTINUOUS
 62
               3
  5
216
 10
189.0
 20
-36.0
 30
0.0
 11
182.5
 21
-36.0
 31
0.0
  0
LINE
  8
LY_3
  6
CONTINUOUS
 62
               3
  5
217
 10
169.0
 20
77.25
 30
0.0
 11
183.0
 21
77.25
 31
0.0
  0
LINE
  8
LY_3
  6
CONTINUOUS
 62
               3
  5
218
 10
169.0
 20
82.75
 30
0.0
 11
183.0
 21
82.75
 31
0.0
  0
LINE
  8
LY_3
  6
CONTINUOUS
 62
               3
  5
219
 10
171.5
 20
72.5
 30
0.0
 11
181.0
 21
72.5
 31
0.0
  0
LINE
  8
LY_3
  6
CONTINUOUS
 62
               3
  5
21A
 10
171.5
 20
87.5
 30
0.0
 11
181.0
 21
87.5
 31
0.0
  0
LINE
  8
LY_3
  6
CONTINUOUS
 62
               3
  5
21B
 10
110.5
 20
72.5
 30
0.0
 11
121.25
 21
72.5
 31
0.0
  0
LINE
  8
LY_3
  6
CONTINUOUS
 62
               3
  5
21C
 10
110.5
 20
87.5
 30
0.0
 11
121.25
 21
87.5
 31
0.0
  0
LINE
  8
LY_3
  6
CONTINUOUS
 62
               3
  5
21D
 10
120.5
 20
1.0
 30
0.0
 11
120.5
 21
-1.0
 31
0.0
  0
LINE
  8
LY_3
  6
DASHED
 62
               3
  5
21E
 10
178.650002
 20
-13.0
 30
0.0
 11
178.650002
 21
-14.0
 31
0.0
  0
LINE
  8
LY_3
  6
DASHED
 62
               3
  5
21F
 10
173.349998
 20
-13.0
 30
0.0
 11
173.349998
 21
-14.0
 31
0.0
  0
LINE
  8
LY_3
  6
CONTINUOUS
 62
               3
  5
220
 10
181.0
 20
-13.0
 30
0.0
 11
181.0
 21
-14.0
 31
0.0
  0
LINE
  8
LY_3
  6
CONTINUOUS
 62
               3
  5
221
 10
171.0
 20
-13.0
 30
0.0
 11
171.0
 21
-14.0
 31
0.0
  0
LINE
  8
LY_3
  6
CONTINUOUS
 62
               3
  5
222
 10
181.0
 20
-13.0
 30
0.0
 11
171.06012000000001
 21
-13.0
 31
0.0
  0
LINE
  8
LY_3
  6
CONTINUOUS
 62
               3
  5
223
 10
180.71777299999999
 20
-14.0
 30
0.0
 11
171.28222700000001
 21
-14.0
 31
0.0
  0
LINE
  8
LY_3
  6
CONTINUOUS
 62
               3
  5
224
 10
165.5
 20
71.75
 30
0.0
 11
165.5
 21
74.792191000000003
 31
0.0
  0
LINE
  8
LY_3
  6
CONTINUOUS
 62
               3
  5
225
 10
159.33696699999999
 20
71.75
 30
0.0
 11
159.33696699999999
 21
73.400002000000001
 31
0.0
  0
LINE
  8
LY_3
  6
CONTINUOUS
 62
               3
  5
226
 10
155.313705
 20
73.400002000000001
 30
0.0
 11
159.33696699999999
 21
73.400002000000001
 31
0.0
  0
LINE
  8
LY_3
  6
CONTINUOUS
 62
               3
  5
227
 10
159.33696399999999
 20
73.399997999999997
 30
0.0
 11
165.977261
 21
74.899997999999997
 31
0.0
  0
LINE
  8
LY_3
  6
CONTINUOUS
 62
               3
  5
228
 10
159.556343
 20
74.900002000000001
 30
0.0
 11
165.977261
 21
74.900002000000001
 31
0.0
  0
LINE
  8
LY_3
  6
CONTINUOUS
 62
               3
  5
229
 10
159.55634599999999
 20
74.899996000000002
 30
0.0
 11
158.84923699999999
 21
75.399996999999999
 31
0.0
  0
LINE
  8
LY_3
  6
CONTINUOUS
 62
               3
  5
22A
 10
155.313706
 20
73.399996999999999
 30
0.0
 11
154.60659799999999
 21
73.899999000000008
 31
0.0
  0
LINE
  8
LY_3
  6
CONTINUOUS
 62
               3
  5
22B
 10
155.31370799999999
 20
73.400001000000003
 30
0.0
 11
159.55634599999999
 21
74.900000000000006
 31
0.0
  0
LINE
  8
LY_3
  6
CONTINUOUS
 62
               3
  5
22C
 10
154.60660000000001
 20
73.900002000000001
 30
0.0
 11
158.84924100000001
 21
75.400002000000001
 31
0.0
  0
LINE
  8
LY_3
  6
CONTINUOUS
 62
               3
  5
22D
 10
133.393394
 20
73.900002000000001
 30
0.0
 11
154.60659799999999
 21
73.900002000000001
 31
0.0
  0
LINE
  8
LY_3
  6
CONTINUOUS
 62
               3
  5
22E
 10
129.150757
 20
75.400002000000001
 30
0.0
 11
158.849243
 21
75.400002000000001
 31
0.0
  0
LINE
  8
LY_3
  6
CONTINUOUS
 62
               3
  5
22F
 10
132.68629300000001
 20
73.400001000000003
 30
0.0
 11
133.39339799999999
 21
73.900000000000006
 31
0.0
  0
LINE
  8
LY_3
  6
CONTINUOUS
 62
               3
  5
230
 10
128.443647
 20
74.900003999999996
 30
0.0
 11
129.150755
 21
75.400004999999993
 31
0.0
  0
LINE
  8
LY_3
  6
CONTINUOUS
 62
               3
  5
231
 10
133.393395
 20
73.900001000000003
 30
0.0
 11
129.150755
 21
75.400002000000001
 31
0.0
  0
LINE
  8
LY_3
  6
CONTINUOUS
 62
               3
  5
232
 10
132.68628899999999
 20
73.400003999999996
 30
0.0
 11
128.44364899999999
 21
74.900003999999996
 31
0.0
  0
LINE
  8
LY_3
  6
CONTINUOUS
 62
               3
  5
233
 10
128.66303300000001
 20
73.400002000000001
 30
0.0
 11
132.68628699999999
 21
73.400002000000001
 31
0.0
  0
LINE
  8
LY_3
  6
CONTINUOUS
 62
               3
  5
234
 10
128.66303300000001
 20
71.75
 30
0.0
 11
128.66303300000001
 21
73.400002000000001
 31
0.0
  0
LINE
  8
LY_3
  6
CONTINUOUS
 62
               3
  5
235
 10
122.02273600000001
 20
74.900002000000001
 30
0.0
 11
128.44364899999999
 21
74.900002000000001
 31
0.0
  0
LINE
  8
LY_3
  6
CONTINUOUS
 62
               3
  5
236
 10
122.5
 20
71.75
 30
0.0
 11
122.5
 21
74.787436999999997
 31
0.0
  0
LINE
  8
LY_3
  6
CONTINUOUS
 62
               3
  5
237
 10
128.66303199999999
 20
73.400003999999996
 30
0.0
 11
121.999999
 21
74.900002999999998
 31
0.0
  0
LINE
  8
LY_3
  6
CONTINUOUS
 62
               3
  5
238
 10
122.5
 20
88.25
 30
0.0
 11
122.5
 21
85.212563000000003
 31
0.0
  0
LINE
  8
LY_3
  6
CONTINUOUS
 62
               3
  5
239
 10
155.31370699999999
 20
86.600003000000001
 30
0.0
 11
154.60660000000001
 21
86.100003000000001
 31
0.0
  0
LINE
  8
LY_3
  6
CONTINUOUS
 62
               3
  5
23A
 10
159.55634699999999
 20
85.100004999999996
 30
0.0
 11
158.84924000000001
 21
84.600004999999996
 31
0.0
  0
LINE
  8
LY_3
  6
CONTINUOUS
 62
               3
  5
23B
 10
159.33696900000001
 20
86.599998999999997
 30
0.0
 11
165.977259
 21
85.099999999999994
 31
0.0
  0
LINE
  8
LY_3
  6
CONTINUOUS
 62
               3
  5
23C
 10
154.60659799999999
 20
86.099997000000002
 30
0.0
 11
158.84923900000001
 21
84.599997000000002
 31
0.0
  0
LINE
  8
LY_3
  6
CONTINUOUS
 62
               3
  5
23D
 10
155.313705
 20
86.599997999999999
 30
0.0
 11
159.55634599999999
 21
85.099997999999999
 31
0.0
  0
LINE
  8
LY_3
  6
CONTINUOUS
 62
               3
  5
23E
 10
132.686285
 20
86.599999999999994
 30
0.0
 11
133.393393
 21
86.099998999999997
 31
0.0
  0
LINE
  8
LY_3
  6
CONTINUOUS
 62
               3
  5
23F
 10
128.44365099999999
 20
85.099996000000004
 30
0.0
 11
129.150747
 21
84.600003000000001
 31
0.0
  0
LINE
  8
LY_3
  6
CONTINUOUS
 62
               3
  5
240
 10
133.39339699999999
 20
86.099997000000002
 30
0.0
 11
129.150757
 21
84.599997000000002
 31
0.0
  0
LINE
  8
LY_3
  6
CONTINUOUS
 62
               3
  5
241
 10
132.68628999999999
 20
86.599997999999999
 30
0.0
 11
128.44364999999999
 21
85.099997999999999
 31
0.0
  0
LINE
  8
LY_3
  6
CONTINUOUS
 62
               3
  5
242
 10
128.66302899999999
 20
86.600003999999998
 30
0.0
 11
121.99999600000001
 21
85.100004999999996
 31
0.0
  0
LINE
  8
LY_3
  6
CONTINUOUS
 62
               3
  5
243
 10
155.313705
 20
86.599997999999999
 30
0.0
 11
159.33696699999999
 21
86.599997999999999
 31
0.0
  0
LINE
  8
LY_3
  6
CONTINUOUS
 62
               3
  5
244
 10
133.393394
 20
86.099997999999999
 30
0.0
 11
154.60659799999999
 21
86.099997999999999
 31
0.0
  0
LINE
  8
LY_3
  6
CONTINUOUS
 62
               3
  5
245
 10
128.66303300000001
 20
86.599997999999999
 30
0.0
 11
132.68628699999999
 21
86.599997999999999
 31
0.0
  0
LINE
  8
LY_3
  6
CONTINUOUS
 62
               3
  5
246
 10
129.150757
 20
84.599997999999999
 30
0.0
 11
158.849243
 21
84.599997999999999
 31
0.0
  0
LINE
  8
LY_3
  6
CONTINUOUS
 62
               3
  5
247
 10
159.556343
 20
85.099997999999999
 30
0.0
 11
165.977261
 21
85.099997999999999
 31
0.0
  0
LINE
  8
LY_3
  6
CONTINUOUS
 62
               3
  5
248
 10
122.02273600000001
 20
85.099997999999999
 30
0.0
 11
128.44364899999999
 21
85.099997999999999
 31
0.0
  0
LINE
  8
LY_3
  6
CONTINUOUS
 62
               3
  5
249
 10
165.5
 20
88.25
 30
0.0
 11
165.5
 21
85.207808999999997
 31
0.0
  0
LINE
  8
LY_3
  6
CONTINUOUS
 62
               3
  5
24A
 10
159.33696699999999
 20
88.25
 30
0.0
 11
159.33696699999999
 21
86.599997999999999
 31
0.0
  0
LINE
  8
LY_3
  6
CONTINUOUS
 62
               3
  5
24B
 10
128.66303300000001
 20
88.25
 30
0.0
 11
128.66303300000001
 21
86.599997999999999
 31
0.0
  0
LINE
  8
LY_3
  6
DASHED
 62
             110
  5
24C
 10
169.0
 20
-13.444134999999999
 30
0.0
 11
169.0
 21
-1.0
 31
0.0
  0
LINE
  8
LY_3
  6
DASHED
 62
             110
  5
24D
 10
155.66726
 20
-11.667265
 30
0.0
 11
159.90990099999999
 21
-15.909905
 31
0.0
  0
LINE
  8
LY_3
  6
DASHED
 62
             110
  5
24E
 10
154.93870699999999
 20
-12.352924
 30
0.0
 11
159.187074
 21
-16.601292000000001
 31
0.0
  0
LINE
  8
LY_3
  6
DASHED
 62
             110
  5
24F
 10
133.06128799999999
 20
-12.352916
 30
0.0
 11
128.81292099999999
 21
-16.601284
 31
0.0
  0
LINE
  8
LY_3
  6
DASHED
 62
             110
  5
250
 10
132.33273399999999
 20
-11.667256999999999
 30
0.0
 11
128.09009399999999
 21
-15.909897000000001
 31
0.0
  0
LINE
  8
LY_3
  6
DASHED
 62
             110
  5
251
 10
116.52897000000002
 20
-16.636167
 30
0.0
 11
123.99999
 21
-9.1651480000000003
 31
0.0
  0
LINE
  8
LY_3
  6
CONTINUOUS
 62
               3
  5
252
 10
159.95633599999999
 20
-4.2006370000000004
 30
0.0
 11
165.5
 21
-1.0000009999999999
 31
0.0
  0
LINE
  8
LY_3
  6
CONTINUOUS
 62
               3
  5
253
 10
122.5
 20
-0.9999980000000001
 30
0.0
 11
128.043667
 21
-4.2006360000000003
 31
0.0
  0
LINE
  8
LY_3
  6
CONTINUOUS
 62
               3
  5
254
 10
122.5
 20
0.999996
 30
0.0
 11
128.04366099999999
 21
4.2006300000000003
 31
0.0
  0
LINE
  8
LY_3
  6
CONTINUOUS
 62
               3
  5
255
 10
159.95633599999999
 20
4.2006360000000003
 30
0.0
 11
165.5
 21
1.0
 31
0.0
  0
LINE
  8
LY_3
  6
DASHED
 62
             110
  5
256
 10
132.33274
 20
11.667261
 30
0.0
 11
128.09009900000001
 21
15.909902000000001
 31
0.0
  0
LINE
  8
LY_3
  6
DASHED
 62
             110
  5
257
 10
133.061296
 20
12.352918000000001
 30
0.0
 11
128.812926
 21
16.601288
 31
0.0
  0
LINE
  8
LY_3
  6
DASHED
 62
             110
  5
258
 10
154.938704
 20
12.352926
 30
0.0
 11
159.18707000000001
 21
16.601292000000001
 31
0.0
  0
LINE
  8
LY_3
  6
DASHED
 62
             110
  5
259
 10
155.667258
 20
11.667267000000001
 30
0.0
 11
159.909898
 21
15.909907
 31
0.0
  0
LINE
  8
LY_3
  6
CONTINUOUS
 62
               3
  5
25A
 10
169.0
 20
82.75
 30
0.0
 11
169.0
 21
77.25
 31
0.0
  0
LINE
  8
LY_3
  6
CONTINUOUS
 62
               3
  5
25B
 10
109.5
 20
78.25
 30
0.0
 11
124.0
 21
78.25
 31
0.0
  0
LINE
  8
LY_3
  6
CONTINUOUS
 62
               3
  5
25C
 10
109.5
 20
81.75
 30
0.0
 11
124.0
 21
81.75
 31
0.0
  0
LINE
  8
LY_3
  6
CENTER
 62
             110
  5
25D
 10
144.0
 20
30.0
 30
0.0
 11
144.0
 21
-30.0
 31
0.0
  0
LINE
  8
LY_3
  6
CONTINUOUS
 62
               3
  5
25E
 10
195.0
 20
0.0
 30
0.0
 11
205.0
 21
0.0
 31
0.0
  0
LINE
  8
LY_3
  6
CONTINUOUS
 62
               3
  5
25F
 10
83.0
 20
0.0
 30
0.0
 11
93.0
 21
0.0
 31
0.0
  0
LINE
  8
LY_3
  6
CONTINUOUS
 62
               3
  5
260
 10
110.5
 20
3.6833740000000001
 30
0.0
 11
110.5
 21
-3.683376
 31
0.0
  0
LINE
  8
LY_3
  6
CONTINUOUS
 62
               3
  5
261
 10
120.5
 20
81.75
 30
0.0
 11
120.5
 21
78.25
 31
0.0
  0
LINE
  8
LY_3
  6
CONTINUOUS
 62
               3
  5
262
 10
171.06012000000001
 20
13.0
 30
0.0
 11
180.0
 21
13.0
 31
0.0
  0
LINE
  8
LY_3
  6
CONTINUOUS
 62
               3
  5
263
 10
183.0
 20
10.0
 30
0.0
 11
183.0
 21
4.0
 31
0.0
  0
LINE
  8
LY_3
  6
CENTER
 62
             110
  5
264
 10
172.0
 20
7.0
 30
0.0
 11
180.0
 21
7.0
 31
0.0
  0
LINE
  8
LY_3
  6
CENTER
 62
             110
  5
265
 10
176.0
 20
11.0
 30
0.0
 11
176.0
 21
-41.369109999999999
 31
0.0
  0
LINE
  8
LY_3
  6
DASHED
 62
             110
  5
266
 10
169.0
 20
13.444134
 30
0.0
 11
169.0
 21
1.0
 31
0.0
  0
LINE
  8
LY_3
  6
CONTINUOUS
 62
               3
  5
267
 10
165.5
 20
1.0
 30
0.0
 11
180.0
 21
1.0
 31
0.0
  0
LINE
  8
LY_3
  6
CENTER
 62
             110
  5
268
 10
99.0
 20
0.0
 30
0.0
 11
192.0
 21
0.0
 31
0.0
  0
LINE
  8
LY_3
  6
DASHED
 62
             110
  5
269
 10
116.52897899999999
 20
16.636168000000001
 30
0.0
 11
123.99999600000001
 21
9.1651520000000009
 31
0.0
  0
LINE
  8
LY_3
  6
CONTINUOUS
 62
               3
  5
26A
 10
115.800003
 20
1.0
 30
0.0
 11
122.5
 21
1.0
 31
0.0
  0
LINE
  8
LY_3
  6
CENTER
 62
             110
  5
26B
 10
111.8
 20
7.2999999999999998
 30
0.0
 11
119.80000000000001
 21
7.2999999999999998
 31
0.0
  0
LINE
  8
LY_3
  6
CENTER
 62
             110
  5
26C
 10
115.80000000000001
 20
11.0
 30
0.0
 11
115.80000000000001
 21
-11.0
 31
0.0
  0
LINE
  8
LY_3
  6
CENTER
 62
             110
  5
26D
 10
172.0
 20
-7.0
 30
0.0
 11
180.0
 21
-7.0
 31
0.0
  0
LINE
  8
LY_3
  6
CONTINUOUS
 62
               3
  5
26E
 10
122.02273600000001
 20
78.25
 30
0.0
 11
122.02273600000001
 21
74.900002000000001
 31
0.0
  0
LINE
  8
LY_3
  6
CONTINUOUS
 62
               3
  5
26F
 10
122.02273600000001
 20
85.099997999999999
 30
0.0
 11
122.02273600000001
 21
81.75
 31
0.0
  0
LINE
  8
LY_3
  6
CONTINUOUS
 62
               3
  5
270
 10
165.977261
 20
85.099997999999999
 30
0.0
 11
165.977261
 21
74.900002000000001
 31
0.0
  0
LINE
  8
LY_3
  6
DASHED
 62
             110
  5
271
 10
113.80000000000001
 20
78.25
 30
0.0
 11
113.80000000000001
 21
72.5
 31
0.0
  0
LINE
  8
LY_3
  6
DASHED
 62
             110
  5
272
 10
117.80000000000001
 20
78.25
 30
0.0
 11
117.80000000000001
 21
72.5
 31
0.0
  0
LINE
  8
LY_3
  6
DASHED
 62
             110
  5
273
 10
173.5
 20
77.25
 30
0.0
 11
173.5
 21
72.75
 31
0.0
  0
LINE
  8
LY_3
  6
DASHED
 62
             110
  5
274
 10
178.5
 20
77.25
 30
0.0
 11
178.5
 21
72.75
 31
0.0
  0
LINE
  8
LY_3
  6
DASHED
 62
             110
  5
275
 10
173.5
 20
87.5
 30
0.0
 11
173.5
 21
82.75
 31
0.0
  0
LINE
  8
LY_3
  6
DASHED
 62
             110
  5
276
 10
178.5
 20
87.5
 30
0.0
 11
178.5
 21
82.75
 31
0.0
  0
LINE
  8
LY_3
  6
DASHED
 62
             110
  5
277
 10
113.80000000000001
 20
87.5
 30
0.0
 11
113.80000000000001
 21
81.75
 31
0.0
  0
LINE
  8
LY_3
  6
DASHED
 62
             110
  5
278
 10
117.80000000000001
 20
87.5
 30
0.0
 11
117.80000000000001
 21
81.75
 31
0.0
  0
LINE
  8
LY_3
  6
CENTER
 62
             110
  5
279
 10
176.0
 20
90.75
 30
0.0
 11
176.0
 21
69.0
 31
0.0
  0
LINE
  8
LY_3
  6
CENTER
 62
             110
  5
27A
 10
115.80000000000001
 20
91.0
 30
0.0
 11
115.80000000000001
 21
69.0
 31
0.0
  0
LINE
  8
LY_3
  6
CONTINUOUS
 62
               3
  5
27B
 10
124.0
 20
81.75
 30
0.0
 11
124.0
 21
78.25
 31
0.0
  0
LINE
  8
LY_3
  6
CONTINUOUS
 62
               3
  5
27C
 10
109.5
 20
78.25
 30
0.0
 11
109.5
 21
73.5
 31
0.0
  0
LINE
  8
LY_3
  6
CONTINUOUS
 62
               3
  5
27D
 10
183.0
 20
77.25
 30
0.0
 11
183.0
 21
74.5
 31
0.0
  0
LINE
  8
LY_3
  6
CONTINUOUS
 62
               3
  5
27E
 10
122.0
 20
71.75
 30
0.0
 11
170.75
 21
71.75
 31
0.0
  0
LINE
  8
LY_3
  6
CONTINUOUS
 62
               3
  5
27F
 10
122.0
 20
88.25
 30
0.0
 11
170.75
 21
88.25
 31
0.0
  0
LINE
  8
LY_3
  6
CONTINUOUS
 62
               3
  5
280
 10
183.0
 20
85.5
 30
0.0
 11
183.0
 21
82.75
 31
0.0
  0
LINE
  8
LY_3
  6
CONTINUOUS
 62
               3
  5
281
 10
109.5
 20
86.5
 30
0.0
 11
109.5
 21
81.75
 31
0.0
  0
LINE
  8
LY_3
  6
CENTER
 62
             110
  5
282
 10
104.0
 20
80.0
 30
0.0
 11
189.0
 21
80.0
 31
0.0
  0
LINE
  8
LY_3
  6
CONTINUOUS
 62
               3
  5
283
 10
178.0
 20
-26.0
 30
0.0
 11
178.0
 21
-38.0
 31
0.0
  0
LINE
  8
LY_3
  6
CONTINUOUS
 62
               3
  5
284
 10
178.000011
 20
-38.000003
 30
0.0
 11
178.50000800000001
 21
-37.500005000000002
 31
0.0
  0
LINE
  8
LY_3
  6
CONTINUOUS
 62
               3
  5
285
 10
173.500022
 20
-37.499974999999999
 30
0.0
 11
174.00001599999999
 21
-37.999971000000002
 31
0.0
  0
LINE
  8
LY_3
  6
CONTINUOUS
 62
               3
  5
286
 10
174.0
 20
-38.0
 30
0.0
 11
178.0
 21
-38.0
 31
0.0
  0
LINE
  8
LY_3
  6
CONTINUOUS
 62
               3
  5
287
 10
173.5
 20
-37.5
 30
0.0
 11
178.5
 21
-37.5
 31
0.0
  0
LINE
  8
LY_3
  6
CONTINUOUS
 62
               3
  5
288
 10
174.0
 20
-26.0
 30
0.0
 11
174.0
 21
-38.0
 31
0.0
  0
LINE
  8
LY_3
  6
CONTINUOUS
 62
               3
  5
289
 10
173.5
 20
-26.0
 30
0.0
 11
173.5
 21
-37.5
 31
0.0
  0
LINE
  8
LY_3
  6
CONTINUOUS
 62
               3
  5
28A
 10
178.5
 20
1.0
 30
0.0
 11
178.5
 21
-1.0
 31
0.0
  0
LINE
  8
LY_3
  6
CONTINUOUS
 62
               3
  5
28B
 10
173.5
 20
1.0
 30
0.0
 11
173.5
 21
-1.0
 31
0.0
  0
LINE
  8
LY_3
  6
CENTER
 62
             110
  5
28C
 10
111.8
 20
-7.2999999999999998
 30
0.0
 11
119.80000000000001
 21
-7.2999999999999998
 31
0.0
  0
LINE
  8
LY_3
  6
CONTINUOUS
 62
               3
  5
28D
 10
165.5
 20
-1.0
 30
0.0
 11
180.0
 21
-1.0
 31
0.0
  0
LINE
  8
LY_3
  6
CONTINUOUS
 62
               3
  5
28E
 10
183.0
 20
-10.0
 30
0.0
 11
183.0
 21
-4.0
 31
0.0
  0
LINE
  8
LY_3
  6
CONTINUOUS
 62
               3
  5
28F
 10
115.800003
 20
-1.0
 30
0.0
 11
122.5
 21
-1.0
 31
0.0
  0
LINE
  8
LY_3
  6
CENTER
 62
             110
  5
290
 10
144.0
 20
91.0
 30
0.0
 11
144.0
 21
69.0
 31
0.0
  0
LINE
  8
LY_3
  6
CENTER
 62
             110
  5
291
 10
0.0
 20
83.0
 30
0.0
 11
0.0
 21
61.0
 31
0.0
  0
LINE
  8
LY_3
  6
CONTINUOUS
 62
               3
  5
292
 10
-23.5
 20
-1.0
 30
0.0
 11
-16.25
 21
-1.0
 31
0.0
  0
LINE
  8
LY_3
  6
CONTINUOUS
 62
               3
  5
293
 10
20.790623
 20
-13.0
 30
0.0
 11
30.0
 21
-13.0
 31
0.0
  0
LINE
  8
LY_3
  6
CONTINUOUS
 62
               3
  5
294
 10
33.0
 20
-10.0
 30
0.0
 11
33.0
 21
-4.0
 31
0.0
  0
LINE
  8
LY_3
  6
CONTINUOUS
 62
               3
  5
295
 10
16.25
 20
-1.0
 30
0.0
 11
30.0
 21
-1.0
 31
0.0
  0
LINE
  8
LY_3
  6
CENTER
 62
             110
  5
296
 10
22.0
 20
-7.0
 30
0.0
 11
30.0
 21
-7.0
 31
0.0
  0
LINE
  8
LY_3
  6
CENTER
 62
             110
  5
297
 10
-27.199999999999999
 20
-7.2999999999999998
 30
0.0
 11
-19.199999999999999
 21
-7.2999999999999998
 31
0.0
  0
LINE
  8
LY_3
  6
CONTINUOUS
 62
               3
  5
298
 10
-17.5
 20
1.0
 30
0.0
 11
-17.5
 21
-1.0
 31
0.0
  0
LINE
  8
LY_3
  6
CONTINUOUS
 62
               3
  5
299
 10
-29.0
 20
4.6020849999999998
 30
0.0
 11
-29.0
 21
-4.6020839999999996
 31
0.0
  0
LINE
  8
LY_3
  6
CONTINUOUS
 62
               3
  5
29A
 10
24.0
 20
-38.0
 30
0.0
 11
28.0
 21
-38.0
 31
0.0
  0
LINE
  8
LY_3
  6
CONTINUOUS
 62
               3
  5
29B
 10
23.5
 20
-26.0
 30
0.0
 11
23.5
 21
-37.5
 31
0.0
  0
LINE
  8
LY_3
  6
CONTINUOUS
 62
               3
  5
29C
 10
28.5
 20
-26.0
 30
0.0
 11
28.5
 21
-37.5
 31
0.0
  0
LINE
  8
LY_3
  6
CONTINUOUS
 62
               3
  5
29D
 10
24.0
 20
-26.0
 30
0.0
 11
24.0
 21
-38.0
 31
0.0
  0
LINE
  8
LY_3
  6
CONTINUOUS
 62
               3
  5
29E
 10
28.0
 20
-26.0
 30
0.0
 11
28.0
 21
-38.0
 31
0.0
  0
LINE
  8
LY_3
  6
CONTINUOUS
 62
               3
  5
29F
 10
23.5
 20
-37.5
 30
0.0
 11
28.5
 21
-37.5
 31
0.0
  0
LINE
  8
LY_3
  6
CONTINUOUS
 62
               3
  5
2A0
 10
23.500022000000001
 20
-37.499988000000002
 30
0.0
 11
24.000015999999999
 21
-37.999983999999998
 31
0.0
  0
LINE
  8
LY_3
  6
CONTINUOUS
 62
               3
  5
2A1
 10
28.000004000000001
 20
-38.0
 30
0.0
 11
28.500001999999999
 21
-37.500002000000002
 31
0.0
  0
LINE
  8
LY_3
  6
CONTINUOUS
 62
               3
  5
2A2
 10
28.5
 20
1.0
 30
0.0
 11
28.5
 21
-1.0
 31
0.0
  0
LINE
  8
LY_3
  6
CONTINUOUS
 62
               3
  5
2A3
 10
23.5
 20
1.0
 30
0.0
 11
23.5
 21
-1.0
 31
0.0
  0
LINE
  8
LY_3
  6
CENTER
 62
             110
  5
2A4
 10
-32.5
 20
72.0
 30
0.0
 11
37.5
 21
72.0
 31
0.0
  0
LINE
  8
LY_3
  6
CONTINUOUS
 62
               3
  5
2A5
 10
-14.619202
 20
73.75
 30
0.0
 11
-14.619202
 21
70.25
 31
0.0
  0
LINE
  8
LY_3
  6
CONTINUOUS
 62
               3
  5
2A6
 10
-29.5
 20
70.25
 30
0.0
 11
-14.619202
 21
70.25
 31
0.0
  0
LINE
  8
LY_3
  6
CONTINUOUS
 62
               3
  5
2A7
 10
-29.5
 20
73.75
 30
0.0
 11
-14.619202
 21
73.75
 31
0.0
  0
LINE
  8
LY_3
  6
CENTER
 62
             110
  5
2A8
 10
-23.199999999999999
 20
82.0
 30
0.0
 11
-23.199999999999999
 21
62.0
 31
0.0
  0
LINE
  8
LY_3
  6
CENTER
 62
             110
  5
2A9
 10
26.0
 20
82.0
 30
0.0
 11
26.0
 21
62.0
 31
0.0
  0
LINE
  8
LY_3
  6
CONTINUOUS
 62
               3
  5
2AA
 10
19.0
 20
74.75
 30
0.0
 11
19.0
 21
69.25
 31
0.0
  0
LINE
  8
LY_3
  6
CONTINUOUS
 62
               3
  5
2AB
 10
7.7781750000000001
 20
78.5
 30
0.0
 11
9.9837799999999994
 21
78.5
 31
0.0
  0
LINE
  8
LY_3
  6
CONTINUOUS
 62
               3
  5
2AC
 10
17.471405000000001
 20
77.0
 30
0.0
 11
17.471405000000001
 21
72.0
 31
0.0
  0
LINE
  8
LY_3
  6
CONTINUOUS
 62
               3
  5
2AD
 10
7.0710680000000004
 20
78.0
 30
0.0
 11
-7.0710680000000004
 21
78.0
 31
0.0
  0
LINE
  8
LY_3
  6
CONTINUOUS
 62
               3
  5
2AE
 10
-7.7781750000000001
 20
78.5
 30
0.0
 11
-9.9837880000000006
 21
78.5
 31
0.0
  0
LINE
  8
LY_3
  6
CONTINUOUS
 62
               3
  5
2AF
 10
-17.471405000000001
 20
77.0
 30
0.0
 11
-17.471405000000001
 21
73.75
 31
0.0
  0
LINE
  8
LY_3
  6
CONTINUOUS
 62
               3
  5
2B0
 10
-17.471405000000001
 20
67.0
 30
0.0
 11
-17.471405000000001
 21
70.25
 31
0.0
  0
LINE
  8
LY_3
  6
CONTINUOUS
 62
               3
  5
2B1
 10
-7.7781750000000001
 20
65.5
 30
0.0
 11
-9.9837880000000006
 21
65.5
 31
0.0
  0
LINE
  8
LY_3
  6
CONTINUOUS
 62
               3
  5
2B2
 10
7.0710680000000004
 20
66.0
 30
0.0
 11
-7.0710680000000004
 21
66.0
 31
0.0
  0
LINE
  8
LY_3
  6
CONTINUOUS
 62
               3
  5
2B3
 10
7.7781750000000001
 20
65.5
 30
0.0
 11
9.9837799999999994
 21
65.5
 31
0.0
  0
LINE
  8
LY_3
  6
CONTINUOUS
 62
               3
  5
2B4
 10
17.471405000000001
 20
67.0
 30
0.0
 11
17.471405000000001
 21
72.0
 31
0.0
  0
LINE
  8
LY_3
  6
CENTER
 62
             110
  5
2B5
 10
-35.894869
 20
0.0
 30
0.0
 11
42.75
 21
0.0
 31
0.0
  0
LINE
  8
LY_3
  6
CONTINUOUS
 62
               3
  5
2B6
 10
-57.5
 20
0.0
 30
0.0
 11
-47.5
 21
0.0
 31
0.0
  0
LINE
  8
LY_3
  6
CONTINUOUS
 62
               3
  5
2B7
 10
52.5
 20
0.0
 30
0.0
 11
62.5
 21
0.0
 31
0.0
  0
LINE
  8
LY_3
  6
CONTINUOUS
 62
               3
  5
2B8
 10
-23.5
 20
1.0
 30
0.0
 11
-16.25
 21
1.0
 31
0.0
  0
LINE
  8
LY_3
  6
DASHED
 62
             110
  5
2B9
 10
-21.068311000000001
 20
16.068301000000002
 30
0.0
 11
-14.619204
 21
9.6191940000000002
 31
0.0
  0
LINE
  8
LY_3
  6
CENTER
 62
             110
  5
2BA
 10
-28.699999999999999
 20
7.2999999999999998
 30
0.0
 11
-20.699999999999999
 21
7.2999999999999998
 31
0.0
  0
LINE
  8
LY_3
  6
CENTER
 62
             110
  5
2BB
 10
-23.199999999999999
 20
11.0
 30
0.0
 11
-23.199999999999999
 21
-11.0
 31
0.0
  0
LINE
  8
LY_3
  6
DASHED
 62
             110
  5
2BC
 10
19.0
 20
13.331631
 30
0.0
 11
19.0
 21
1.0
 31
0.0
  0
LINE
  8
LY_3
  6
CONTINUOUS
 62
               3
  5
2BD
 10
16.25
 20
1.0
 30
0.0
 11
30.0
 21
1.0
 31
0.0
  0
LINE
  8
LY_3
  6
CONTINUOUS
 62
               3
  5
2BE
 10
33.0
 20
10.0
 30
0.0
 11
33.0
 21
4.0
 31
0.0
  0
LINE
  8
LY_3
  6
CONTINUOUS
 62
               3
  5
2BF
 10
20.790623
 20
13.0
 30
0.0
 11
30.0
 21
13.0
 31
0.0
  0
LINE
  8
LY_3
  6
CENTER
 62
             110
  5
2C0
 10
26.0
 20
11.0
 30
0.0
 11
26.0
 21
-41.122768000000001
 31
0.0
  0
LINE
  8
LY_3
  6
CENTER
 62
             110
  5
2C1
 10
22.0
 20
7.0
 30
0.0
 11
30.0
 21
7.0
 31
0.0
  0
LINE
  8
LY_3
  6
CENTER
 62
             110
  5
2C2
 10
0.0
 20
25.0
 30
0.0
 11
0.0
 21
-25.0
 31
0.0
  0
LINE
  8
LY_3
  6
CONTINUOUS
 62
               3
  5
2C3
 10
-29.5
 20
78.5
 30
0.0
 11
-29.5
 21
73.75
 31
0.0
  0
LINE
  8
LY_3
  6
CONTINUOUS
 62
               3
  5
2C4
 10
33.0
 20
77.5
 30
0.0
 11
33.0
 21
74.75
 31
0.0
  0
LINE
  8
LY_3
  6
CONTINUOUS
 62
               3
  5
2C5
 10
33.0
 20
69.25
 30
0.0
 11
33.0
 21
66.5
 31
0.0
  0
LINE
  8
LY_3
  6
CONTINUOUS
 62
               3
  5
2C6
 10
10.705068000000001
 20
4.2013680000000004
 30
0.0
 11
16.249997
 21
1.0000020000000001
 31
0.0
  0
LINE
  8
LY_3
  6
CONTINUOUS
 62
               3
  5
2C7
 10
-16.249997
 20
0.9999980000000001
 30
0.0
 11
-10.705067
 21
4.2013639999999999
 31
0.0
  0
LINE
  8
LY_3
  6
CONTINUOUS
 62
               3
  5
2C8
 10
-16.249997
 20
-1.0
 30
0.0
 11
-10.705068000000001
 21
-4.2013660000000002
 31
0.0
  0
LINE
  8
LY_3
  6
CONTINUOUS
 62
               3
  5
2C9
 10
10.705071
 20
-4.2013670000000003
 30
0.0
 11
16.250001000000001
 21
-1.0
 31
0.0
  0
LINE
  8
LY_3
  6
DASHED
 62
             110
  5
2CA
 10
8.1317310000000003
 20
8.1317260000000005
 30
0.0
 11
12.374370000000001
 21
12.374364999999999
 31
0.0
  0
LINE
  8
LY_3
  6
DASHED
 62
             110
  5
2CB
 10
7.3938220000000001
 20
8.8080309999999997
 30
0.0
 11
11.667263
 21
13.081472
 31
0.0
  0
LINE
  8
LY_3
  6
DASHED
 62
             110
  5
2CC
 10
-7.393821
 20
8.808033
 30
0.0
 11
-11.667260000000001
 21
13.081472
 31
0.0
  0
LINE
  8
LY_3
  6
DASHED
 62
             110
  5
2CD
 10
-8.1317260000000005
 20
8.1317249999999994
 30
0.0
 11
-12.374366999999999
 21
12.374364999999999
 31
0.0
  0
LINE
  8
LY_3
  6
DASHED
 62
             110
  5
2CE
 10
-8.1317260000000005
 20
-8.1317310000000003
 30
0.0
 11
-12.374366999999999
 21
-12.374371999999999
 31
0.0
  0
LINE
  8
LY_3
  6
DASHED
 62
             110
  5
2CF
 10
-7.393815
 20
-8.808033
 30
0.0
 11
-11.667260000000001
 21
-13.081478000000001
 31
0.0
  0
LINE
  8
LY_3
  6
DASHED
 62
             110
  5
2D0
 10
-21.068314999999998
 20
-16.068294999999999
 30
0.0
 11
-14.619210000000001
 21
-9.6191910000000007
 31
0.0
  0
LINE
  8
LY_3
  6
DASHED
 62
             110
  5
2D1
 10
8.1317260000000005
 20
-8.1317280000000007
 30
0.0
 11
12.374366999999999
 21
-12.374369
 31
0.0
  0
LINE
  8
LY_3
  6
DASHED
 62
             110
  5
2D2
 10
7.3938179999999996
 20
-8.808033
 30
0.0
 11
11.667260000000001
 21
-13.081476
 31
0.0
  0
LINE
  8
LY_3
  6
DASHED
 62
             110
  5
2D3
 10
19.0
 20
-13.331631
 30
0.0
 11
19.0
 21
-1.0
 31
0.0
  0
LINE
  8
LY_3
  6
CONTINUOUS
 62
               3
  5
2D4
 10
-17.471405000000001
 20
77.0
 30
0.0
 11
-12.374374
 21
77.0
 31
0.0
  0
LINE
  8
LY_3
  6
CONTINUOUS
 62
               3
  5
2D5
 10
-17.471405000000001
 20
67.0
 30
0.0
 11
-12.374374
 21
67.0
 31
0.0
  0
LINE
  8
LY_3
  6
CONTINUOUS
 62
               3
  5
2D6
 10
12.374366999999999
 20
77.0
 30
0.0
 11
17.471405000000001
 21
77.0
 31
0.0
  0
LINE
  8
LY_3
  6
CONTINUOUS
 62
               3
  5
2D7
 10
12.374366999999999
 20
67.0
 30
0.0
 11
17.471405000000001
 21
67.0
 31
0.0
  0
LINE
  8
LY_3
  6
CONTINUOUS
 62
               3
  5
2D8
 10
-11.667267000000001
 20
76.5
 30
0.0
 11
11.667259
 21
76.5
 31
0.0
  0
LINE
  8
LY_3
  6
CONTINUOUS
 62
               3
  5
2D9
 10
-11.667267000000001
 20
67.5
 30
0.0
 11
11.667259
 21
67.5
 31
0.0
  0
LINE
  8
LY_3
  6
CONTINUOUS
 62
               3
  5
2DA
 10
-16.249991999999999
 20
80.25
 30
0.0
 11
-16.249991999999999
 21
77.244681999999997
 31
0.0
  0
LINE
  8
LY_3
  6
CONTINUOUS
 62
               3
  5
2DB
 10
-9.9837880000000006
 20
80.25
 30
0.0
 11
-9.9837880000000006
 21
78.5
 31
0.0
  0
LINE
  8
LY_3
  6
CONTINUOUS
 62
               3
  5
2DC
 10
9.9837799999999994
 20
80.25
 30
0.0
 11
9.9837799999999994
 21
78.5
 31
0.0
  0
LINE
  8
LY_3
  6
CONTINUOUS
 62
               3
  5
2DD
 10
16.25
 20
80.25
 30
0.0
 11
16.25
 21
77.244681999999997
 31
0.0
  0
LINE
  8
LY_3
  6
CONTINUOUS
 62
               3
  5
2DE
 10
-7.7781779999999996
 20
78.50000399999999
 30
0.0
 11
-12.374371999999999
 21
77.00000399999999
 31
0.0
  0
LINE
  8
LY_3
  6
CONTINUOUS
 62
               3
  5
2DF
 10
-7.0710689999999996
 20
78.00000399999999
 30
0.0
 11
-11.667263
 21
76.50000399999999
 31
0.0
  0
LINE
  8
LY_3
  6
CONTINUOUS
 62
               3
  5
2E0
 10
-12.374375000000001
 20
76.999999000000003
 30
0.0
 11
-11.667267000000001
 21
76.499998000000005
 31
0.0
  0
LINE
  8
LY_3
  6
CONTINUOUS
 62
               3
  5
2E1
 10
-7.7781830000000003
 20
78.500000999999997
 30
0.0
 11
-7.0710740000000003
 21
77.999999000000003
 31
0.0
  0
LINE
  8
LY_3
  6
CONTINUOUS
 62
               3
  5
2E2
 10
-9.9837900000000008
 20
78.5
 30
0.0
 11
-17.471409999999999
 21
77.0
 31
0.0
  0
LINE
  8
LY_3
  6
CONTINUOUS
 62
               3
  5
2E3
 10
12.374362
 20
76.999997000000008
 30
0.0
 11
7.7781669999999998
 21
78.499997000000008
 31
0.0
  0
LINE
  8
LY_3
  6
CONTINUOUS
 62
               3
  5
2E4
 10
7.0710649999999999
 20
77.999994000000001
 30
0.0
 11
11.667260000000001
 21
76.499994000000001
 31
0.0
  0
LINE
  8
LY_3
  6
CONTINUOUS
 62
               3
  5
2E5
 10
11.667263
 20
76.5
 30
0.0
 11
12.374370000000001
 21
77.0
 31
0.0
  0
LINE
  8
LY_3
  6
CONTINUOUS
 62
               3
  5
2E6
 10
7.0710660000000001
 20
78.000005000000002
 30
0.0
 11
7.7781729999999998
 21
78.500005000000002
 31
0.0
  0
LINE
  8
LY_3
  6
CONTINUOUS
 62
               3
  5
2E7
 10
9.9837799999999994
 20
78.50000399999999
 30
0.0
 11
17.471399999999999
 21
77.00000399999999
 31
0.0
  0
LINE
  8
LY_3
  6
CONTINUOUS
 62
               3
  5
2E8
 10
-7.071072
 20
66.000000999999997
 30
0.0
 11
-11.667266
 21
67.500000999999997
 31
0.0
  0
LINE
  8
LY_3
  6
CONTINUOUS
 62
               3
  5
2E9
 10
-7.778181
 20
65.500000999999997
 30
0.0
 11
-12.374375000000001
 21
67.000000999999997
 31
0.0
  0
LINE
  8
LY_3
  6
CONTINUOUS
 62
               3
  5
2EA
 10
-7.7781750000000001
 20
65.500002999999992
 30
0.0
 11
-7.0710689999999996
 21
66.000002999999992
 31
0.0
  0
LINE
  8
LY_3
  6
CONTINUOUS
 62
               3
  5
2EB
 10
-12.374374
 20
67.000006999999997
 30
0.0
 11
-11.667265
 21
67.500009000000006
 31
0.0
  0
LINE
  8
LY_3
  6
CONTINUOUS
 62
               3
  5
2EC
 10
-9.9837830000000007
 20
65.500002999999992
 30
0.0
 11
-17.471411
 21
67.00000399999999
 31
0.0
  0
LINE
  8
LY_3
  6
CONTINUOUS
 62
               3
  5
2ED
 10
-9.9837880000000006
 20
63.75
 30
0.0
 11
-9.9837880000000006
 21
65.5
 31
0.0
  0
LINE
  8
LY_3
  6
CONTINUOUS
 62
               3
  5
2EE
 10
-16.249991999999999
 20
63.75
 30
0.0
 11
-16.249991999999999
 21
66.755318000000003
 31
0.0
  0
LINE
  8
LY_3
  6
CONTINUOUS
 62
               3
  5
2EF
 10
7.0710639999999998
 20
66.000000999999997
 30
0.0
 11
11.667258
 21
67.500000999999997
 31
0.0
  0
LINE
  8
LY_3
  6
CONTINUOUS
 62
               3
  5
2F0
 10
12.374366999999999
 20
67.000000999999997
 30
0.0
 11
7.7781729999999998
 21
65.500000999999997
 31
0.0
  0
LINE
  8
LY_3
  6
CONTINUOUS
 62
               3
  5
2F1
 10
7.0710649999999999
 20
65.999997000000008
 30
0.0
 11
7.7781729999999998
 21
65.49999600000001
 31
0.0
  0
LINE
  8
LY_3
  6
CONTINUOUS
 62
               3
  5
2F2
 10
11.667256999999999
 20
67.499998000000005
 30
0.0
 11
12.374366
 21
66.999997000000008
 31
0.0
  0
LINE
  8
LY_3
  6
CONTINUOUS
 62
               3
  5
2F3
 10
9.9837799999999994
 20
65.499997000000008
 30
0.0
 11
17.471408
 21
66.999998000000005
 31
0.0
  0
LINE
  8
LY_3
  6
CONTINUOUS
 62
               3
  5
2F4
 10
9.9837799999999994
 20
63.75
 30
0.0
 11
9.9837799999999994
 21
65.5
 31
0.0
  0
LINE
  8
LY_3
  6
CONTINUOUS
 62
               3
  5
2F5
 10
16.25
 20
63.75
 30
0.0
 11
16.25
 21
66.755318000000003
 31
0.0
  0
LINE
  8
LY_3
  6
CONTINUOUS
 62
               3
  5
2F6
 10
21.0
 20
-14.0
 30
0.0
 11
31.0
 21
-14.0
 31
0.0
  0
LINE
  8
LY_3
  6
CONTINUOUS
 62
               3
  5
2F7
 10
31.0
 20
-14.0
 30
0.0
 11
31.0
 21
-13.0
 31
0.0
  0
LINE
  8
LY_3
  6
CONTINUOUS
 62
               3
  5
2F8
 10
21.0
 20
-14.0
 30
0.0
 11
21.0
 21
-13.0
 31
0.0
  0
LINE
  8
LY_3
  6
DASHED
 62
               3
  5
2F9
 10
28.650002000000001
 20
-14.0
 30
0.0
 11
28.650002000000001
 21
-13.0
 31
0.0
  0
LINE
  8
LY_3
  6
DASHED
 62
               3
  5
2FA
 10
23.349997999999999
 20
-14.0
 30
0.0
 11
23.349997999999999
 21
-13.0
 31
0.0
  0
LINE
  8
LY_3
  6
CONTINUOUS
 62
               3
  5
2FB
 10
-16.5
 20
73.75
 30
0.0
 11
-16.5
 21
70.25
 31
0.0
  0
LINE
  8
LY_3
  6
CONTINUOUS
 62
               3
  5
2FC
 10
-28.462859999999999
 20
79.5
 30
0.0
 11
-18.507576
 21
79.5
 31
0.0
  0
LINE
  8
LY_3
  6
CONTINUOUS
 62
               3
  5
2FD
 10
-28.5
 20
64.5
 30
0.0
 11
-18.75
 21
64.5
 31
0.0
  0
LINE
  8
LY_3
  6
CONTINUOUS
 62
               3
  5
2FE
 10
22.5
 20
79.5
 30
0.0
 11
31.0
 21
79.5
 31
0.0
  0
LINE
  8
LY_3
  6
CONTINUOUS
 62
               3
  5
2FF
 10
22.5
 20
64.5
 30
0.0
 11
31.0
 21
64.5
 31
0.0
  0
LINE
  8
LY_3
  6
CONTINUOUS
 62
               3
  5
300
 10
-18.0
 20
80.25
 30
0.0
 11
21.75
 21
80.25
 31
0.0
  0
LINE
  8
LY_3
  6
CONTINUOUS
 62
               3
  5
301
 10
-18.0
 20
63.75
 30
0.0
 11
21.75
 21
63.75
 31
0.0
  0
LINE
  8
LY_3
  6
CONTINUOUS
 62
               3
  5
302
 10
-29.5
 20
70.25
 30
0.0
 11
-29.5
 21
65.5
 31
0.0
  0
LINE
  8
LY_3
  6
CONTINUOUS
 62
               3
  5
303
 10
19.0
 20
69.25
 30
0.0
 11
33.0
 21
69.25
 31
0.0
  0
LINE
  8
LY_3
  6
CONTINUOUS
 62
               3
  5
304
 10
19.0
 20
74.75
 30
0.0
 11
33.0
 21
74.75
 31
0.0
  0
LINE
  8
LY_3
  6
CONTINUOUS
 62
               3
  5
305
 10
39.0
 20
-36.0
 30
0.0
 11
32.5
 21
-36.0
 31
0.0
  0
LINE
  8
LY_3
  6
CONTINUOUS
 62
               3
  5
306
 10
30.5
 20
-34.0
 30
0.0
 11
30.5
 21
-27.0
 31
0.0
  0
LINE
  8
LY_3
  6
CONTINUOUS
 62
               3
  5
307
 10
19.5
 20
-36.0
 30
0.0
 11
13.0
 21
-36.0
 31
0.0
  0
LINE
  8
LY_3
  6
CONTINUOUS
 62
               3
  5
308
 10
21.5
 20
-34.0
 30
0.0
 11
21.5
 21
-27.0
 31
0.0
  0
LINE
  8
LY_3
  6
DASHED
 62
             110
  5
309
 10
23.5
 20
-26.0
 30
0.0
 11
23.5
 21
-14.0
 31
0.0
  0
LINE
  8
LY_3
  6
DASHED
 62
             110
  5
30A
 10
28.5
 20
-26.0
 30
0.0
 11
28.5
 21
-14.0
 31
0.0
  0
LINE
  8
LY_3
  6
DASHED
 62
             110
  5
30B
 10
24.0
 20
-26.0
 30
0.0
 11
24.0
 21
-14.0
 31
0.0
  0
LINE
  8
LY_3
  6
DASHED
 62
             110
  5
30C
 10
28.0
 20
-26.0
 30
0.0
 11
28.0
 21
-14.0
 31
0.0
  0
LINE
  8
LY_3
  6
CONTINUOUS
 62
               3
  5
30D
 10
30.030273000000001
 20
-26.0
 30
0.0
 11
21.969726999999999
 21
-26.0
 31
0.0
  0
LINE
  8
LY_3
  6
CONTINUOUS
 62
               3
  5
30E
 10
30.529299000000002
 20
-25.531189000000001
 30
0.0
 11
31.216799000000002
 21
-14.531188999999999
 31
0.0
  0
LINE
  8
LY_3
  6
CONTINUOUS
 62
               3
  5
30F
 10
21.470699
 20
-25.531189000000001
 30
0.0
 11
20.783199
 21
-14.531188999999999
 31
0.0
  0
LINE
  8
LY_3
  6
CONTINUOUS
 62
               3
  5
310
 10
11.0
 20
-34.0
 30
0.0
 11
11.0
 21
-32.0
 31
0.0
  0
LINE
  8
LY_3
  6
CONTINUOUS
 62
               3
  5
311
 10
41.0
 20
-34.0
 30
0.0
 11
41.0
 21
-32.0
 31
0.0
  0
LINE
  8
LY_3
  6
CONTINUOUS
 62
             110
  5
312
 10
13.0
 20
-33.0
 30
0.0
 11
13.0
 21
-32.0
 31
0.0
  0
LINE
  8
LY_3
  6
CONTINUOUS
 62
             110
  5
313
 10
18.5
 20
-34.0
 30
0.0
 11
14.0
 21
-34.0
 31
0.0
  0
LINE
  8
LY_3
  6
CONTINUOUS
 62
             110
  5
314
 10
19.5
 20
-33.0
 30
0.0
 11
19.5
 21
-25.671341000000002
 31
0.0
  0
LINE
  8
LY_3
  6
CONTINUOUS
 62
             110
  5
315
 10
19.474594
 20
-25.655946
 30
0.0
 11
19.253375999999999
 21
-22.116454999999998
 31
0.0
  0
LINE
  8
LY_3
  6
CONTINUOUS
 62
             110
  5
316
 10
32.5
 20
-33.0
 30
0.0
 11
32.5
 21
-25.671341000000002
 31
0.0
  0
LINE
  8
LY_3
  6
CONTINUOUS
 62
             110
  5
317
 10
33.5
 20
-34.0
 30
0.0
 11
38.0
 21
-34.0
 31
0.0
  0
LINE
  8
LY_3
  6
CONTINUOUS
 62
             110
  5
318
 10
39.0
 20
-33.0
 30
0.0
 11
39.0
 21
-32.0
 31
0.0
  0
LINE
  8
LY_3
  6
CONTINUOUS
 62
             110
  5
319
 10
32.525404000000002
 20
-25.655944999999999
 30
0.0
 11
32.746622000000002
 21
-22.116454999999998
 31
0.0
  0
ARC
  8
LY_3
  6
CONTINUOUS
 62
               3
  5
31A
 10
-23.5
 20
-7.0
 30
0.0
 40
6.0
 50
90.000003000000007
 51
211.63453200000004
  0
ARC
  8
LY_3
  6
DASHED
 62
             110
  5
31B
 10
0.0
 20
0.0
 30
0.0
 40
17.5
 50
3.2758289999999999
 51
176.72419199999999
  0
ARC
  8
LY_3
  6
CONTINUOUS
 62
               3
  5
31C
 10
-23.5
 20
7.0
 30
0.0
 40
6.0
 50
148.365478
 51
270.000001
  0
CIRCLE
  8
LY_3
  6
CONTINUOUS
 62
               3
  5
31D
 10
26.0
 20
-7.0
 30
0.0
 40
2.5
  0
CIRCLE
  8
LY_3
  6
CONTINUOUS
 62
               3
  5
31E
 10
26.0
 20
7.0
 30
0.0
 40
2.5
  0
ARC
  8
LY_3
  6
DASHED
 62
             110
  5
31F
 10
0.0
 20
0.0
 30
0.0
 40
17.5
 50
183.27580800000001
 51
356.72417100000001
  0
ARC
  8
LY_3
  6
CONTINUOUS
 62
               3
  5
320
 10
30.0
 20
10.0
 30
0.0
 40
3.0
 50
0.0
 51
90.000003000000007
  0
ARC
  8
LY_3
  6
CONTINUOUS
 62
               3
  5
321
 10
30.0
 20
4.0
 30
0.0
 40
3.0
 50
269.99999700000001
 51
0.0
  0
ARC
  8
LY_3
  6
CONTINUOUS
 62
               3
  5
322
 10
30.0
 20
-4.0
 30
0.0
 40
3.0
 50
0.0
 51
90.000003000000007
  0
ARC
  8
LY_3
  6
CONTINUOUS
 62
               3
  5
323
 10
30.0
 20
-10.0
 30
0.0
 40
3.0
 50
269.99999700000001
 51
0.0
  0
ARC
  8
LY_3
  6
CONTINUOUS
 62
               3
  5
324
 10
-28.5
 20
78.5
 30
0.0
 40
1.0
 50
90.000003000000007
 51
180.00000499999999
  0
ARC
  8
LY_3
  6
CONTINUOUS
 62
               3
  5
325
 10
-28.5
 20
65.5
 30
0.0
 40
1.0
 50
179.99999099999999
 51
270.000001
  0
ARC
  8
LY_3
  6
CONTINUOUS
 62
               3
  5
326
 10
0.0
 20
0.0
 30
0.0
 40
22.5
 50
2.5473180000000002
 51
100.330001
  0
ARC
  8
LY_3
  6
CONTINUOUS
 62
               3
  5
327
 10
20.790623
 20
18.0
 30
0.0
 40
5.0
 50
220.88519299999999
 51
269.99999700000001
  0
ARC
  8
LY_3
  6
CONTINUOUS
 62
               3
  5
328
 10
20.790623
 20
-18.0
 30
0.0
 40
5.0
 50
90.000003000000007
 51
139.11480700000001
  0
ARC
  8
LY_3
  6
CONTINUOUS
 62
               3
  5
329
 10
0.0
 20
0.0
 30
0.0
 40
22.5
 50
259.66999900000002
 51
357.45268199999998
  0
ARC
  8
LY_3
  6
CONTINUOUS
 62
               3
  5
32A
 10
-43.0
 20
0.0
 30
0.0
 40
25.0
 50
323.50640499999997
 51
357.70755700000001
  0
ARC
  8
LY_3
  6
CONTINUOUS
 62
               3
  5
32B
 10
-43.0
 20
0.0
 30
0.0
 40
25.0
 50
2.292443
 51
36.493594999999999
  0
ARC
  8
LY_3
  6
CONTINUOUS
 62
               3
  5
32C
 10
1.553787
 20
-20.500004000000001
 30
0.0
 40
43.0
 50
97.467476000000019
 51
134.54326599999999
  0
ARC
  8
LY_3
  6
CONTINUOUS
 62
               3
  5
32D
 10
1.553787
 20
20.500004000000001
 30
0.0
 40
43.0
 50
225.45673400000001
 51
262.53252400000002
  0
ARC
  8
LY_3
  6
CONTINUOUS
 62
               3
  5
32E
 10
0.0
 20
0.0
 30
0.0
 40
11.5
 50
21.428279
 51
158.57174800000001
  0
ARC
  8
LY_3
  6
CONTINUOUS
 62
               3
  5
32F
 10
0.0
 20
0.0
 30
0.0
 40
11.5
 50
201.42826600000001
 51
338.57172100000003
  0
ARC
  8
LY_3
  6
CONTINUOUS
 62
               3
  5
330
 10
31.0
 20
77.5
 30
0.0
 40
2.0
 50
0.0
 51
90.000003000000007
  0
ARC
  8
LY_3
  6
CONTINUOUS
 62
               3
  5
331
 10
31.0
 20
66.5
 30
0.0
 40
2.0
 50
269.99999700000001
 51
0.0
  0
ARC
  8
LY_3
  6
CONTINUOUS
 62
               3
  5
332
 10
-18.75
 20
63.75
 30
0.0
 40
0.75
 50
0.0
 51
90.000003000000007
  0
ARC
  8
LY_3
  6
CONTINUOUS
 62
               3
  5
333
 10
-18.75
 20
80.25
 30
0.0
 40
0.75
 50
269.99999700000001
 51
0.0
  0
ARC
  8
LY_3
  6
CONTINUOUS
 62
               3
  5
334
 10
21.75
 20
64.5
 30
0.0
 40
0.75
 50
269.99999700000001
 51
0.0
  0
ARC
  8
LY_3
  6
CONTINUOUS
 62
               3
  5
335
 10
21.75
 20
79.5
 30
0.0
 40
0.75
 50
0.0
 51
90.000003000000007
  0
ARC
  8
LY_3
  6
CONTINUOUS
 62
               3
  5
336
 10
13.0
 20
-34.0
 30
0.0
 40
2.0
 50
184.96450400000001
 51
270.00000399999999
  0
ARC
  8
LY_3
  6
CONTINUOUS
 62
               3
  5
337
 10
39.0
 20
-34.0
 30
0.0
 40
2.0
 50
270.00000399999999
 51
0.0000049999999943
  0
ARC
  8
LY_3
  6
CONTINUOUS
 62
               3
  5
338
 10
19.5
 20
-34.0
 30
0.0
 40
2.0
 50
270.00000399999999
 51
0.0000049999999943
  0
ARC
  8
LY_3
  6
CONTINUOUS
 62
               3
  5
339
 10
32.5
 20
-34.0
 30
0.0
 40
2.0
 50
179.99999500000001
 51
270.00000399999999
  0
ARC
  8
LY_3
  6
CONTINUOUS
 62
               3
  5
33A
 10
30.030273000000001
 20
-25.5
 30
0.0
 40
0.5
 50
270.00000399999999
 51
356.42366299999998
  0
ARC
  8
LY_3
  6
CONTINUOUS
 62
               3
  5
33B
 10
30.717773000000001
 20
-14.5
 30
0.0
 40
0.5
 50
356.42366299999998
 51
90.000003000000035
  0
ARC
  8
LY_3
  6
CONTINUOUS
 62
               3
  5
33C
 10
21.282226999999999
 20
-14.5
 30
0.0
 40
0.5
 50
89.999999000000003
 51
183.576337
  0
ARC
  8
LY_3
  6
CONTINUOUS
 62
               3
  5
33D
 10
21.969726999999999
 20
-25.5
 30
0.0
 40
0.5
 50
183.576337
 51
270.00000399999999
  0
ARC
  8
LY_3
  6
CONTINUOUS
 62
               3
  5
33E
 10
30.94426
 20
-33.492139000000002
 30
0.0
 40
20.0
 50
120.18703099999999
 51
175.72136000000003
  0
ARC
  8
LY_3
  6
CONTINUOUS
 62
               3
  5
33F
 10
21.05574
 20
-33.492139000000002
 30
0.0
 40
20.0
 50
4.2786390000000001
 51
59.812966999999993
  0
ARC
  8
LY_3
  6
CONTINUOUS
 62
             110
  5
340
 10
30.94426
 20
-33.492139000000002
 30
0.0
 40
18.0
 50
138.28018900000001
 51
175.72136000000003
  0
ARC
  8
LY_3
  6
CONTINUOUS
 62
             110
  5
341
 10
18.255324999999999
 20
-22.178833000000001
 30
0.0
 40
1.0
 50
3.5763319999999998
 51
138.28018900000001
  0
ARC
  8
LY_3
  6
CONTINUOUS
 62
             110
  5
342
 10
14.0
 20
-33.0
 30
0.0
 40
1.0
 50
179.99999500000001
 51
270.00000399999999
  0
ARC
  8
LY_3
  6
CONTINUOUS
 62
             110
  5
343
 10
18.5
 20
-33.0
 30
0.0
 40
1.0
 50
270.00000399999999
 51
0.0000049999999943
  0
ARC
  8
LY_3
  6
CONTINUOUS
 62
             110
  5
344
 10
33.5
 20
-33.0
 30
0.0
 40
1.0
 50
179.99999500000001
 51
270.00000399999999
  0
ARC
  8
LY_3
  6
CONTINUOUS
 62
             110
  5
345
 10
38.0
 20
-33.0
 30
0.0
 40
1.0
 50
270.00000399999999
 51
0.0000049999999943
  0
ARC
  8
LY_3
  6
CONTINUOUS
 62
             110
  5
346
 10
21.05574
 20
-33.492139000000002
 30
0.0
 40
18.0
 50
4.2786390000000001
 51
41.719824000000003
  0
ARC
  8
LY_3
  6
CONTINUOUS
 62
             110
  5
347
 10
33.744678
 20
-22.178833000000001
 30
0.0
 40
1.0
 50
41.719824000000003
 51
176.42366699999999
  0
ARC
  8
LY_3
  6
CONTINUOUS
 62
               3
  5
348
 10
29.5
 20
-27.0
 30
0.0
 40
1.0
 50
359.99999000000003
 51
89.999999000000017
  0
ARC
  8
LY_3
  6
CONTINUOUS
 62
               3
  5
349
 10
22.5
 20
-27.0
 30
0.0
 40
1.0
 50
89.999999000000003
 51
179.99999500000001
  0
TEXT
  8
LY_3
  6
CONTINUOUS
 62
             110
  5
34A
 10
-8.596160888671875
 20
51.599999904632568
 30
0.0
 40
4.8000001907348633
  1
Ａ－Ａ視
 41
0.833333300219643
  7
MX_NOTE_STANDARD
 72
               1
 11
1.0
 21
54.0
 31
0.0
 73
               2
  0
TEXT
  8
LY_3
  6
CONTINUOUS
 62
             110
  5
34B
 10
-59.900000095367432
 20
2.5999999046325684
 30
0.0
 40
4.8000001907348633
  1
A
  7
MX_NOTE_STANDARD
 72
               1
 11
-57.5
 21
5.0
 31
0.0
 73
               2
  0
TEXT
  8
LY_3
  6
CONTINUOUS
 62
             110
  5
34C
 10
60.099999904632568
 20
2.5999999046325684
 30
0.0
 40
4.8000001907348633
  1
A
  7
MX_NOTE_STANDARD
 72
               1
 11
62.5
 21
5.0
 31
0.0
 73
               2
  0
POLYLINE
  8
LY_3
  6
CONTINUOUS
 62
             110
  5
34D
 66
               1
 10
0.0
 20
0.0
 30
0.0
  0
VERTEX
  8
LY_3
  6
CONTINUOUS
 62
             110
  5
371
 10
-52.5
 20
0.0
 30
0.0
  0
VERTEX
  8
LY_3
  6
CONTINUOUS
 62
             110
  5
372
 10
-52.5
 20
10.0
 30
0.0
  0
SEQEND
  8
LY_3
  6
CONTINUOUS
 62
             110
  5
373
  0
INSERT
  8
LY_3
  6
CONTINUOUS
 62
             110
  5
34E
  2
_OPEN30
 10
-52.5
 20
0.0
 30
0.0
 41
2.77
 42
2.77
 50
270.0
 43
2.77
  0
POLYLINE
  8
LY_3
  6
CONTINUOUS
 62
             110
  5
34F
 66
               1
 10
0.0
 20
0.0
 30
0.0
  0
VERTEX
  8
LY_3
  6
CONTINUOUS
 62
             110
  5
374
 10
57.5
 20
0.0
 30
0.0
  0
VERTEX
  8
LY_3
  6
CONTINUOUS
 62
             110
  5
375
 10
57.5
 20
10.0
 30
0.0
  0
SEQEND
  8
LY_3
  6
CONTINUOUS
 62
             110
  5
376
  0
INSERT
  8
LY_3
  6
CONTINUOUS
 62
             110
  5
350
  2
_OPEN30
 10
57.5
 20
0.0
 30
0.0
 41
2.77
 42
2.77
 50
270.0
 43
2.77
  0
CIRCLE
  8
LY_3
  6
CONTINUOUS
 62
               3
  5
351
 10
26.0
 20
7.0
 30
0.0
 40
2.2000000000000002
  0
LINE
  8
LY_3
  6
DASHED
 62
             110
  5
352
 10
-25.199999999999999
 20
64.5
 30
0.0
 11
-25.199999999999999
 21
70.25
 31
0.0
  0
LINE
  8
LY_3
  6
DASHED
 62
             110
  5
353
 10
-21.199999999999999
 20
64.5
 30
0.0
 11
-21.199999999999999
 21
70.25
 31
0.0
  0
LINE
  8
LY_3
  6
DASHED
 62
             110
  5
354
 10
-25.199999999999999
 20
73.75
 30
0.0
 11
-25.199999999999999
 21
79.5
 31
0.0
  0
LINE
  8
LY_3
  6
DASHED
 62
             110
  5
355
 10
-21.199999999999999
 20
73.75
 30
0.0
 11
-21.199999999999999
 21
79.5
 31
0.0
  0
LINE
  8
LY_3
  6
DASHED
 62
             110
  5
356
 10
23.5
 20
64.5
 30
0.0
 11
23.5
 21
69.25
 31
0.0
  0
LINE
  8
LY_3
  6
DASHED
 62
             110
  5
357
 10
28.5
 20
64.5
 30
0.0
 11
28.5
 21
69.25
 31
0.0
  0
LINE
  8
LY_3
  6
DASHED
 62
             110
  5
358
 10
28.5
 20
74.75
 30
0.0
 11
28.5
 21
79.5
 31
0.0
  0
LINE
  8
LY_3
  6
DASHED
 62
             110
  5
359
 10
23.5
 20
74.75
 30
0.0
 11
23.5
 21
79.5
 31
0.0
  0
CIRCLE
  8
LY_3
  6
CONTINUOUS
 62
               3
  5
35A
 10
-23.199999999999999
 20
7.2999999999999998
 30
0.0
 40
2.0
  0
CIRCLE
  8
LY_3
  6
CONTINUOUS
 62
               3
  5
35B
 10
-23.199999999999999
 20
7.2999999999999998
 30
0.0
 40
1.7
  0
CIRCLE
  8
LY_3
  6
CONTINUOUS
 62
               3
  5
35C
 10
-23.199999999999999
 20
-7.2999999999999998
 30
0.0
 40
1.7
  0
CIRCLE
  8
LY_3
  6
CONTINUOUS
 62
               3
  5
35D
 10
-23.199999999999999
 20
-7.2999999999999998
 30
0.0
 40
2.0
  0
ENDSEC
  0
EOF
