  0
SECTION
  2
HEADER
  9
$ACADVER
  1
AC1009
  9
$DWGCODEPAGE
  3
dos932
  9
$INSBASE
 10
0.0
 20
0.0
 30
0.0
  9
$EXTMIN
 10
-6.9185009002685547
 20
-80.000003062360975
 30
0.0
  9
$EXTMAX
 10
96.506211878808529
 20
20.000000744948547
 30
0.0
  9
$LIMMIN
 10
-6.9185009002685547
 20
-80.000003062360975
  9
$LIMMAX
 10
96.506211878808529
 20
20.000000744948547
  9
$ORTHOMODE
 70
               0
  9
$REGENMODE
 70
               1
  9
$FILLMODE
 70
               1
  9
$QTEXTMODE
 70
               0
  9
$MIRRTEXT
 70
               1
  9
$DRAGMODE
 70
               2
  9
$LTSCALE
 40
1.0
  9
$OSMODE
 70
               0
  9
$ATTMODE
 70
               1
  9
$TEXTSIZE
 40
3.2000000476837158
  9
$TRACEWID
 40
0.05
  9
$TEXTSTYLE
  7
MX_NOTE_STANDARD
  9
$CLAYER
  8
LY_3
  9
$CELTYPE
  6
CONTINUOUS
  9
$CECOLOR
 62
             256
  9
$DIMSCALE
 40
1.0
  9
$DIMASZ
 40
2.5
  9
$DIMEXO
 40
2.0
  9
$DIMDLI
 40
3.75
  9
$DIMRND
 40
0.0
  9
$DIMDLE
 40
0.0
  9
$DIMEXE
 40
1.0
  9
$DIMTP
 40
0.0
  9
$DIMTM
 40
0.0
  9
$DIMTXT
 40
4.1655998229980469
  9
$DIMCEN
 40
2.5
  9
$DIMTSZ
 40
0.0
  9
$DIMTOL
 70
               0
  9
$DIMLIM
 70
               0
  9
$DIMTIH
 70
               0
  9
$DIMTOH
 70
               0
  9
$DIMSE1
 70
               0
  9
$DIMSE2
 70
               0
  9
$DIMTAD
 70
               1
  9
$DIMZIN
 70
               8
  9
$DIMBLK
  1

  9
$DIMASO
 70
               1
  9
$DIMSHO
 70
               1
  9
$DIMPOST
  1

  9
$DIMAPOST
  1

  9
$DIMALT
 70
               0
  9
$DIMALTD
 70
               4
  9
$DIMALTF
 40
0.03937007874016
  9
$DIMLFAC
 40
1.0
  9
$DIMTOFL
 70
               1
  9
$DIMTVP
 40
0.0
  9
$DIMTIX
 70
               0
  9
$DIMSOXD
 70
               0
  9
$DIMSAH
 70
               1
  9
$DIMBLK1
  1
_OPEN30
  9
$DIMBLK2
  1
_OPEN30
  9
$DIMSTYLE
  2
MXDIMSTYLE
  9
$DIMCLRD
 70
               0
  9
$DIMCLRE
 70
               0
  9
$DIMCLRT
 70
               0
  9
$DIMTFAC
 40
1.0
  9
$DIMGAP
 40
1.0
  9
$LUNITS
 70
               2
  9
$LUPREC
 70
               4
  9
$AXISMODE
 70
               0
  9
$AXISUNIT
 10
0.0
 20
0.0
  9
$SKETCHINC
 40
0.1
  9
$FILLETRAD
 40
0.0
  9
$AUNITS
 70
               0
  9
$AUPREC
 70
               0
  9
$MENU
  1
acad
  9
$ELEVATION
 40
0.0
  9
$PELEVATION
 40
0.0
  9
$THICKNESS
 40
0.0
  9
$LIMCHECK
 70
               0
  9
$BLIPMODE
 70
               1
  9
$CHAMFERA
 40
0.0
  9
$CHAMFERB
 40
0.0
  9
$SKPOLY
 70
               0
  9
$TDCREATE
 40
2455163.526168982
  9
$TDUPDATE
 40
2455163.526168982
  9
$TDINDWG
 40
0.0000000000
  9
$TDUSRTIMER
 40
0.0000000000
  9
$USRTIMER
 70
               1
  9
$ANGBASE
 50
0.0
  9
$ANGDIR
 70
               0
  9
$PDMODE
 70
               0
  9
$PDSIZE
 40
0.0
  9
$PLINEWID
 40
0.0
  9
$COORDS
 70
               1
  9
$SPLFRAME
 70
               0
  9
$SPLINETYPE
 70
               6
  9
$SPLINESEGS
 70
               8
  9
$ATTDIA
 70
               0
  9
$ATTREQ
 70
               1
  9
$HANDLING
 70
               1
  9
$HANDSEED
  5
D4
  9
$SURFTAB1
 70
               6
  9
$SURFTAB2
 70
               6
  9
$SURFTYPE
 70
               6
  9
$SURFU
 70
               6
  9
$SURFV
 70
               6
  9
$UCSNAME
  2

  9
$UCSORG
 10
0.0
 20
0.0
 30
0.0
  9
$UCSXDIR
 10
1.0
 20
0.0
 30
0.0
  9
$UCSYDIR
 10
0.0
 20
1.0
 30
0.0
  9
$PUCSNAME
  2

  9
$PUCSORG
 10
0.0
 20
0.0
 30
0.0
  9
$PUCSXDIR
 10
1.0
 20
0.0
 30
0.0
  9
$PUCSYDIR
 10
0.0
 20
1.0
 30
0.0
  9
$USERI1
 70
               0
  9
$USERI2
 70
               0
  9
$USERI3
 70
               0
  9
$USERI4
 70
               0
  9
$USERI5
 70
               0
  9
$USERR1
 40
0.0
  9
$USERR2
 40
0.0
  9
$USERR3
 40
0.0
  9
$USERR4
 40
0.0
  9
$USERR5
 40
0.0
  9
$WORLDVIEW
 70
               1
  9
$SHADEDGE
 70
               3
  9
$SHADEDIF
 70
              70
  9
$TILEMODE
 70
               1
  9
$MAXACTVP
 70
              16
  9
$PINSBASE
 10
0.0
 20
0.0
 30
0.0
  9
$PLIMCHECK
 70
               0
  9
$PEXTMIN
 10
1.0000000000000000E+20
 20
1.0000000000000000E+20
 30
1.0000000000000000E+20
  9
$PEXTMAX
 10
-1.0000000000000000E+20
 20
-1.0000000000000000E+20
 30
-1.0000000000000000E+20
  9
$PLIMMIN
 10
0.0
 20
0.0
  9
$PLIMMAX
 10
12.0
 20
9.0
  9
$UNITMODE
 70
               0
  9
$VISRETAIN
 70
               0
  9
$PLINEGEN
 70
               1
  9
$PSLTSCALE
 70
               0
  9
$TREEDEPTH
 70
            3020
  0
ENDSEC
  0
SECTION
  2
TABLES
  0
TABLE
  2
VPORT
 70
               1
  0
VPORT
  2
*ACTIVE
 70
               0
 10
0.0
 20
0.0
 11
1.0
 21
1.0
 12
44.793855489269987
 22
-30.000001158706212
 13
0.0
 23
0.0
 14
1.0
 24
1.0
 15
0.0
 25
0.0
 16
0.0
 26
0.0
 36
1.0
 17
0.0
 27
0.0
 37
0.0
 40
101.00000384538262
 41
1.7320508075688772
 42
50.0
 43
0.0
 44
0.0
 50
0.0
 51
0.0
 71
               0
 72
             100
 73
               1
 74
               1
 75
               0
 76
               0
 77
               0
 78
               0
  0
ENDTAB
  0
TABLE
  2
LTYPE
 70
               3
  0
LTYPE
  2
CONTINUOUS
 70
              64
  3
Solid line
 72
              65
 73
               0
 40
0.0
  0
LTYPE
  2
PHANTOM
 70
              64
  3
Phantom ______  __  __  ______  __  __  ______
 72
              65
 73
               6
 40
63.500000000000007
 49
31.75
 49
-6.3499999999999996
 49
6.3499999999999996
 49
-6.3499999999999996
 49
6.3499999999999996
 49
-6.3499999999999996
  0
LTYPE
  2
CENTER
 70
              64
  3
Center ____ _ ____ _ ____ _ ____ _ ____ _ ____
 72
              65
 73
               4
 40
50.800000000000004
 49
31.75
 49
-6.3499999999999996
 49
6.3499999999999996
 49
-6.3499999999999996
  0
ENDTAB
  0
TABLE
  2
LAYER
 70
               3
  0
LAYER
  2
0
 70
               0
 62
               7
  6
CONTINUOUS
  0
LAYER
  2
DEFPOINTS
 70
               0
 62
               7
  6
CONTINUOUS
  0
LAYER
  2
LY_3
 70
               0
 62
               7
  6
CONTINUOUS
  0
ENDTAB
  0
TABLE
  2
STYLE
 70
               1
  0
STYLE
  2
MX_NOTE_STANDARD
 70
               0
 40
0.0
 41
1.0
 50
0.0
 71
               0
 42
3.2000000476837158
  3
txt.shx
  4
extfont.shx
  0
ENDTAB
  0
TABLE
  2
VIEW
 70
               0
  0
ENDTAB
  0
TABLE
  2
UCS
 70
               0
  0
ENDTAB
  0
TABLE
  2
APPID
 70
               1
  0
APPID
  2
ACAD
 70
               0
  0
ENDTAB
  0
TABLE
  2
DIMSTYLE
 70
               1
  0
DIMSTYLE
  2
MXDIMSTYLE
 70
               0
  3

  4

  5

  6
_OPEN30
  7
_OPEN30
 40
1.0
 41
2.5
 42
2.0
 43
3.75
 44
1.0
 45
0.0
 46
0.0
 47
0.0
 48
0.0
 71
               0
 72
               0
 73
               0
 74
               0
 75
               0
 76
               0
 77
               1
 78
               8
140
4.1655998229980469
141
2.5
142
0.0
143
0.03937007874016
144
1.0
145
0.0
146
1.0
147
1.0
170
               0
171
               4
172
               1
173
               1
174
               0
175
               0
176
               0
177
               0
178
               0
  0
ENDTAB
  0
ENDSEC
  0
SECTION
  2
BLOCKS
  0
BLOCK
  8
0
  6
BYBLOCK
 62
               0
  5
20
  2
_OPEN30
 70
               2
 10
0.0
 20
0.0
 30
0.0
  3
_OPEN30
  0
LINE
  8
0
  6
BYBLOCK
 62
               0
  5
21
 10
-1.0
 20
0.267949
 30
0.0
 11
0.0
 21
0.0
 31
0.0
  0
LINE
  8
0
  6
BYBLOCK
 62
               0
  5
22
 10
0.0
 20
0.0
 30
0.0
 11
-1.0
 21
-0.267949
 31
0.0
  0
LINE
  8
0
  6
BYBLOCK
 62
               0
  5
23
 10
0.0
 20
0.0
 30
0.0
 11
-1.0
 21
0.0
 31
0.0
  0
ENDBLK
  8
0
  6
BYBLOCK
 62
               0
  5
24
  0
ENDSEC
  0
SECTION
  2
ENTITIES
  0
TEXT
  8
LY_3
  6
CONTINUOUS
 62
             110
  5
25
 10
79.029411771800667
 20
-61.600000023841858
 30
0.0
 40
3.2000000476837158
  1
SG-18P
 41
0.9929999876960236
  7
MX_NOTE_STANDARD
 11
79.029411771800667
 21
-58.399999976158142
 31
0.0
 73
               3
  0
TEXT
  8
LY_3
  6
CONTINUOUS
 62
             110
  5
26
 10
79.029411771800667
 20
-1.6000000238418579
 30
0.0
 40
3.2000000476837158
  1
SG-15P
 41
0.9929999876960236
  7
MX_NOTE_STANDARD
 11
79.029411771800667
 21
1.6000000238418579
 31
0.0
 73
               3
  0
LINE
  8
LY_3
  6
CONTINUOUS
 62
               3
  5
27
 10
40.0
 20
20.0
 30
0.0
 11
53.0
 21
20.0
 31
0.0
  0
LINE
  8
LY_3
  6
CONTINUOUS
 62
               3
  5
28
 10
38.99999908871731
 20
18.999999845368905
 30
0.0
 11
40.000000072590723
 21
20.000000744948547
 31
0.0
  0
LINE
  8
LY_3
  6
CONTINUOUS
 62
               3
  5
29
 10
37.999994277954102
 20
17.500003814697266
 30
0.0
 11
39.0
 21
17.500003814697266
 31
0.0
  0
LINE
  8
LY_3
  6
CONTINUOUS
 62
               3
  5
2A
 10
39.0
 20
-19.0
 30
0.0
 11
39.0
 21
19.0
 31
0.0
  0
LINE
  8
LY_3
  6
CONTINUOUS
 62
               3
  5
2B
 10
40.0
 20
-20.0
 30
0.0
 11
40.0
 21
20.0
 31
0.0
  0
LINE
  8
LY_3
  6
CONTINUOUS
 62
               3
  5
2C
 10
53.0
 20
-20.0
 30
0.0
 11
53.0
 21
20.0
 31
0.0
  0
LINE
  8
LY_3
  6
CONTINUOUS
 62
               3
  5
2D
 10
37.999995925907307
 20
-17.500002476443136
 30
0.0
 11
37.999995925907307
 21
17.500002476443136
 31
0.0
  0
LINE
  8
LY_3
  6
PHANTOM
 62
             110
  5
2F
 10
54.0
 20
-7.5
 30
0.0
 11
68.000001907348633
 21
-7.5
 31
0.0
  0
LINE
  8
LY_3
  6
PHANTOM
 62
             110
  5
30
 10
54.0
 20
7.5
 30
0.0
 11
68.000001907348633
 21
7.5
 31
0.0
  0
POLYLINE
  8
LY_3
  6
CONTINUOUS
 62
             110
  5
31
 66
               1
 10
0.0
 20
0.0
 30
0.0
  0
VERTEX
  8
LY_3
  6
CONTINUOUS
 62
             110
  5
92
 10
7.0142075014482579
 20
-12.5
 30
0.0
  0
VERTEX
  8
LY_3
  6
CONTINUOUS
 62
             110
  5
93
 10
7.3383672843356909
 20
-11.640560020931259
 30
0.0
  0
VERTEX
  8
LY_3
  6
CONTINUOUS
 62
             110
  5
94
 10
7.5961795561138441
 20
-10.757801590093425
 30
0.0
  0
VERTEX
  8
LY_3
  6
CONTINUOUS
 62
             110
  5
95
 10
7.8041613336140818
 20
-9.8578754845520926
 30
0.0
  0
VERTEX
  8
LY_3
  6
CONTINUOUS
 62
             110
  5
96
 10
7.9788296336677682
 20
-8.9469324813728566
 30
0.0
  0
VERTEX
  8
LY_3
  6
CONTINUOUS
 62
             110
  5
97
 10
8.1367014731062675
 20
-8.0311233576213112
 30
0.0
  0
VERTEX
  8
LY_3
  6
CONTINUOUS
 62
             110
  5
98
 10
8.2942938687609455
 20
-7.1165988903630542
 30
0.0
  0
VERTEX
  8
LY_3
  6
CONTINUOUS
 62
             110
  5
99
 10
8.468123837463164
 20
-6.2095098566636775
 30
0.0
  0
VERTEX
  8
LY_3
  6
CONTINUOUS
 62
             110
  5
9A
 10
8.6747083960442897
 20
-5.3160070335887779
 30
0.0
  0
VERTEX
  8
LY_3
  6
CONTINUOUS
 62
             110
  5
9B
 10
8.9305645613356859
 20
-4.4422411982039449
 30
0.0
  0
VERTEX
  8
LY_3
  6
CONTINUOUS
 62
             110
  5
9C
 10
9.26321890072151
 20
-3.5557150799454584
 30
0.0
  0
VERTEX
  8
LY_3
  6
CONTINUOUS
 62
             110
  5
9D
 10
9.656659583387583
 20
-2.6928199638292414
 30
0.0
  0
VERTEX
  8
LY_3
  6
CONTINUOUS
 62
             110
  5
9E
 10
10.099951023015732
 20
-1.8489643365942521
 30
0.0
  0
VERTEX
  8
LY_3
  6
CONTINUOUS
 62
             110
  5
9F
 10
10.582157633287784
 20
-1.0195566849794488
 30
0.0
  0
VERTEX
  8
LY_3
  6
CONTINUOUS
 62
             110
  5
A0
 10
11.092343827885566
 20
-0.2000054957237909
 30
0.0
  0
VERTEX
  8
LY_3
  6
CONTINUOUS
 62
             110
  5
A1
 10
11.619574020490905
 20
0.6142807444337644
 30
0.0
  0
VERTEX
  8
LY_3
  6
CONTINUOUS
 62
             110
  5
A2
 10
12.152912624785632
 20
1.4278935487542572
 30
0.0
  0
VERTEX
  8
LY_3
  6
CONTINUOUS
 62
             110
  5
A3
 10
12.681424054451568
 20
2.2454244304987281
 30
0.0
  0
VERTEX
  8
LY_3
  6
CONTINUOUS
 62
             110
  5
A4
 10
13.194172723170547
 20
3.0714649029282191
 30
0.0
  0
VERTEX
  8
LY_3
  6
CONTINUOUS
 62
             110
  5
A5
 10
13.680223044624391
 20
3.9106064793037731
 30
0.0
  0
VERTEX
  8
LY_3
  6
CONTINUOUS
 62
             110
  5
A6
 10
14.108268113637637
 20
4.7215114077534581
 30
0.0
  0
VERTEX
  8
LY_3
  6
CONTINUOUS
 62
             110
  5
A7
 10
14.504158781039314
 20
5.5468921725912317
 30
0.0
  0
VERTEX
  8
LY_3
  6
CONTINUOUS
 62
             110
  5
A8
 10
14.869564497578533
 20
6.3853232038065544
 30
0.0
  0
VERTEX
  8
LY_3
  6
CONTINUOUS
 62
             110
  5
A9
 10
15.206154714004406
 20
7.2353789313888894
 30
0.0
  0
VERTEX
  8
LY_3
  6
CONTINUOUS
 62
             110
  5
AA
 10
15.515598881066042
 20
8.0956337853276992
 30
0.0
  0
VERTEX
  8
LY_3
  6
CONTINUOUS
 62
             110
  5
AB
 10
15.799566449512552
 20
8.9646621956124406
 30
0.0
  0
VERTEX
  8
LY_3
  6
CONTINUOUS
 62
             110
  5
AC
 10
16.059726870093048
 20
9.8410385922325805
 30
0.0
  0
VERTEX
  8
LY_3
  6
CONTINUOUS
 62
             110
  5
AD
 10
16.297749593556638
 20
10.723337405177578
 30
0.0
  0
VERTEX
  8
LY_3
  6
CONTINUOUS
 62
             110
  5
AE
 10
16.515304070652434
 20
11.610133064436898
 30
0.0
  0
VERTEX
  8
LY_3
  6
CONTINUOUS
 62
             110
  5
AF
 10
16.71405975212955
 20
12.499999999999996
 30
0.0
  0
SEQEND
  8
LY_3
  6
CONTINUOUS
 62
             110
  5
B0
  0
LINE
  8
LY_3
  6
PHANTOM
 62
             110
  5
32
 10
3.5
 20
-69.0
 30
0.0
 11
7.9603722574742406
 21
-69.0
 31
0.0
  0
LINE
  8
LY_3
  6
PHANTOM
 62
             110
  5
33
 10
15.811615841500299
 20
-51.0
 30
0.0
 11
3.5
 21
-51.0
 31
0.0
  0
LINE
  8
LY_3
  6
CONTINUOUS
 62
             110
  5
34
 10
48.125
 20
-2.5760364532470703
 30
0.0
 11
48.125
 21
-20.0
 31
0.0
  0
LINE
  8
LY_3
  6
CONTINUOUS
 62
             110
  5
35
 10
44.875
 20
-2.5206203460693359
 30
0.0
 11
44.875
 21
-20.0
 31
0.0
  0
LINE
  8
LY_3
  6
CONTINUOUS
 62
               3
  5
36
 10
40.0
 20
-20.0
 30
0.0
 11
53.0
 21
-20.0
 31
0.0
  0
LINE
  8
LY_3
  6
CONTINUOUS
 62
               3
  5
37
 10
54.0
 20
19.000003814697266
 30
0.0
 11
54.0
 21
-19.0
 31
0.0
  0
LINE
  8
LY_3
  6
CONTINUOUS
 62
             110
  5
38
 10
43.25
 20
-2.7977008819580078
 30
0.0
 11
43.25
 21
-20.0
 31
0.0
  0
LINE
  8
LY_3
  6
CONTINUOUS
 62
             110
  5
39
 10
41.625
 20
-3.2410297393798828
 30
0.0
 11
41.625
 21
-20.0
 31
0.0
  0
LINE
  8
LY_3
  6
CONTINUOUS
 62
             110
  5
3A
 10
40.0
 20
-18.375
 30
0.0
 11
53.0
 21
-18.375
 31
0.0
  0
LINE
  8
LY_3
  6
CONTINUOUS
 62
             110
  5
3B
 10
46.5
 20
-2.5206203460693359
 30
0.0
 11
46.5
 21
-20.0
 31
0.0
  0
LINE
  8
LY_3
  6
CONTINUOUS
 62
             110
  5
3C
 10
49.75
 20
-2.9085330963134766
 30
0.0
 11
49.75
 21
-20.0
 31
0.0
  0
LINE
  8
LY_3
  6
CONTINUOUS
 62
               3
  5
3D
 10
38.99999908871731
 20
-18.999999845368905
 30
0.0
 11
40.000000072590723
 21
-20.000000744948547
 31
0.0
  0
LINE
  8
LY_3
  6
CONTINUOUS
 62
               3
  5
3E
 10
53.000001030217078
 20
-20.00000331590627
 30
0.0
 11
54.000002066773973
 21
-19.000002195055593
 31
0.0
  0
LINE
  8
LY_3
  6
CONTINUOUS
 62
               3
  5
3F
 10
53.999997767795428
 20
18.999998334713702
 30
0.0
 11
52.999996646944744
 21
19.999999371270597
 31
0.0
  0
LINE
  8
LY_3
  6
CONTINUOUS
 62
             110
  5
40
 10
40.0
 20
-16.75
 30
0.0
 11
53.0
 21
-16.75
 31
0.0
  0
LINE
  8
LY_3
  6
CONTINUOUS
 62
             110
  5
41
 10
40.0
 20
-15.124999046325684
 30
0.0
 11
53.0
 21
-15.124999046325684
 31
0.0
  0
LINE
  8
LY_3
  6
CONTINUOUS
 62
             110
  5
42
 10
40.0
 20
-13.499998092651367
 30
0.0
 11
53.0
 21
-13.499998092651367
 31
0.0
  0
LINE
  8
LY_3
  6
CONTINUOUS
 62
             110
  5
43
 10
40.0
 20
-11.874998092651367
 30
0.0
 11
53.0
 21
-11.874998092651367
 31
0.0
  0
LINE
  8
LY_3
  6
CONTINUOUS
 62
             110
  5
44
 10
40.0
 20
-10.249998092651367
 30
0.0
 11
53.0
 21
-10.249998092651367
 31
0.0
  0
LINE
  8
LY_3
  6
CONTINUOUS
 62
             110
  5
45
 10
40.0
 20
-8.6249980926513672
 30
0.0
 11
53.0
 21
-8.6249980926513672
 31
0.0
  0
LINE
  8
LY_3
  6
CONTINUOUS
 62
             110
  5
46
 10
40.451416015625
 20
-6.9999980926513672
 30
0.0
 11
52.642974853515625
 21
-6.9999980926513672
 31
0.0
  0
LINE
  8
LY_3
  6
CONTINUOUS
 62
             110
  5
47
 10
40.506828308105469
 20
-5.3749980926513672
 30
0.0
 11
52.310478210449219
 21
-5.3749980926513672
 31
0.0
  0
LINE
  8
LY_3
  6
CONTINUOUS
 62
             110
  5
48
 10
41.116409301757813
 20
-3.7499980926513672
 30
0.0
 11
51.867149353027344
 21
-3.7499980926513672
 31
0.0
  0
LINE
  8
LY_3
  6
CONTINUOUS
 62
             110
  5
49
 10
51.375
 20
-3.2964458465576172
 30
0.0
 11
51.375
 21
-20.0
 31
0.0
  0
LINE
  8
LY_3
  6
CONTINUOUS
 62
               3
  5
4A
 10
0.0
 20
12.5
 30
0.0
 11
33.958542346954346
 21
12.5
 31
0.0
  0
LINE
  8
LY_3
  6
CENTER
 62
             110
  5
4C
 10
-6.9185009002685547
 20
0.0
 30
0.0
 11
72.637075424194336
 21
0.0
 31
0.0
  0
LINE
  8
LY_3
  6
CONTINUOUS
 62
               3
  5
4D
 10
35.69059217844692
 20
-13.500001454879524
 30
0.0
 11
37.999994436935914
 21
-17.500003429903821
 31
0.0
  0
LINE
  8
LY_3
  6
CONTINUOUS
 62
               3
  5
4E
 10
0.0
 20
12.5
 30
0.0
 11
0.0
 21
-12.5
 31
0.0
  0
LINE
  8
LY_3
  6
CONTINUOUS
 62
               3
  5
4F
 10
0.0
 20
-12.5
 30
0.0
 11
33.958542346954346
 21
-12.5
 31
0.0
  0
LINE
  8
LY_3
  6
CONTINUOUS
 62
               3
  5
50
 10
3.5
 20
8.0
 30
0.0
 11
15.484095489245822
 21
8.0
 31
0.0
  0
LINE
  8
LY_3
  6
CONTINUOUS
 62
               3
  5
51
 10
0.0
 20
6.5
 30
0.0
 11
3.5
 21
6.5
 31
0.0
  0
LINE
  8
LY_3
  6
CONTINUOUS
 62
               3
  5
52
 10
3.5
 20
-8.0
 30
0.0
 11
3.5
 21
8.0
 31
0.0
  0
LINE
  8
LY_3
  6
CONTINUOUS
 62
               3
  5
53
 10
35.690594046781783
 20
13.500000065100082
 30
0.0
 11
37.999996543689363
 21
17.500002453077471
 31
0.0
  0
LINE
  8
LY_3
  6
CONTINUOUS
 62
               3
  5
54
 10
37.999994277954102
 20
-17.500003814697266
 30
0.0
 11
39.0
 21
-17.500003814697266
 31
0.0
  0
LINE
  8
LY_3
  6
CONTINUOUS
 62
               3
  5
55
 10
3.5
 20
-8.0
 30
0.0
 11
8.1341104947088603
 21
-8.0
 31
0.0
  0
LINE
  8
LY_3
  6
CONTINUOUS
 62
               3
  5
56
 10
0.0
 20
-6.5
 30
0.0
 11
3.5
 21
-6.5
 31
0.0
  0
LINE
  8
LY_3
  6
PHANTOM
 62
             110
  5
57
 10
3.5
 20
7.5
 30
0.0
 11
15.306113100404334
 21
7.5
 31
0.0
  0
LINE
  8
LY_3
  6
PHANTOM
 62
             110
  5
58
 10
3.5
 20
-7.5
 30
0.0
 11
8.2203962690868071
 21
-7.5
 31
0.0
  0
LINE
  8
LY_3
  6
PHANTOM
 62
             110
  5
59
 10
69.000001907348633
 20
6.5
 30
0.0
 11
69.000001907348633
 21
-6.5
 31
0.0
  0
LINE
  8
LY_3
  6
PHANTOM
 62
             110
  5
5A
 10
68.000001907348633
 20
7.5
 30
0.0
 11
68.000001907348633
 21
-7.5
 31
0.0
  0
LINE
  8
LY_3
  6
PHANTOM
 62
             110
  5
5B
 10
68.000000020280311
 20
7.499999738968846
 30
0.0
 11
69.000000003166051
 21
6.4999997560831133
 31
0.0
  0
LINE
  8
LY_3
  6
PHANTOM
 62
             110
  5
5C
 10
68.000000104574042
 20
-7.5000003414918517
 30
0.0
 11
69.000001183277831
 21
-6.4999992627880623
 31
0.0
  0
ARC
  8
LY_3
  6
CONTINUOUS
 62
               3
  5
5D
 10
33.958542346954346
 20
-14.5
 30
0.0
 40
2.0
 50
30.000000834826057
 51
90.000002504478161
  0
ARC
  8
LY_3
  6
CONTINUOUS
 62
               3
  5
5E
 10
33.958542346954346
 20
14.5
 30
0.0
 40
2.0
 50
269.99999749552182
 51
329.99999916517396
  0
LINE
  8
LY_3
  6
CONTINUOUS
 62
             110
  5
5F
 10
48.125
 20
-62.57603645324707
 30
0.0
 11
48.125
 21
-80.0
 31
0.0
  0
LINE
  8
LY_3
  6
CONTINUOUS
 62
             110
  5
60
 10
44.875
 20
-62.520620346069336
 30
0.0
 11
44.875
 21
-80.0
 31
0.0
  0
LINE
  8
LY_3
  6
CONTINUOUS
 62
               3
  5
61
 10
40.0
 20
-80.0
 30
0.0
 11
53.0
 21
-80.0
 31
0.0
  0
LINE
  8
LY_3
  6
CONTINUOUS
 62
               3
  5
62
 10
54.0
 20
-40.999996185302734
 30
0.0
 11
54.0
 21
-79.0
 31
0.0
  0
LINE
  8
LY_3
  6
CONTINUOUS
 62
             110
  5
63
 10
43.25
 20
-62.797700881958008
 30
0.0
 11
43.25
 21
-80.0
 31
0.0
  0
LINE
  8
LY_3
  6
CONTINUOUS
 62
             110
  5
64
 10
41.625
 20
-63.241029739379883
 30
0.0
 11
41.625
 21
-80.0
 31
0.0
  0
LINE
  8
LY_3
  6
CONTINUOUS
 62
             110
  5
65
 10
40.0
 20
-78.375
 30
0.0
 11
53.0
 21
-78.375
 31
0.0
  0
LINE
  8
LY_3
  6
CONTINUOUS
 62
             110
  5
66
 10
46.5
 20
-62.520620346069336
 30
0.0
 11
46.5
 21
-80.0
 31
0.0
  0
LINE
  8
LY_3
  6
CONTINUOUS
 62
             110
  5
67
 10
49.75
 20
-62.908533096313477
 30
0.0
 11
49.75
 21
-80.0
 31
0.0
  0
LINE
  8
LY_3
  6
CONTINUOUS
 62
               3
  5
68
 10
38.999999372876403
 20
-78.999999566790933
 30
0.0
 11
40.000000381782428
 21
-80.000000491403171
 31
0.0
  0
LINE
  8
LY_3
  6
CONTINUOUS
 62
               3
  5
69
 10
53.000001664832325
 20
-80.000003062360975
 30
0.0
 11
54.000002726421826
 21
-79.000001916477686
 31
0.0
  0
LINE
  8
LY_3
  6
CONTINUOUS
 62
             110
  5
6A
 10
40.0
 20
-76.75
 30
0.0
 11
53.0
 21
-76.75
 31
0.0
  0
LINE
  8
LY_3
  6
CONTINUOUS
 62
             110
  5
6B
 10
40.0
 20
-75.124999046325684
 30
0.0
 11
53.0
 21
-75.124999046325684
 31
0.0
  0
LINE
  8
LY_3
  6
CONTINUOUS
 62
             110
  5
6C
 10
40.0
 20
-73.499998092651367
 30
0.0
 11
53.0
 21
-73.499998092651367
 31
0.0
  0
LINE
  8
LY_3
  6
CONTINUOUS
 62
             110
  5
6D
 10
40.0
 20
-71.874998092651367
 30
0.0
 11
53.0
 21
-71.874998092651367
 31
0.0
  0
LINE
  8
LY_3
  6
CONTINUOUS
 62
             110
  5
6E
 10
40.0
 20
-70.249998092651367
 30
0.0
 11
53.0
 21
-70.249998092651367
 31
0.0
  0
LINE
  8
LY_3
  6
CONTINUOUS
 62
             110
  5
6F
 10
40.0
 20
-68.624998092651367
 30
0.0
 11
53.0
 21
-68.624998092651367
 31
0.0
  0
LINE
  8
LY_3
  6
CONTINUOUS
 62
             110
  5
70
 10
40.451416015625
 20
-66.999998092651367
 30
0.0
 11
52.642974853515625
 21
-66.999998092651367
 31
0.0
  0
LINE
  8
LY_3
  6
CONTINUOUS
 62
             110
  5
71
 10
40.506828308105469
 20
-65.374998092651367
 30
0.0
 11
52.310478210449219
 21
-65.374998092651367
 31
0.0
  0
LINE
  8
LY_3
  6
CONTINUOUS
 62
             110
  5
72
 10
41.116409301757813
 20
-63.749998092651367
 30
0.0
 11
51.867149353027344
 21
-63.749998092651367
 31
0.0
  0
LINE
  8
LY_3
  6
CONTINUOUS
 62
             110
  5
73
 10
51.375
 20
-63.296445846557617
 30
0.0
 11
51.375
 21
-80.0
 31
0.0
  0
LINE
  8
LY_3
  6
CENTER
 62
             110
  5
74
 10
-6.9185009002685547
 20
-60.0
 30
0.0
 11
72.637075424194336
 21
-60.0
 31
0.0
  0
LINE
  8
LY_3
  6
CONTINUOUS
 62
               3
  5
75
 10
36.556616564361093
 20
-75.000000076301433
 30
0.0
 11
37.999994297591684
 21
-77.50000359989977
 31
0.0
  0
LINE
  8
LY_3
  6
CONTINUOUS
 62
               3
  5
76
 10
0.0
 20
-46.0
 30
0.0
 11
0.0
 21
-74.0
 31
0.0
  0
LINE
  8
LY_3
  6
CONTINUOUS
 62
               3
  5
77
 10
3.5
 20
-50.5
 30
0.0
 11
15.96229128688319
 21
-50.5
 31
0.0
  0
LINE
  8
LY_3
  6
CONTINUOUS
 62
               3
  5
78
 10
0.0
 20
-52.0
 30
0.0
 11
3.5
 21
-52.0
 31
0.0
  0
LINE
  8
LY_3
  6
CONTINUOUS
 62
               3
  5
79
 10
37.999994277954102
 20
-77.500003814697266
 30
0.0
 11
39.0
 21
-77.500003814697266
 31
0.0
  0
LINE
  8
LY_3
  6
CONTINUOUS
 62
               3
  5
7A
 10
3.5
 20
-69.5
 30
0.0
 11
7.8673439696752183
 21
-69.5
 31
0.0
  0
LINE
  8
LY_3
  6
CONTINUOUS
 62
               3
  5
7B
 10
0.0
 20
-68.0
 30
0.0
 11
3.5
 21
-68.0
 31
0.0
  0
LINE
  8
LY_3
  6
CONTINUOUS
 62
               3
  5
7C
 10
3.5
 20
-69.5
 30
0.0
 11
3.5
 21
-50.5
 31
0.0
  0
LINE
  8
LY_3
  6
PHANTOM
 62
             110
  5
7D
 10
69.000001907348633
 20
-52.000003814697266
 30
0.0
 11
69.000001907348633
 21
-67.999998092651367
 31
0.0
  0
LINE
  8
LY_3
  6
PHANTOM
 62
             110
  5
7E
 10
68.000001907348633
 20
-51.0
 30
0.0
 11
68.000001907348633
 21
-69.0
 31
0.0
  0
LINE
  8
LY_3
  6
PHANTOM
 62
             110
  5
7F
 10
68.000000130482718
 20
-51.000000113423326
 30
0.0
 11
69.00000013840102
 21
-52.000000121341628
 31
0.0
  0
LINE
  8
LY_3
  6
PHANTOM
 62
             110
  5
80
 10
67.999998739636737
 20
-69.000001646798808
 30
0.0
 11
68.999999801226238
 21
-68.000000585209307
 31
0.0
  0
LINE
  8
LY_3
  6
CONTINUOUS
 62
               3
  5
81
 10
0.0
 20
-46.0
 30
0.0
 11
34.824568748474121
 21
-46.0
 31
0.0
  0
LINE
  8
LY_3
  6
CONTINUOUS
 62
               3
  5
82
 10
0.0
 20
-74.0
 30
0.0
 11
34.824565887451172
 21
-74.0
 31
0.0
  0
ARC
  8
LY_3
  6
CONTINUOUS
 62
               3
  5
83
 10
34.824568748474121
 20
-44.0
 30
0.0
 40
2.0
 50
269.99999749552182
 51
329.99999916517396
  0
ARC
  8
LY_3
  6
CONTINUOUS
 62
               3
  5
84
 10
34.824565887451172
 20
-76.0
 30
0.0
 40
2.0
 50
30.000000834826057
 51
90.000002504478161
  0
POLYLINE
  8
LY_3
  6
CONTINUOUS
 62
             110
  5
85
 66
               1
 10
0.0
 20
0.0
 30
0.0
  0
VERTEX
  8
LY_3
  6
CONTINUOUS
 62
             110
  5
B1
 10
6.1825851876057634
 20
-74.0
 30
0.0
  0
VERTEX
  8
LY_3
  6
CONTINUOUS
 62
             110
  5
B2
 10
6.5102271335757473
 20
-73.489886383768265
 30
0.0
  0
VERTEX
  8
LY_3
  6
CONTINUOUS
 62
             110
  5
B3
 10
6.8014073102062653
 20
-72.958870202721613
 30
0.0
  0
VERTEX
  8
LY_3
  6
CONTINUOUS
 62
             110
  5
B4
 10
7.1903543572147059
 20
-72.070440438943734
 30
0.0
  0
VERTEX
  8
LY_3
  6
CONTINUOUS
 62
             110
  5
B5
 10
7.4950223415328479
 20
-71.149140594858679
 30
0.0
  0
VERTEX
  8
LY_3
  6
CONTINUOUS
 62
             110
  5
B6
 10
7.7352050736952656
 20
-70.202858310472891
 30
0.0
  0
VERTEX
  8
LY_3
  6
CONTINUOUS
 62
             110
  5
B7
 10
7.9306963642365318
 20
-69.239481225792815
 30
0.0
  0
VERTEX
  8
LY_3
  6
CONTINUOUS
 62
             110
  5
B8
 10
8.101290023691222
 20
-68.26689698082491
 30
0.0
  0
VERTEX
  8
LY_3
  6
CONTINUOUS
 62
             110
  5
B9
 10
8.2667798625939071
 20
-67.292993215575621
 30
0.0
  0
VERTEX
  8
LY_3
  6
CONTINUOUS
 62
             110
  5
BA
 10
8.4469596914791651
 20
-66.325657570051391
 30
0.0
  0
VERTEX
  8
LY_3
  6
CONTINUOUS
 62
             110
  5
BB
 10
8.6616233208815654
 20
-65.372777684258693
 30
0.0
  0
VERTEX
  8
LY_3
  6
CONTINUOUS
 62
             110
  5
BC
 10
8.9305645613356859
 20
-64.442241198203945
 30
0.0
  0
VERTEX
  8
LY_3
  6
CONTINUOUS
 62
             110
  5
BD
 10
9.2628467047716949
 20
-63.553044868547005
 30
0.0
  0
VERTEX
  8
LY_3
  6
CONTINUOUS
 62
             110
  5
BE
 10
9.656053054599278
 20
-62.688451790448362
 30
0.0
  0
VERTEX
  8
LY_3
  6
CONTINUOUS
 62
             110
  5
BF
 10
10.099227342162665
 20
-61.8437283747325
 30
0.0
  0
VERTEX
  8
LY_3
  6
CONTINUOUS
 62
             110
  5
C0
 10
10.58141329880609
 20
-61.014141032223904
 30
0.0
  0
VERTEX
  8
LY_3
  6
CONTINUOUS
 62
             110
  5
C1
 10
11.091654655873786
 20
-60.194956173747066
 30
0.0
  0
VERTEX
  8
LY_3
  6
CONTINUOUS
 62
             110
  5
C2
 10
11.618995144709979
 20
-59.38144021012647
 30
0.0
  0
VERTEX
  8
LY_3
  6
CONTINUOUS
 62
             110
  5
C3
 10
12.152478496658905
 20
-58.568859552186595
 30
0.0
  0
VERTEX
  8
LY_3
  6
CONTINUOUS
 62
             110
  5
C4
 10
12.681148443064796
 20
-57.752480610751945
 30
0.0
  0
VERTEX
  8
LY_3
  6
CONTINUOUS
 62
             110
  5
C5
 10
13.19404871527188
 20
-56.927569796646992
 30
0.0
  0
VERTEX
  8
LY_3
  6
CONTINUOUS
 62
             110
  5
C6
 10
13.680223044624391
 20
-56.089393520696227
 30
0.0
  0
VERTEX
  8
LY_3
  6
CONTINUOUS
 62
             110
  5
C7
 10
14.133132143486147
 20
-55.229765599320409
 30
0.0
  0
VERTEX
  8
LY_3
  6
CONTINUOUS
 62
             110
  5
C8
 10
14.549977578243848
 20
-54.353617382958703
 30
0.0
  0
VERTEX
  8
LY_3
  6
CONTINUOUS
 62
             110
  5
C9
 10
14.932772947149068
 20
-53.462616325178757
 30
0.0
  0
VERTEX
  8
LY_3
  6
CONTINUOUS
 62
             110
  5
CA
 10
15.283531848453384
 20
-52.558429879548207
 30
0.0
  0
VERTEX
  8
LY_3
  6
CONTINUOUS
 62
             110
  5
CB
 10
15.604267880408372
 20
-51.642725499634707
 30
0.0
  0
VERTEX
  8
LY_3
  6
CONTINUOUS
 62
             110
  5
CC
 10
15.896994641265609
 20
-50.7171706390059
 30
0.0
  0
VERTEX
  8
LY_3
  6
CONTINUOUS
 62
             110
  5
CD
 10
16.163725729276671
 20
-49.783432751229441
 30
0.0
  0
VERTEX
  8
LY_3
  6
CONTINUOUS
 62
             110
  5
CE
 10
16.406474742693128
 20
-48.843179289872978
 30
0.0
  0
VERTEX
  8
LY_3
  6
CONTINUOUS
 62
             110
  5
CF
 10
16.627255279766565
 20
-47.898077708504147
 30
0.0
  0
VERTEX
  8
LY_3
  6
CONTINUOUS
 62
             110
  5
D0
 10
16.828080938748553
 20
-46.949795460690602
 30
0.0
  0
VERTEX
  8
LY_3
  6
CONTINUOUS
 62
             110
  5
D1
 10
17.010965317890665
 20
-45.999999999999993
 30
0.0
  0
SEQEND
  8
LY_3
  6
CONTINUOUS
 62
             110
  5
D2
  0
LINE
  8
LY_3
  6
PHANTOM
 62
             110
  5
86
 10
54.0
 20
-69.0
 30
0.0
 11
68.000001907348633
 21
-69.0
 31
0.0
  0
LINE
  8
LY_3
  6
PHANTOM
 62
             110
  5
87
 10
54.0
 20
-51.0
 30
0.0
 11
68.000001907348633
 21
-51.0
 31
0.0
  0
LINE
  8
LY_3
  6
CONTINUOUS
 62
               3
  5
88
 10
40.0
 20
-40.0
 30
0.0
 11
53.0
 21
-40.0
 31
0.0
  0
LINE
  8
LY_3
  6
CONTINUOUS
 62
               3
  5
89
 10
36.556616564361093
 20
-44.999999923698567
 30
0.0
 11
37.999994297591684
 21
-42.49999640010023
 31
0.0
  0
LINE
  8
LY_3
  6
CONTINUOUS
 62
               3
  5
8A
 10
37.999994277954102
 20
-42.499996185302734
 30
0.0
 11
39.0
 21
-42.499996185302734
 31
0.0
  0
LINE
  8
LY_3
  6
CONTINUOUS
 62
               3
  5
8B
 10
38.999999372876403
 20
-41.000000433209067
 30
0.0
 11
40.000000381782428
 21
-39.999999508596822
 31
0.0
  0
LINE
  8
LY_3
  6
CONTINUOUS
 62
               3
  5
8C
 10
53.000001664832325
 20
-39.999996937639025
 30
0.0
 11
54.000002726421826
 21
-40.999998083522314
 31
0.0
  0
LINE
  8
LY_3
  6
CONTINUOUS
 62
               3
  5
8D
 10
37.999995925907321
 20
-77.500002476443115
 30
0.0
 11
37.999995925907321
 21
-42.499997523556885
 31
0.0
  0
LINE
  8
LY_3
  6
CONTINUOUS
 62
               3
  5
8E
 10
53.0
 20
-40.0
 30
0.0
 11
53.0
 21
-80.0
 31
0.0
  0
LINE
  8
LY_3
  6
CONTINUOUS
 62
               3
  5
8F
 10
40.0
 20
-40.0
 30
0.0
 11
40.0
 21
-80.0
 31
0.0
  0
LINE
  8
LY_3
  6
CONTINUOUS
 62
               3
  5
90
 10
39.0
 20
-79.0
 30
0.0
 11
39.0
 21
-41.0
 31
0.0
  0
ENDSEC
  0
EOF
