  0
SECTION
  2
HEADER
  9
$ACADVER
  1
AC1009
  9
$DWGCODEPAGE
  3
dos932
  9
$INSBASE
 10
0.0
 20
0.0
 30
0.0
  9
$EXTMIN
 10
-5.0
 20
-68.02703583240509
 30
0.0
  9
$EXTMAX
 10
96.506211878808529
 20
18.0
 30
0.0
  9
$LIMMIN
 10
-5.0
 20
-68.02703583240509
  9
$LIMMAX
 10
96.506211878808529
 20
18.0
  9
$ORTHOMODE
 70
               0
  9
$REGENMODE
 70
               1
  9
$FILLMODE
 70
               1
  9
$QTEXTMODE
 70
               0
  9
$MIRRTEXT
 70
               1
  9
$DRAGMODE
 70
               2
  9
$LTSCALE
 40
1.0
  9
$OSMODE
 70
               0
  9
$ATTMODE
 70
               1
  9
$TEXTSIZE
 40
3.2000000476837158
  9
$TRACEWID
 40
0.05
  9
$TEXTSTYLE
  7
MX_NOTE_STANDARD
  9
$CLAYER
  8
LY_3
  9
$CELTYPE
  6
CONTINUOUS
  9
$CECOLOR
 62
             256
  9
$DIMSCALE
 40
1.0
  9
$DIMASZ
 40
2.5
  9
$DIMEXO
 40
2.0
  9
$DIMDLI
 40
3.75
  9
$DIMRND
 40
0.0
  9
$DIMDLE
 40
0.0
  9
$DIMEXE
 40
1.0
  9
$DIMTP
 40
0.0
  9
$DIMTM
 40
0.0
  9
$DIMTXT
 40
4.1655998229980469
  9
$DIMCEN
 40
2.5
  9
$DIMTSZ
 40
0.0
  9
$DIMTOL
 70
               0
  9
$DIMLIM
 70
               0
  9
$DIMTIH
 70
               0
  9
$DIMTOH
 70
               0
  9
$DIMSE1
 70
               0
  9
$DIMSE2
 70
               0
  9
$DIMTAD
 70
               1
  9
$DIMZIN
 70
               8
  9
$DIMBLK
  1

  9
$DIMASO
 70
               1
  9
$DIMSHO
 70
               1
  9
$DIMPOST
  1

  9
$DIMAPOST
  1

  9
$DIMALT
 70
               0
  9
$DIMALTD
 70
               4
  9
$DIMALTF
 40
0.03937007874016
  9
$DIMLFAC
 40
1.0
  9
$DIMTOFL
 70
               1
  9
$DIMTVP
 40
0.0
  9
$DIMTIX
 70
               0
  9
$DIMSOXD
 70
               0
  9
$DIMSAH
 70
               1
  9
$DIMBLK1
  1
_OPEN30
  9
$DIMBLK2
  1
_OPEN30
  9
$DIMSTYLE
  2
MXDIMSTYLE
  9
$DIMCLRD
 70
               0
  9
$DIMCLRE
 70
               0
  9
$DIMCLRT
 70
               0
  9
$DIMTFAC
 40
1.0
  9
$DIMGAP
 40
1.0
  9
$LUNITS
 70
               2
  9
$LUPREC
 70
               4
  9
$AXISMODE
 70
               0
  9
$AXISUNIT
 10
0.0
 20
0.0
  9
$SKETCHINC
 40
0.1
  9
$FILLETRAD
 40
0.0
  9
$AUNITS
 70
               0
  9
$AUPREC
 70
               0
  9
$MENU
  1
acad
  9
$ELEVATION
 40
0.0
  9
$PELEVATION
 40
0.0
  9
$THICKNESS
 40
0.0
  9
$LIMCHECK
 70
               0
  9
$BLIPMODE
 70
               1
  9
$CHAMFERA
 40
0.0
  9
$CHAMFERB
 40
0.0
  9
$SKPOLY
 70
               0
  9
$TDCREATE
 40
2455163.525659722
  9
$TDUPDATE
 40
2455163.525659722
  9
$TDINDWG
 40
0.0000000000
  9
$TDUSRTIMER
 40
0.0000000000
  9
$USRTIMER
 70
               1
  9
$ANGBASE
 50
0.0
  9
$ANGDIR
 70
               0
  9
$PDMODE
 70
               0
  9
$PDSIZE
 40
0.0
  9
$PLINEWID
 40
0.0
  9
$COORDS
 70
               1
  9
$SPLFRAME
 70
               0
  9
$SPLINETYPE
 70
               6
  9
$SPLINESEGS
 70
               8
  9
$ATTDIA
 70
               0
  9
$ATTREQ
 70
               1
  9
$HANDLING
 70
               1
  9
$HANDSEED
  5
105
  9
$SURFTAB1
 70
               6
  9
$SURFTAB2
 70
               6
  9
$SURFTYPE
 70
               6
  9
$SURFU
 70
               6
  9
$SURFV
 70
               6
  9
$UCSNAME
  2

  9
$UCSORG
 10
0.0
 20
0.0
 30
0.0
  9
$UCSXDIR
 10
1.0
 20
0.0
 30
0.0
  9
$UCSYDIR
 10
0.0
 20
1.0
 30
0.0
  9
$PUCSNAME
  2

  9
$PUCSORG
 10
0.0
 20
0.0
 30
0.0
  9
$PUCSXDIR
 10
1.0
 20
0.0
 30
0.0
  9
$PUCSYDIR
 10
0.0
 20
1.0
 30
0.0
  9
$USERI1
 70
               0
  9
$USERI2
 70
               0
  9
$USERI3
 70
               0
  9
$USERI4
 70
               0
  9
$USERI5
 70
               0
  9
$USERR1
 40
0.0
  9
$USERR2
 40
0.0
  9
$USERR3
 40
0.0
  9
$USERR4
 40
0.0
  9
$USERR5
 40
0.0
  9
$WORLDVIEW
 70
               1
  9
$SHADEDGE
 70
               3
  9
$SHADEDIF
 70
              70
  9
$TILEMODE
 70
               1
  9
$MAXACTVP
 70
              16
  9
$PINSBASE
 10
0.0
 20
0.0
 30
0.0
  9
$PLIMCHECK
 70
               0
  9
$PEXTMIN
 10
1.0000000000000000E+20
 20
1.0000000000000000E+20
 30
1.0000000000000000E+20
  9
$PEXTMAX
 10
-1.0000000000000000E+20
 20
-1.0000000000000000E+20
 30
-1.0000000000000000E+20
  9
$PLIMMIN
 10
0.0
 20
0.0
  9
$PLIMMAX
 10
12.0
 20
9.0
  9
$UNITMODE
 70
               0
  9
$VISRETAIN
 70
               0
  9
$PLINEGEN
 70
               1
  9
$PSLTSCALE
 70
               0
  9
$TREEDEPTH
 70
            3020
  0
ENDSEC
  0
SECTION
  2
TABLES
  0
TABLE
  2
VPORT
 70
               1
  0
VPORT
  2
*ACTIVE
 70
               0
 10
0.0
 20
0.0
 11
1.0
 21
1.0
 12
45.753105939404264
 22
-25.013517916202545
 13
0.0
 23
0.0
 14
1.0
 24
1.0
 15
0.0
 25
0.0
 16
0.0
 26
0.0
 36
1.0
 17
0.0
 27
0.0
 37
0.0
 40
86.887306190729149
 41
1.7320508075688772
 42
50.0
 43
0.0
 44
0.0
 50
0.0
 51
0.0
 71
               0
 72
             100
 73
               1
 74
               1
 75
               0
 76
               0
 77
               0
 78
               0
  0
ENDTAB
  0
TABLE
  2
LTYPE
 70
               3
  0
LTYPE
  2
CONTINUOUS
 70
              64
  3
Solid line
 72
              65
 73
               0
 40
0.0
  0
LTYPE
  2
PHANTOM
 70
              64
  3
Phantom ______  __  __  ______  __  __  ______
 72
              65
 73
               6
 40
63.500000000000007
 49
31.75
 49
-6.3499999999999996
 49
6.3499999999999996
 49
-6.3499999999999996
 49
6.3499999999999996
 49
-6.3499999999999996
  0
LTYPE
  2
CENTER
 70
              64
  3
Center ____ _ ____ _ ____ _ ____ _ ____ _ ____
 72
              65
 73
               4
 40
50.800000000000004
 49
31.75
 49
-6.3499999999999996
 49
6.3499999999999996
 49
-6.3499999999999996
  0
ENDTAB
  0
TABLE
  2
LAYER
 70
               3
  0
LAYER
  2
0
 70
               0
 62
               7
  6
CONTINUOUS
  0
LAYER
  2
DEFPOINTS
 70
               0
 62
               7
  6
CONTINUOUS
  0
LAYER
  2
LY_3
 70
               0
 62
               7
  6
CONTINUOUS
  0
ENDTAB
  0
TABLE
  2
STYLE
 70
               1
  0
STYLE
  2
MX_NOTE_STANDARD
 70
               0
 40
0.0
 41
1.0
 50
0.0
 71
               0
 42
3.2000000476837158
  3
txt.shx
  4
extfont.shx
  0
ENDTAB
  0
TABLE
  2
VIEW
 70
               0
  0
ENDTAB
  0
TABLE
  2
UCS
 70
               0
  0
ENDTAB
  0
TABLE
  2
APPID
 70
               1
  0
APPID
  2
ACAD
 70
               0
  0
ENDTAB
  0
TABLE
  2
DIMSTYLE
 70
               1
  0
DIMSTYLE
  2
MXDIMSTYLE
 70
               0
  3

  4

  5

  6
_OPEN30
  7
_OPEN30
 40
1.0
 41
2.5
 42
2.0
 43
3.75
 44
1.0
 45
0.0
 46
0.0
 47
0.0
 48
0.0
 71
               0
 72
               0
 73
               0
 74
               0
 75
               0
 76
               0
 77
               1
 78
               8
140
4.1655998229980469
141
2.5
142
0.0
143
0.03937007874016
144
1.0
145
0.0
146
1.0
147
1.0
170
               0
171
               4
172
               1
173
               1
174
               0
175
               0
176
               0
177
               0
178
               0
  0
ENDTAB
  0
ENDSEC
  0
SECTION
  2
BLOCKS
  0
BLOCK
  8
0
  6
BYBLOCK
 62
               0
  5
20
  2
_OPEN30
 70
               2
 10
0.0
 20
0.0
 30
0.0
  3
_OPEN30
  0
LINE
  8
0
  6
BYBLOCK
 62
               0
  5
21
 10
-1.0
 20
0.267949
 30
0.0
 11
0.0
 21
0.0
 31
0.0
  0
LINE
  8
0
  6
BYBLOCK
 62
               0
  5
22
 10
0.0
 20
0.0
 30
0.0
 11
-1.0
 21
-0.267949
 31
0.0
  0
LINE
  8
0
  6
BYBLOCK
 62
               0
  5
23
 10
0.0
 20
0.0
 30
0.0
 11
-1.0
 21
0.0
 31
0.0
  0
ENDBLK
  8
0
  6
BYBLOCK
 62
               0
  5
24
  0
ENDSEC
  0
SECTION
  2
ENTITIES
  0
TEXT
  8
LY_3
  6
CONTINUOUS
 62
             110
  5
25
 10
79.029411771800667
 20
-51.600000023841858
 30
0.0
 40
3.2000000476837158
  1
DG-18P
 41
0.9929999876960236
  7
MX_NOTE_STANDARD
 11
79.029411771800667
 21
-48.399999976158142
 31
0.0
 73
               3
  0
TEXT
  8
LY_3
  6
CONTINUOUS
 62
             110
  5
26
 10
79.029411771800667
 20
-1.6000000238418579
 30
0.0
 40
3.2000000476837158
  1
DG-15P
 41
0.9929999876960236
  7
MX_NOTE_STANDARD
 11
79.029411771800667
 21
1.6000000238418579
 31
0.0
 73
               3
  0
LINE
  8
LY_3
  6
PHANTOM
 62
             110
  5
28
 10
0.0
 20
-59.0
 30
0.0
 11
7.9743481262577109
 21
-59.0
 31
0.0
  0
LINE
  8
LY_3
  6
CONTINUOUS
 62
               3
  5
29
 10
0.0
 20
-59.5
 30
0.0
 11
7.881353798163806
 21
-59.5
 31
0.0
  0
LINE
  8
LY_3
  6
CONTINUOUS
 62
             110
  5
2A
 10
52.279693603515625
 20
-43.5
 30
0.0
 11
52.279693603515625
 21
-32.0
 31
0.0
  0
LINE
  8
LY_3
  6
CONTINUOUS
 62
             110
  5
2B
 10
57.529693603515625
 20
-43.5
 30
0.0
 11
57.529693603515625
 21
-32.0
 31
0.0
  0
LINE
  8
LY_3
  6
CONTINUOUS
 62
             110
  5
2C
 10
54.904693603515625
 20
-43.5
 30
0.0
 11
54.904693603515625
 21
-32.0
 31
0.0
  0
LINE
  8
LY_3
  6
CONTINUOUS
 62
             110
  5
2D
 10
47.029693603515625
 20
-43.5
 30
0.0
 11
47.029693603515625
 21
-32.0
 31
0.0
  0
LINE
  8
LY_3
  6
CONTINUOUS
 62
             110
  5
2E
 10
41.779693603515625
 20
-43.5
 30
0.0
 11
41.779693603515625
 21
-32.0
 31
0.0
  0
LINE
  8
LY_3
  6
CONTINUOUS
 62
             110
  5
2F
 10
44.404693603515625
 20
-43.5
 30
0.0
 11
44.404693603515625
 21
-32.0
 31
0.0
  0
LINE
  8
LY_3
  6
CONTINUOUS
 62
             110
  5
30
 10
49.654693603515625
 20
-43.5
 30
0.0
 11
49.654693603515625
 21
-32.0
 31
0.0
  0
LINE
  8
LY_3
  6
CONTINUOUS
 62
               3
  5
31
 10
62.769996643066406
 20
-38.311996459960938
 30
0.0
 11
63.769996643066406
 21
-38.311996459960938
 31
0.0
  0
LINE
  8
LY_3
  6
CONTINUOUS
 62
               3
  5
32
 10
62.269977436795976
 20
-37.499998601800272
 30
0.0
 11
62.769984951350423
 21
-38.000013745106955
 31
0.0
  0
LINE
  8
LY_3
  6
CONTINUOUS
 62
               3
  5
33
 10
61.154693603515625
 20
-37.5
 30
0.0
 11
62.269989013671875
 21
-37.5
 31
0.0
  0
LINE
  8
LY_3
  6
CONTINUOUS
 62
             110
  5
34
 10
61.154693603515625
 20
-38.311996459960938
 30
0.0
 11
62.769996643066406
 21
-38.311996459960938
 31
0.0
  0
LINE
  8
LY_3
  6
CONTINUOUS
 62
             110
  5
35
 10
64.269996643066406
 20
-39.472976684570313
 30
0.0
 11
67.269996643066406
 21
-39.472976684570313
 31
0.0
  0
LINE
  8
LY_3
  6
CONTINUOUS
 62
             110
  5
36
 10
64.269996643066406
 20
-36.972976684570313
 30
0.0
 11
67.269996643066406
 21
-36.972976684570313
 31
0.0
  0
LINE
  8
LY_3
  6
CONTINUOUS
 62
             110
  5
37
 10
64.269996643066406
 20
-34.972976684570313
 30
0.0
 11
67.269996643066406
 21
-34.972976684570313
 31
0.0
  0
LINE
  8
LY_3
  6
CONTINUOUS
 62
             110
  5
38
 10
64.269996643066406
 20
-33.472976684570312
 30
0.0
 11
67.269996643066406
 21
-33.472976684570312
 31
0.0
  0
LINE
  8
LY_3
  6
CONTINUOUS
 62
               3
  5
39
 10
64.270030064394547
 20
-31.972993108182649
 30
0.0
 11
63.770028850693073
 21
-32.472994321884116
 31
0.0
  0
LINE
  8
LY_3
  6
CONTINUOUS
 62
               3
  5
3A
 10
64.269996643066406
 20
-31.972976684570313
 30
0.0
 11
67.269996643066406
 21
-31.972976684570313
 31
0.0
  0
LINE
  8
LY_3
  6
CONTINUOUS
 62
             110
  5
3B
 10
39.154693603515625
 20
-35.0
 30
0.0
 11
60.154693603515625
 21
-35.0
 31
0.0
  0
LINE
  8
LY_3
  6
CONTINUOUS
 62
             110
  5
3C
 10
39.154693603515625
 20
-37.0
 30
0.0
 11
60.154693603515625
 21
-37.0
 31
0.0
  0
LINE
  8
LY_3
  6
CONTINUOUS
 62
             110
  5
3D
 10
39.154693603515625
 20
-39.5
 30
0.0
 11
60.154693603515625
 21
-39.5
 31
0.0
  0
LINE
  8
LY_3
  6
CONTINUOUS
 62
             110
  5
3E
 10
39.154693603515625
 20
-42.5
 30
0.0
 11
60.154693603515625
 21
-42.5
 31
0.0
  0
LINE
  8
LY_3
  6
CONTINUOUS
 62
               3
  5
3F
 10
38.0
 20
-35.0
 30
0.0
 11
38.154693603515625
 21
-35.0
 31
0.0
  0
LINE
  8
LY_3
  6
CONTINUOUS
 62
             110
  5
40
 10
37.531196594238281
 20
-35.811996459960938
 30
0.0
 11
38.154693603515625
 21
-35.811996459960938
 31
0.0
  0
LINE
  8
LY_3
  6
CONTINUOUS
 62
               3
  5
41
 10
39.154730201717044
 20
-32.000039668102758
 30
0.0
 11
38.154729123013254
 21
-33.000040746806548
 31
0.0
  0
LINE
  8
LY_3
  6
CONTINUOUS
 62
               3
  5
42
 10
61.15467604597179
 20
-33.000001209749428
 30
0.0
 11
60.154699665253275
 21
-32.00001724274847
 31
0.0
  0
LINE
  8
LY_3
  6
CONTINUOUS
 62
               3
  5
43
 10
39.154693603515625
 20
-32.0
 30
0.0
 11
60.154693603515625
 21
-32.0
 31
0.0
  0
LINE
  8
LY_3
  6
CONTINUOUS
 62
             110
  5
44
 10
39.154693603515625
 20
-32.5
 30
0.0
 11
60.154693603515625
 21
-32.5
 31
0.0
  0
LINE
  8
LY_3
  6
CONTINUOUS
 62
             110
  5
45
 10
39.154693603515625
 20
-33.5
 30
0.0
 11
60.154693603515625
 21
-33.5
 31
0.0
  0
LINE
  8
LY_3
  6
CONTINUOUS
 62
               3
  5
46
 10
38.0
 20
-65.0
 30
0.0
 11
38.0
 21
-35.0
 31
0.0
  0
LINE
  8
LY_3
  6
CONTINUOUS
 62
               3
  5
47
 10
39.154693603515625
 20
-68.0
 30
0.0
 11
39.154693603515625
 21
-32.0
 31
0.0
  0
LINE
  8
LY_3
  6
CONTINUOUS
 62
               3
  5
48
 10
60.154693603515625
 20
-68.0
 30
0.0
 11
60.154693603515625
 21
-32.0
 31
0.0
  0
LINE
  8
LY_3
  6
CONTINUOUS
 62
               3
  5
49
 10
38.154693603515625
 20
-67.0
 30
0.0
 11
38.154693603515625
 21
-33.0
 31
0.0
  0
LINE
  8
LY_3
  6
CONTINUOUS
 62
               3
  5
4A
 10
61.154693603515625
 20
-67.0
 30
0.0
 11
61.154693603515625
 21
-33.0
 31
0.0
  0
LINE
  8
LY_3
  6
CONTINUOUS
 62
               3
  5
4B
 10
64.269996643066406
 20
-68.0
 30
0.0
 11
64.269996643066406
 21
-32.0
 31
0.0
  0
LINE
  8
LY_3
  6
CONTINUOUS
 62
               3
  5
4C
 10
67.269996643066406
 20
-68.02703583240509
 30
0.0
 11
67.269996643066406
 21
-31.97296416759491
 31
0.0
  0
LINE
  8
LY_3
  6
CONTINUOUS
 62
               3
  5
4D
 10
67.770002819777304
 20
-32.472970719648956
 30
0.0
 11
67.270002280425416
 21
-31.972970180297054
 31
0.0
  0
LINE
  8
LY_3
  6
CONTINUOUS
 62
               3
  5
4E
 10
63.769996643066406
 20
-67.526973009109497
 30
0.0
 11
63.769996643066406
 21
-32.473026990890503
 31
0.0
  0
LINE
  8
LY_3
  6
CONTINUOUS
 62
               3
  5
4F
 10
62.769996643066406
 20
-62.0
 30
0.0
 11
62.769996643066406
 21
-38.0
 31
0.0
  0
LINE
  8
LY_3
  6
CONTINUOUS
 62
             110
  5
50
 10
57.529701232910156
 20
6.5
 30
0.0
 11
57.529701232910156
 21
18.0
 31
0.0
  0
LINE
  8
LY_3
  6
CONTINUOUS
 62
             110
  5
51
 10
52.279701232910156
 20
6.5
 30
0.0
 11
52.279701232910156
 21
18.0
 31
0.0
  0
LINE
  8
LY_3
  6
CONTINUOUS
 62
             110
  5
52
 10
54.904701232910156
 20
6.5
 30
0.0
 11
54.904701232910156
 21
18.0
 31
0.0
  0
LINE
  8
LY_3
  6
CONTINUOUS
 62
             110
  5
53
 10
47.029701232910156
 20
6.5
 30
0.0
 11
47.029701232910156
 21
18.0
 31
0.0
  0
LINE
  8
LY_3
  6
CONTINUOUS
 62
             110
  5
54
 10
41.779701232910156
 20
6.5
 30
0.0
 11
41.779701232910156
 21
18.0
 31
0.0
  0
LINE
  8
LY_3
  6
CONTINUOUS
 62
             110
  5
55
 10
44.404701232910156
 20
6.5
 30
0.0
 11
44.404701232910156
 21
18.0
 31
0.0
  0
LINE
  8
LY_3
  6
CONTINUOUS
 62
             110
  5
56
 10
49.654701232910156
 20
6.5
 30
0.0
 11
49.654701232910156
 21
18.0
 31
0.0
  0
LINE
  8
LY_3
  6
CONTINUOUS
 62
               3
  5
57
 10
63.270027160644531
 20
10.188003540039062
 30
0.0
 11
63.770027160644531
 21
10.188003540039062
 31
0.0
  0
LINE
  8
LY_3
  6
CONTINUOUS
 62
               3
  5
58
 10
63.270025890042916
 20
10.500000704492777
 30
0.0
 11
62.770026707947295
 21
10.999999886588398
 31
0.0
  0
LINE
  8
LY_3
  6
CONTINUOUS
 62
             110
  5
59
 10
61.154701232910156
 20
10.188003540039062
 30
0.0
 11
63.270027160644531
 21
10.188003540039062
 31
0.0
  0
LINE
  8
LY_3
  6
CONTINUOUS
 62
               3
  5
5A
 10
61.154701232910156
 20
11.0
 30
0.0
 11
62.770027160644531
 21
11.0
 31
0.0
  0
LINE
  8
LY_3
  6
CONTINUOUS
 62
               3
  5
5B
 10
67.77002931849654
 20
17.499995997327119
 30
0.0
 11
67.27002878770179
 21
17.999996528121869
 31
0.0
  0
LINE
  8
LY_3
  6
CONTINUOUS
 62
               3
  5
5C
 10
64.270053925615002
 20
17.999981692431447
 30
0.0
 11
63.770053394820252
 21
17.499981161636697
 31
0.0
  0
LINE
  8
LY_3
  6
CONTINUOUS
 62
               3
  5
5D
 10
64.270027160644531
 20
18.0
 30
0.0
 11
67.270027160644531
 21
18.0
 31
0.0
  0
LINE
  8
LY_3
  6
CONTINUOUS
 62
             110
  5
5E
 10
64.270027160644531
 20
17.5
 30
0.0
 11
67.270027160644531
 21
17.5
 31
0.0
  0
LINE
  8
LY_3
  6
CONTINUOUS
 62
             110
  5
5F
 10
64.270027160644531
 20
16.5
 30
0.0
 11
67.270027160644531
 21
16.5
 31
0.0
  0
LINE
  8
LY_3
  6
CONTINUOUS
 62
             110
  5
60
 10
64.270027160644531
 20
15.0
 30
0.0
 11
67.270027160644531
 21
15.0
 31
0.0
  0
LINE
  8
LY_3
  6
CONTINUOUS
 62
             110
  5
61
 10
64.270027160644531
 20
13.0
 30
0.0
 11
67.270027160644531
 21
13.0
 31
0.0
  0
LINE
  8
LY_3
  6
CONTINUOUS
 62
             110
  5
62
 10
64.270027160644531
 20
10.5
 30
0.0
 11
67.270027160644531
 21
10.5
 31
0.0
  0
LINE
  8
LY_3
  6
CONTINUOUS
 62
               3
  5
63
 10
39.154701232910156
 20
18.0
 30
0.0
 11
60.154701232910156
 21
18.0
 31
0.0
  0
LINE
  8
LY_3
  6
CONTINUOUS
 62
             110
  5
64
 10
39.154701232910156
 20
7.5
 30
0.0
 11
60.154701232910156
 21
7.5
 31
0.0
  0
LINE
  8
LY_3
  6
CONTINUOUS
 62
             110
  5
65
 10
39.154701232910156
 20
10.5
 30
0.0
 11
60.154701232910156
 21
10.5
 31
0.0
  0
LINE
  8
LY_3
  6
CONTINUOUS
 62
               3
  5
66
 10
38.0
 20
15.0
 30
0.0
 11
38.154701232910156
 21
15.0
 31
0.0
  0
LINE
  8
LY_3
  6
CONTINUOUS
 62
             110
  5
67
 10
38.0
 20
14.188003540039063
 30
0.0
 11
38.154701232910156
 21
14.188003540039063
 31
0.0
  0
LINE
  8
LY_3
  6
CONTINUOUS
 62
             110
  5
68
 10
39.154701232910156
 20
13.0
 30
0.0
 11
60.154701232910156
 21
13.0
 31
0.0
  0
LINE
  8
LY_3
  6
CONTINUOUS
 62
             110
  5
69
 10
39.154701232910156
 20
15.0
 30
0.0
 11
60.154701232910156
 21
15.0
 31
0.0
  0
LINE
  8
LY_3
  6
CONTINUOUS
 62
             110
  5
6A
 10
39.154701232910156
 20
16.5
 30
0.0
 11
60.154701232910156
 21
16.5
 31
0.0
  0
LINE
  8
LY_3
  6
CONTINUOUS
 62
             110
  5
6B
 10
39.154701232910156
 20
17.5
 30
0.0
 11
60.154701232910156
 21
17.5
 31
0.0
  0
LINE
  8
LY_3
  6
CONTINUOUS
 62
               3
  5
6C
 10
38.154713855287966
 20
16.999979324289665
 30
0.0
 11
39.154714916877467
 21
17.999980385879166
 31
0.0
  0
LINE
  8
LY_3
  6
CONTINUOUS
 62
               3
  5
6D
 10
60.154653892431497
 20
17.999953978472149
 30
0.0
 11
61.154654026789331
 21
16.999951905357193
 31
0.0
  0
LINE
  8
LY_3
  6
CONTINUOUS
 62
               3
  5
6E
 10
39.154701232910156
 20
-18.0
 30
0.0
 11
39.154701232910156
 21
18.0
 31
0.0
  0
LINE
  8
LY_3
  6
CONTINUOUS
 62
               3
  5
6F
 10
60.154701232910156
 20
-18.0
 30
0.0
 11
60.154701232910156
 21
18.0
 31
0.0
  0
LINE
  8
LY_3
  6
CONTINUOUS
 62
               3
  5
70
 10
38.0
 20
-15.0
 30
0.0
 11
38.0
 21
15.0
 31
0.0
  0
LINE
  8
LY_3
  6
CONTINUOUS
 62
               3
  5
71
 10
38.154701232910156
 20
-17.0
 30
0.0
 11
38.154701232910156
 21
17.0
 31
0.0
  0
LINE
  8
LY_3
  6
CONTINUOUS
 62
               3
  5
72
 10
61.154701232910156
 20
-17.0
 30
0.0
 11
61.154701232910156
 21
17.0
 31
0.0
  0
LINE
  8
LY_3
  6
CONTINUOUS
 62
               3
  5
73
 10
64.270027160644531
 20
-18.0
 30
0.0
 11
64.270027160644531
 21
18.0
 31
0.0
  0
LINE
  8
LY_3
  6
CONTINUOUS
 62
               3
  5
74
 10
67.270027160644531
 20
-18.0
 30
0.0
 11
67.270027160644531
 21
18.0
 31
0.0
  0
LINE
  8
LY_3
  6
CONTINUOUS
 62
               3
  5
75
 10
63.770027160644531
 20
-17.5
 30
0.0
 11
63.770027160644531
 21
17.5
 31
0.0
  0
LINE
  8
LY_3
  6
CONTINUOUS
 62
               3
  5
76
 10
63.270027160644531
 20
-10.5
 30
0.0
 11
63.270027160644531
 21
10.5
 31
0.0
  0
LINE
  8
LY_3
  6
PHANTOM
 62
             110
  5
77
 10
0.0
 20
-7.5
 30
0.0
 11
8.2309960570991034
 21
-7.5
 31
0.0
  0
LINE
  8
LY_3
  6
CONTINUOUS
 62
               3
  5
78
 10
0.0
 20
-8.0
 30
0.0
 11
8.1462797978256649
 21
-8.0
 31
0.0
  0
POLYLINE
  8
LY_3
  6
CONTINUOUS
 62
             110
  5
79
 66
               1
 10
0.0
 20
0.0
 30
0.0
  0
VERTEX
  8
LY_3
  6
CONTINUOUS
 62
             110
  5
CE
 10
7.5775977696738828
 20
-60.849998474121094
 30
0.0
  0
VERTEX
  8
LY_3
  6
CONTINUOUS
 62
             110
  5
CF
 10
7.7929857783747796
 20
-59.93771753848074
 30
0.0
  0
VERTEX
  8
LY_3
  6
CONTINUOUS
 62
             110
  5
D0
 10
7.9718815885878413
 20
-59.013900344059401
 30
0.0
  0
VERTEX
  8
LY_3
  6
CONTINUOUS
 62
             110
  5
D1
 10
8.1317591117130696
 20
-58.084846053941817
 30
0.0
  0
VERTEX
  8
LY_3
  6
CONTINUOUS
 62
             110
  5
D2
 10
8.2900922591504678
 20
-57.156853831212729
 30
0.0
  0
VERTEX
  8
LY_3
  6
CONTINUOUS
 62
             110
  5
D3
 10
8.4643549423000355
 20
-56.236222838956891
 30
0.0
  0
VERTEX
  8
LY_3
  6
CONTINUOUS
 62
             110
  5
D4
 10
8.6720210725617743
 20
-55.329252240259052
 30
0.0
  0
VERTEX
  8
LY_3
  6
CONTINUOUS
 62
             110
  5
D5
 10
8.9305645613356859
 20
-54.442241198203945
 30
0.0
  0
VERTEX
  8
LY_3
  6
CONTINUOUS
 62
             110
  5
D6
 10
9.2624275117678501
 20
-53.556742433879649
 30
0.0
  0
VERTEX
  8
LY_3
  6
CONTINUOUS
 62
             110
  5
D7
 10
9.6553987973222455
 20
-52.694431224985991
 30
0.0
  0
VERTEX
  8
LY_3
  6
CONTINUOUS
 62
             110
  5
D8
 10
10.098488033819425
 20
-51.85079673795093
 30
0.0
  0
VERTEX
  8
LY_3
  6
CONTINUOUS
 62
             110
  5
D9
 10
10.580704837079949
 20
-51.021328139202453
 30
0.0
  0
VERTEX
  8
LY_3
  6
CONTINUOUS
 62
             110
  5
DA
 10
11.091058822924369
 20
-50.201514595168533
 30
0.0
  0
VERTEX
  8
LY_3
  6
CONTINUOUS
 62
             110
  5
DB
 10
11.618559607173243
 20
-49.386845272277128
 30
0.0
  0
VERTEX
  8
LY_3
  6
CONTINUOUS
 62
             110
  5
DC
 10
12.152216805647129
 20
-48.572809336956226
 30
0.0
  0
VERTEX
  8
LY_3
  6
CONTINUOUS
 62
             110
  5
DD
 10
12.681040034166577
 20
-47.754895955633792
 30
0.0
  0
VERTEX
  8
LY_3
  6
CONTINUOUS
 62
             110
  5
DE
 10
13.194038908552146
 20
-46.928594294737799
 30
0.0
  0
VERTEX
  8
LY_3
  6
CONTINUOUS
 62
             110
  5
DF
 10
13.680223044624391
 20
-46.089393520696227
 30
0.0
  0
VERTEX
  8
LY_3
  6
CONTINUOUS
 62
             110
  5
E0
 10
14.116179388090615
 20
-45.262906686810148
 30
0.0
  0
VERTEX
  8
LY_3
  6
CONTINUOUS
 62
             110
  5
E1
 10
14.51862647085848
 20
-44.421683363056076
 30
0.0
  0
VERTEX
  8
LY_3
  6
CONTINUOUS
 62
             110
  5
E2
 10
14.889355631715679
 20
-43.567243627872855
 30
0.0
  0
VERTEX
  8
LY_3
  6
CONTINUOUS
 62
             110
  5
E3
 10
15.230158209449899
 20
-42.701107559699324
 30
0.0
  0
VERTEX
  8
LY_3
  6
CONTINUOUS
 62
             110
  5
E4
 10
15.54282554284883
 20
-41.824795236974325
 30
0.0
  0
VERTEX
  8
LY_3
  6
CONTINUOUS
 62
             110
  5
E5
 10
15.829148970700162
 20
-40.939826738136695
 30
0.0
  0
VERTEX
  8
LY_3
  6
CONTINUOUS
 62
             110
  5
E6
 10
16.090919831791584
 20
-40.047722141625272
 30
0.0
  0
VERTEX
  8
LY_3
  6
CONTINUOUS
 62
             110
  5
E7
 10
16.329929464910791
 20
-39.150001525878906
 30
0.0
  0
SEQEND
  8
LY_3
  6
CONTINUOUS
 62
             110
  5
E8
  0
POLYLINE
  8
LY_3
  6
CONTINUOUS
 62
             110
  5
7A
 66
               1
 10
0.0
 20
0.0
 30
0.0
  0
VERTEX
  8
LY_3
  6
CONTINUOUS
 62
             110
  5
E9
 10
7.5775977696738837
 20
-10.849998474121094
 30
0.0
  0
VERTEX
  8
LY_3
  6
CONTINUOUS
 62
             110
  5
EA
 10
7.7929857783747796
 20
-9.9377175384807437
 30
0.0
  0
VERTEX
  8
LY_3
  6
CONTINUOUS
 62
             110
  5
EB
 10
7.9718815885878413
 20
-9.0139003440594028
 30
0.0
  0
VERTEX
  8
LY_3
  6
CONTINUOUS
 62
             110
  5
EC
 10
8.1317591117130696
 20
-8.084846053941817
 30
0.0
  0
VERTEX
  8
LY_3
  6
CONTINUOUS
 62
             110
  5
ED
 10
8.2900922591504678
 20
-7.1568538312127323
 30
0.0
  0
VERTEX
  8
LY_3
  6
CONTINUOUS
 62
             110
  5
EE
 10
8.4643549423000337
 20
-6.2362228389568948
 30
0.0
  0
VERTEX
  8
LY_3
  6
CONTINUOUS
 62
             110
  5
EF
 10
8.6720210725617726
 20
-5.3292522402590503
 30
0.0
  0
VERTEX
  8
LY_3
  6
CONTINUOUS
 62
             110
  5
F0
 10
8.9305645613356859
 20
-4.4422411982039449
 30
0.0
  0
VERTEX
  8
LY_3
  6
CONTINUOUS
 62
             110
  5
F1
 10
9.2624275117678501
 20
-3.5567424338796494
 30
0.0
  0
VERTEX
  8
LY_3
  6
CONTINUOUS
 62
             110
  5
F2
 10
9.6553987973222455
 20
-2.6944312249859879
 30
0.0
  0
VERTEX
  8
LY_3
  6
CONTINUOUS
 62
             110
  5
F3
 10
10.098488033819425
 20
-1.8507967379509322
 30
0.0
  0
VERTEX
  8
LY_3
  6
CONTINUOUS
 62
             110
  5
F4
 10
10.580704837079949
 20
-1.0213281392024554
 30
0.0
  0
VERTEX
  8
LY_3
  6
CONTINUOUS
 62
             110
  5
F5
 10
11.091058822924369
 20
-0.2015145951685309
 30
0.0
  0
VERTEX
  8
LY_3
  6
CONTINUOUS
 62
             110
  5
F6
 10
11.618559607173243
 20
0.6131547277228702
 30
0.0
  0
VERTEX
  8
LY_3
  6
CONTINUOUS
 62
             110
  5
F7
 10
12.152216805647127
 20
1.4271906630437741
 30
0.0
  0
VERTEX
  8
LY_3
  6
CONTINUOUS
 62
             110
  5
F8
 10
12.681040034166577
 20
2.245104044366208
 30
0.0
  0
VERTEX
  8
LY_3
  6
CONTINUOUS
 62
             110
  5
F9
 10
13.194038908552146
 20
3.0714057052622001
 30
0.0
  0
VERTEX
  8
LY_3
  6
CONTINUOUS
 62
             110
  5
FA
 10
13.680223044624391
 20
3.9106064793037731
 30
0.0
  0
VERTEX
  8
LY_3
  6
CONTINUOUS
 62
             110
  5
FB
 10
14.116179388090616
 20
4.7370933131898507
 30
0.0
  0
VERTEX
  8
LY_3
  6
CONTINUOUS
 62
             110
  5
FC
 10
14.518626470858482
 20
5.5783166369439208
 30
0.0
  0
VERTEX
  8
LY_3
  6
CONTINUOUS
 62
             110
  5
FD
 10
14.889355631715681
 20
6.4327563721271428
 30
0.0
  0
VERTEX
  8
LY_3
  6
CONTINUOUS
 62
             110
  5
FE
 10
15.2301582094499
 20
7.2988924403006745
 30
0.0
  0
VERTEX
  8
LY_3
  6
CONTINUOUS
 62
             110
  5
FF
 10
15.542825542848831
 20
8.1752047630256772
 30
0.0
  0
VERTEX
  8
LY_3
  6
CONTINUOUS
 62
             110
  5
100
 10
15.829148970700166
 20
9.0601732618633068
 30
0.0
  0
VERTEX
  8
LY_3
  6
CONTINUOUS
 62
             110
  5
101
 10
16.090919831791588
 20
9.9522778583747282
 30
0.0
  0
VERTEX
  8
LY_3
  6
CONTINUOUS
 62
             110
  5
102
 10
16.329929464910794
 20
10.849998474121094
 30
0.0
  0
SEQEND
  8
LY_3
  6
CONTINUOUS
 62
             110
  5
103
  0
LINE
  8
LY_3
  6
CONTINUOUS
 62
             110
  5
7B
 10
39.154693603515625
 20
-66.5
 30
0.0
 11
60.154693603515625
 21
-66.5
 31
0.0
  0
LINE
  8
LY_3
  6
CONTINUOUS
 62
             110
  5
7C
 10
39.154693603515625
 20
-67.5
 30
0.0
 11
60.154693603515625
 21
-67.5
 31
0.0
  0
LINE
  8
LY_3
  6
PHANTOM
 62
             110
  5
7D
 10
0.0
 20
-41.0
 30
0.0
 11
15.810687805619638
 21
-41.0
 31
0.0
  0
LINE
  8
LY_3
  6
CONTINUOUS
 62
               3
  5
7E
 10
0.0
 20
-40.5
 30
0.0
 11
15.961473947599085
 21
-40.5
 31
0.0
  0
LINE
  8
LY_3
  6
CONTINUOUS
 62
               3
  5
7F
 10
39.154693603515625
 20
-68.0
 30
0.0
 11
60.154693603515625
 21
-68.0
 31
0.0
  0
LINE
  8
LY_3
  6
CONTINUOUS
 62
               3
  5
80
 10
61.15467604597179
 20
-66.999998790250572
 30
0.0
 11
60.154699665253275
 21
-67.99998275725153
 31
0.0
  0
LINE
  8
LY_3
  6
CONTINUOUS
 62
               3
  5
81
 10
39.154730201717044
 20
-67.999960331897242
 30
0.0
 11
38.154729123013254
 21
-66.999959253193452
 31
0.0
  0
LINE
  8
LY_3
  6
CONTINUOUS
 62
             110
  5
82
 10
37.531196594238281
 20
-64.188003540039063
 30
0.0
 11
38.154693603515625
 21
-64.188003540039063
 31
0.0
  0
LINE
  8
LY_3
  6
CONTINUOUS
 62
               3
  5
83
 10
38.0
 20
-65.0
 30
0.0
 11
38.154693603515625
 21
-65.0
 31
0.0
  0
LINE
  8
LY_3
  6
CONTINUOUS
 62
             110
  5
84
 10
39.154693603515625
 20
-57.5
 30
0.0
 11
60.154693603515625
 21
-57.5
 31
0.0
  0
LINE
  8
LY_3
  6
CONTINUOUS
 62
             110
  5
85
 10
39.154693603515625
 20
-60.5
 30
0.0
 11
60.154693603515625
 21
-60.5
 31
0.0
  0
LINE
  8
LY_3
  6
CONTINUOUS
 62
             110
  5
86
 10
39.154693603515625
 20
-63.0
 30
0.0
 11
60.154693603515625
 21
-63.0
 31
0.0
  0
LINE
  8
LY_3
  6
CONTINUOUS
 62
             110
  5
87
 10
39.154693603515625
 20
-65.0
 30
0.0
 11
60.154693603515625
 21
-65.0
 31
0.0
  0
LINE
  8
LY_3
  6
CONTINUOUS
 62
               3
  5
88
 10
0.0
 20
-39.150001525878906
 30
0.0
 11
0.0
 21
-60.849998474121094
 31
0.0
  0
LINE
  8
LY_3
  6
CONTINUOUS
 62
               3
  5
89
 10
37.999843818481175
 20
-65.000070652273749
 30
0.0
 11
36.181167748207116
 21
-61.850040279849729
 31
0.0
  0
LINE
  8
LY_3
  6
CONTINUOUS
 62
               3
  5
8A
 10
38.00003898197501
 20
-35.000013727041825
 30
0.0
 11
36.181383242460718
 21
-38.150011789107339
 31
0.0
  0
LINE
  8
LY_3
  6
CONTINUOUS
 62
               3
  5
8B
 10
67.769996643066406
 20
-32.527046203613281
 30
0.0
 11
67.769996643066406
 21
-67.52703595161438
 31
0.0
  0
LINE
  8
LY_3
  6
CONTINUOUS
 62
               3
  5
8C
 10
67.770002819777304
 20
-67.527029280351044
 30
0.0
 11
67.270002280425416
 21
-68.027029819702946
 31
0.0
  0
LINE
  8
LY_3
  6
CONTINUOUS
 62
               3
  5
8D
 10
64.269996643066406
 20
-68.027023315429687
 30
0.0
 11
67.269996643066406
 21
-68.027023315429687
 31
0.0
  0
LINE
  8
LY_3
  6
CONTINUOUS
 62
               3
  5
8E
 10
64.270030064394547
 20
-68.027006891817351
 30
0.0
 11
63.770028850693073
 21
-67.527005678115884
 31
0.0
  0
LINE
  8
LY_3
  6
CONTINUOUS
 62
             110
  5
8F
 10
64.269996643066406
 20
-66.527023315429687
 30
0.0
 11
67.269996643066406
 21
-66.527023315429687
 31
0.0
  0
LINE
  8
LY_3
  6
CONTINUOUS
 62
             110
  5
90
 10
64.269996643066406
 20
-65.027023315429688
 30
0.0
 11
67.269996643066406
 21
-65.027023315429688
 31
0.0
  0
LINE
  8
LY_3
  6
CONTINUOUS
 62
             110
  5
91
 10
64.269996643066406
 20
-63.027023315429687
 30
0.0
 11
67.269996643066406
 21
-63.027023315429687
 31
0.0
  0
LINE
  8
LY_3
  6
CONTINUOUS
 62
             110
  5
92
 10
64.269996643066406
 20
-60.527023315429688
 30
0.0
 11
67.269996643066406
 21
-60.527023315429688
 31
0.0
  0
LINE
  8
LY_3
  6
CENTER
 62
             110
  5
94
 10
-5.0
 20
-50.0
 30
0.0
 11
70.692245483398438
 21
-50.0
 31
0.0
  0
LINE
  8
LY_3
  6
CONTINUOUS
 62
             110
  5
95
 10
61.154693603515625
 20
-61.688003540039063
 30
0.0
 11
62.769996643066406
 21
-61.688003540039063
 31
0.0
  0
LINE
  8
LY_3
  6
CONTINUOUS
 62
               3
  5
96
 10
61.154693603515625
 20
-62.5
 30
0.0
 11
62.269989013671875
 21
-62.5
 31
0.0
  0
LINE
  8
LY_3
  6
CONTINUOUS
 62
               3
  5
97
 10
62.269977436795976
 20
-62.500001398199728
 30
0.0
 11
62.769984951350423
 21
-61.999986254893045
 31
0.0
  0
LINE
  8
LY_3
  6
CONTINUOUS
 62
               3
  5
98
 10
62.769996643066406
 20
-61.688003540039063
 30
0.0
 11
63.769996643066406
 21
-61.688003540039063
 31
0.0
  0
LINE
  8
LY_3
  6
CONTINUOUS
 62
               3
  5
99
 10
0.0
 20
-60.849998474121094
 30
0.0
 11
34.44921875
 21
-60.849998474121094
 31
0.0
  0
LINE
  8
LY_3
  6
CONTINUOUS
 62
               3
  5
9A
 10
0.0
 20
-39.150001525878906
 30
0.0
 11
34.449317932128906
 21
-39.150001525878906
 31
0.0
  0
LINE
  8
LY_3
  6
CONTINUOUS
 62
             110
  5
9B
 10
49.654693603515625
 20
-56.5
 30
0.0
 11
49.654693603515625
 21
-68.0
 31
0.0
  0
LINE
  8
LY_3
  6
CONTINUOUS
 62
             110
  5
9C
 10
44.404693603515625
 20
-56.5
 30
0.0
 11
44.404693603515625
 21
-68.0
 31
0.0
  0
LINE
  8
LY_3
  6
CONTINUOUS
 62
             110
  5
9D
 10
41.779693603515625
 20
-56.5
 30
0.0
 11
41.779693603515625
 21
-68.0
 31
0.0
  0
LINE
  8
LY_3
  6
CONTINUOUS
 62
             110
  5
9E
 10
47.029693603515625
 20
-56.5
 30
0.0
 11
47.029693603515625
 21
-68.0
 31
0.0
  0
LINE
  8
LY_3
  6
CONTINUOUS
 62
             110
  5
9F
 10
54.904693603515625
 20
-56.5
 30
0.0
 11
54.904693603515625
 21
-68.0
 31
0.0
  0
LINE
  8
LY_3
  6
CONTINUOUS
 62
             110
  5
A0
 10
57.529693603515625
 20
-56.5
 30
0.0
 11
57.529693603515625
 21
-68.0
 31
0.0
  0
LINE
  8
LY_3
  6
CONTINUOUS
 62
             110
  5
A1
 10
52.279693603515625
 20
-56.5
 30
0.0
 11
52.279693603515625
 21
-68.0
 31
0.0
  0
ARC
  8
LY_3
  6
CONTINUOUS
 62
               3
  5
A2
 10
34.44921875
 20
-62.849998474121094
 30
0.0
 40
2.0
 50
30.00003840086649
 51
89.999982013910653
  0
ARC
  8
LY_3
  6
CONTINUOUS
 62
               3
  5
A3
 10
34.449317932128906
 20
-37.150001525878906
 30
0.0
 40
2.0
 50
270.00001798608935
 51
329.99996159913348
  0
LINE
  8
LY_3
  6
PHANTOM
 62
             110
  5
A4
 10
0.0
 20
7.5
 30
0.0
 11
15.304992480680191
 21
7.5
 31
0.0
  0
LINE
  8
LY_3
  6
CONTINUOUS
 62
               3
  5
A5
 10
60.154653892431497
 20
-17.999953978472149
 30
0.0
 11
61.154654026789331
 21
-16.999951905357193
 31
0.0
  0
LINE
  8
LY_3
  6
CONTINUOUS
 62
               3
  5
A6
 10
38.154713855287966
 20
-16.999979324289665
 30
0.0
 11
39.154714916877467
 21
-17.999980385879166
 31
0.0
  0
LINE
  8
LY_3
  6
CONTINUOUS
 62
             110
  5
A7
 10
39.154701232910156
 20
-17.5
 30
0.0
 11
60.154701232910156
 21
-17.5
 31
0.0
  0
LINE
  8
LY_3
  6
CONTINUOUS
 62
             110
  5
A8
 10
39.154701232910156
 20
-16.5
 30
0.0
 11
60.154701232910156
 21
-16.5
 31
0.0
  0
LINE
  8
LY_3
  6
CONTINUOUS
 62
             110
  5
A9
 10
39.154701232910156
 20
-15.0
 30
0.0
 11
60.154701232910156
 21
-15.0
 31
0.0
  0
LINE
  8
LY_3
  6
CONTINUOUS
 62
             110
  5
AA
 10
39.154701232910156
 20
-13.0
 30
0.0
 11
60.154701232910156
 21
-13.0
 31
0.0
  0
LINE
  8
LY_3
  6
CONTINUOUS
 62
             110
  5
AB
 10
38.0
 20
-14.188003540039063
 30
0.0
 11
38.154701232910156
 21
-14.188003540039063
 31
0.0
  0
LINE
  8
LY_3
  6
CONTINUOUS
 62
               3
  5
AC
 10
38.0
 20
-15.0
 30
0.0
 11
38.154701232910156
 21
-15.0
 31
0.0
  0
LINE
  8
LY_3
  6
CONTINUOUS
 62
             110
  5
AD
 10
39.154701232910156
 20
-10.5
 30
0.0
 11
60.154701232910156
 21
-10.5
 31
0.0
  0
LINE
  8
LY_3
  6
CONTINUOUS
 62
             110
  5
AE
 10
39.154701232910156
 20
-7.5
 30
0.0
 11
60.154701232910156
 21
-7.5
 31
0.0
  0
LINE
  8
LY_3
  6
CONTINUOUS
 62
               3
  5
AF
 10
39.154701232910156
 20
-18.0
 30
0.0
 11
60.154701232910156
 21
-18.0
 31
0.0
  0
LINE
  8
LY_3
  6
CONTINUOUS
 62
               3
  5
B0
 10
0.0
 20
10.849998474121094
 30
0.0
 11
0.0
 21
-10.849998474121094
 31
0.0
  0
LINE
  8
LY_3
  6
CONTINUOUS
 62
               3
  5
B1
 10
0.0
 20
8.0
 30
0.0
 11
15.483009122652692
 21
8.0
 31
0.0
  0
LINE
  8
LY_3
  6
CONTINUOUS
 62
               3
  5
B2
 10
0.0
 20
10.849998474121094
 30
0.0
 11
34.449310302734375
 21
10.849998474121094
 31
0.0
  0
LINE
  8
LY_3
  6
CONTINUOUS
 62
               3
  5
B3
 10
38.000015632870884
 20
14.999975429948165
 30
0.0
 11
36.181380365843154
 21
11.849992040521386
 31
0.0
  0
LINE
  8
LY_3
  6
CONTINUOUS
 62
               3
  5
B4
 10
0.0
 20
-10.849998474121094
 30
0.0
 11
34.449310302734375
 21
-10.849998474121094
 31
0.0
  0
LINE
  8
LY_3
  6
CONTINUOUS
 62
               3
  5
B5
 10
38.000033820227259
 20
-14.999958429258994
 30
0.0
 11
36.181396645857603
 21
-11.849971736203669
 31
0.0
  0
LINE
  8
LY_3
  6
CONTINUOUS
 62
               3
  5
B6
 10
67.770027160644531
 20
17.500003814697266
 30
0.0
 11
67.770027160644531
 21
-17.5
 31
0.0
  0
LINE
  8
LY_3
  6
CONTINUOUS
 62
             110
  5
B7
 10
64.270027160644531
 20
-10.5
 30
0.0
 11
67.270027160644531
 21
-10.5
 31
0.0
  0
LINE
  8
LY_3
  6
CONTINUOUS
 62
             110
  5
B8
 10
64.270027160644531
 20
-13.0
 30
0.0
 11
67.270027160644531
 21
-13.0
 31
0.0
  0
LINE
  8
LY_3
  6
CONTINUOUS
 62
             110
  5
B9
 10
64.270027160644531
 20
-15.0
 30
0.0
 11
67.270027160644531
 21
-15.0
 31
0.0
  0
LINE
  8
LY_3
  6
CONTINUOUS
 62
             110
  5
BA
 10
64.270027160644531
 20
-16.5
 30
0.0
 11
67.270027160644531
 21
-16.5
 31
0.0
  0
LINE
  8
LY_3
  6
CONTINUOUS
 62
             110
  5
BB
 10
64.270027160644531
 20
-17.5
 30
0.0
 11
67.270027160644531
 21
-17.5
 31
0.0
  0
LINE
  8
LY_3
  6
CONTINUOUS
 62
               3
  5
BC
 10
64.270027160644531
 20
-18.0
 30
0.0
 11
67.270027160644531
 21
-18.0
 31
0.0
  0
LINE
  8
LY_3
  6
CONTINUOUS
 62
               3
  5
BD
 10
64.270053925615002
 20
-17.999981692431447
 30
0.0
 11
63.770053394820252
 21
-17.499981161636697
 31
0.0
  0
LINE
  8
LY_3
  6
CONTINUOUS
 62
               3
  5
BE
 10
67.77002931849654
 20
-17.499995997327119
 30
0.0
 11
67.27002878770179
 21
-17.999996528121869
 31
0.0
  0
LINE
  8
LY_3
  6
CONTINUOUS
 62
               3
  5
BF
 10
61.154701232910156
 20
-11.0
 30
0.0
 11
62.770027160644531
 21
-11.0
 31
0.0
  0
LINE
  8
LY_3
  6
CONTINUOUS
 62
             110
  5
C0
 10
61.154701232910156
 20
-10.188003540039062
 30
0.0
 11
63.270027160644531
 21
-10.188003540039062
 31
0.0
  0
LINE
  8
LY_3
  6
CENTER
 62
             110
  5
C1
 10
-5.0
 20
0.0
 30
0.0
 11
70.692245483398438
 21
0.0
 31
0.0
  0
LINE
  8
LY_3
  6
CONTINUOUS
 62
               3
  5
C2
 10
63.270025890042916
 20
-10.500000704492777
 30
0.0
 11
62.770026707947295
 21
-10.999999886588398
 31
0.0
  0
LINE
  8
LY_3
  6
CONTINUOUS
 62
               3
  5
C3
 10
63.270027160644531
 20
-10.188003540039062
 30
0.0
 11
63.770027160644531
 21
-10.188003540039062
 31
0.0
  0
LINE
  8
LY_3
  6
CONTINUOUS
 62
             110
  5
C4
 10
49.654701232910156
 20
-6.5
 30
0.0
 11
49.654701232910156
 21
-18.0
 31
0.0
  0
LINE
  8
LY_3
  6
CONTINUOUS
 62
             110
  5
C5
 10
44.404701232910156
 20
-6.5
 30
0.0
 11
44.404701232910156
 21
-18.0
 31
0.0
  0
LINE
  8
LY_3
  6
CONTINUOUS
 62
             110
  5
C6
 10
41.779701232910156
 20
-6.5
 30
0.0
 11
41.779701232910156
 21
-18.0
 31
0.0
  0
LINE
  8
LY_3
  6
CONTINUOUS
 62
             110
  5
C7
 10
47.029701232910156
 20
-6.5
 30
0.0
 11
47.029701232910156
 21
-18.0
 31
0.0
  0
LINE
  8
LY_3
  6
CONTINUOUS
 62
             110
  5
C8
 10
54.904701232910156
 20
-6.5
 30
0.0
 11
54.904701232910156
 21
-18.0
 31
0.0
  0
LINE
  8
LY_3
  6
CONTINUOUS
 62
             110
  5
C9
 10
52.279701232910156
 20
-6.5
 30
0.0
 11
52.279701232910156
 21
-18.0
 31
0.0
  0
LINE
  8
LY_3
  6
CONTINUOUS
 62
             110
  5
CA
 10
57.529701232910156
 20
-6.5
 30
0.0
 11
57.529701232910156
 21
-18.0
 31
0.0
  0
ARC
  8
LY_3
  6
CONTINUOUS
 62
               3
  5
CB
 10
34.449310302734375
 20
12.849998474121094
 30
0.0
 40
2.0
 50
270.00001798608935
 51
330.00016308971402
  0
ARC
  8
LY_3
  6
CONTINUOUS
 62
               3
  5
CC
 10
34.449310302734375
 20
-12.849998474121094
 30
0.0
 40
2.0
 50
29.99992911783977
 51
89.999982013910653
  0
ENDSEC
  0
EOF
