  0
SECTION
  2
HEADER
  9
$ACADVER
  1
AC1015
  9
$ACADMAINTVER
 70
     6
  9
$DWGCODEPAGE
  3
ANSI_932
  9
$INSBASE
 10
0.0
 20
0.0
 30
0.0
  9
$EXTMIN
 10
-67.933333
 20
-82.286
 30
0.0
  9
$EXTMAX
 10
352.286
 20
69.233333
 30
0.0
  9
$LIMMIN
 10
-67.933333
 20
-82.286
  9
$LIMMAX
 10
352.286
 20
69.233333
  9
$ORTHOMODE
 70
     0
  9
$REGENMODE
 70
     1
  9
$FILLMODE
 70
     1
  9
$QTEXTMODE
 70
     0
  9
$MIRRTEXT
 70
     1
  9
$LTSCALE
 40
1.0
  9
$ATTMODE
 70
     1
  9
$TEXTSIZE
 40
3.2
  9
$TRACEWID
 40
0.05
  9
$TEXTSTYLE
  7
MX_NOTE_STANDARD
  9
$CLAYER
  8
0
  9
$CELTYPE
  6
CONTINUOUS
  9
$CECOLOR
 62
   256
  9
$CELTSCALE
 40
1.0
  9
$DISPSILH
 70
     0
  9
$DIMSCALE
 40
1.0
  9
$DIMASZ
 40
2.5
  9
$DIMEXO
 40
2.0
  9
$DIMDLI
 40
3.75
  9
$DIMRND
 40
0.0
  9
$DIMDLE
 40
0.0
  9
$DIMEXE
 40
1.0
  9
$DIMTP
 40
0.0
  9
$DIMTM
 40
0.0
  9
$DIMTXT
 40
4.1656
  9
$DIMCEN
 40
2.5
  9
$DIMTSZ
 40
0.0
  9
$DIMTOL
 70
     0
  9
$DIMLIM
 70
     0
  9
$DIMTIH
 70
     0
  9
$DIMTOH
 70
     0
  9
$DIMSE1
 70
     0
  9
$DIMSE2
 70
     0
  9
$DIMTAD
 70
     1
  9
$DIMZIN
 70
     8
  9
$DIMBLK
  1

  9
$DIMASO
 70
     1
  9
$DIMSHO
 70
     1
  9
$DIMPOST
  1

  9
$DIMAPOST
  1

  9
$DIMALT
 70
     0
  9
$DIMALTD
 70
     4
  9
$DIMALTF
 40
0.03937
  9
$DIMLFAC
 40
1.0
  9
$DIMTOFL
 70
     1
  9
$DIMTVP
 40
0.0
  9
$DIMTIX
 70
     0
  9
$DIMSOXD
 70
     0
  9
$DIMSAH
 70
     1
  9
$DIMBLK1
  1
_OPEN30
  9
$DIMBLK2
  1
_OPEN30
  9
$DIMSTYLE
  2
MXDIMSTYLE
  9
$DIMCLRD
 70
     0
  9
$DIMCLRE
 70
     0
  9
$DIMCLRT
 70
     0
  9
$DIMTFAC
 40
1.0
  9
$DIMGAP
 40
1.0
  9
$DIMJUST
 70
     0
  9
$DIMSD1
 70
     0
  9
$DIMSD2
 70
     0
  9
$DIMTOLJ
 70
     0
  9
$DIMTZIN
 70
     0
  9
$DIMALTZ
 70
     0
  9
$DIMALTTZ
 70
     0
  9
$DIMUPT
 70
     0
  9
$DIMDEC
 70
     2
  9
$DIMTDEC
 70
     2
  9
$DIMALTU
 70
     2
  9
$DIMALTTD
 70
     4
  9
$DIMTXSTY
  7
MX_NOTE_STANDARD
  9
$DIMAUNIT
 70
     0
  9
$DIMADEC
 70
     0
  9
$DIMALTRND
 40
0.0
  9
$DIMAZIN
 70
     0
  9
$DIMDSEP
 70
    46
  9
$DIMATFIT
 70
     3
  9
$DIMFRAC
 70
     0
  9
$DIMLDRBLK
  1
_OPEN30
  9
$DIMLUNIT
 70
     2
  9
$DIMLWD
 70
    -2
  9
$DIMLWE
 70
    -2
  9
$DIMTMOVE
 70
     0
  9
$LUNITS
 70
     2
  9
$LUPREC
 70
     4
  9
$SKETCHINC
 40
0.1
  9
$FILLETRAD
 40
0.0
  9
$AUNITS
 70
     0
  9
$AUPREC
 70
     0
  9
$MENU
  1
acad
  9
$ELEVATION
 40
0.0
  9
$PELEVATION
 40
0.0
  9
$THICKNESS
 40
0.0
  9
$LIMCHECK
 70
     0
  9
$CHAMFERA
 40
0.0
  9
$CHAMFERB
 40
0.0
  9
$CHAMFERC
 40
0.0
  9
$CHAMFERD
 40
0.0
  9
$SKPOLY
 70
     0
  9
$TDCREATE
 40
2456119.578275463
  9
$TDUCREATE
 40
0.000000000
  9
$TDUPDATE
 40
2456119.578275463
  9
$TDUUPDATE
 40
0.000000000
  9
$TDINDWG
 40
0.0000000000
  9
$TDUSRTIMER
 40
0.0000000000
  9
$USRTIMER
 70
     1
  9
$ANGBASE
 50
0.0
  9
$ANGDIR
 70
     0
  9
$PDMODE
 70
     0
  9
$PDSIZE
 40
0.0
  9
$PLINEWID
 40
0.0
  9
$SPLFRAME
 70
     0
  9
$SPLINETYPE
 70
     6
  9
$SPLINESEGS
 70
     8
  9
$HANDSEED
  5
3F4
  9
$SURFTAB1
 70
     6
  9
$SURFTAB2
 70
     6
  9
$SURFTYPE
 70
     6
  9
$SURFU
 70
     6
  9
$SURFV
 70
     6
  9
$UCSBASE
  2

  9
$UCSNAME
  2

  9
$UCSORG
 10
0.0
 20
0.0
 30
0.0
  9
$UCSXDIR
 10
1.0
 20
0.0
 30
0.0
  9
$UCSYDIR
 10
0.0
 20
1.0
 30
0.0
  9
$UCSORTHOREF
  2

  9
$UCSORTHOVIEW
 70
     0
  9
$UCSORGTOP
 10
0.0
 20
0.0
 30
0.0
  9
$UCSORGBOTTOM
 10
0.0
 20
0.0
 30
0.0
  9
$UCSORGLEFT
 10
0.0
 20
0.0
 30
0.0
  9
$UCSORGRIGHT
 10
0.0
 20
0.0
 30
0.0
  9
$UCSORGFRONT
 10
0.0
 20
0.0
 30
0.0
  9
$UCSORGBACK
 10
0.0
 20
0.0
 30
0.0
  9
$PUCSBASE
  2

  9
$PUCSNAME
  2

  9
$PUCSORG
 10
0.0
 20
0.0
 30
0.0
  9
$PUCSXDIR
 10
1.0
 20
0.0
 30
0.0
  9
$PUCSYDIR
 10
0.0
 20
1.0
 30
0.0
  9
$PUCSORTHOREF
  2

  9
$PUCSORTHOVIEW
 70
     0
  9
$PUCSORGTOP
 10
0.0
 20
0.0
 30
0.0
  9
$PUCSORGBOTTOM
 10
0.0
 20
0.0
 30
0.0
  9
$PUCSORGLEFT
 10
0.0
 20
0.0
 30
0.0
  9
$PUCSORGRIGHT
 10
0.0
 20
0.0
 30
0.0
  9
$PUCSORGFRONT
 10
0.0
 20
0.0
 30
0.0
  9
$PUCSORGBACK
 10
0.0
 20
0.0
 30
0.0
  9
$USERI1
 70
     0
  9
$USERI2
 70
     0
  9
$USERI3
 70
     0
  9
$USERI4
 70
     0
  9
$USERI5
 70
     0
  9
$USERR1
 40
0.0
  9
$USERR2
 40
0.0
  9
$USERR3
 40
0.0
  9
$USERR4
 40
0.0
  9
$USERR5
 40
0.0
  9
$WORLDVIEW
 70
     1
  9
$SHADEDGE
 70
     3
  9
$SHADEDIF
 70
    70
  9
$TILEMODE
 70
     1
  9
$MAXACTVP
 70
    16
  9
$PINSBASE
 10
0.0
 20
0.0
 30
0.0
  9
$PLIMCHECK
 70
     0
  9
$PEXTMIN
 10
1.000000E+20
 20
1.000000E+20
 30
1.000000E+20
  9
$PEXTMAX
 10
-1.000000E+20
 20
-1.000000E+20
 30
-1.000000E+20
  9
$PLIMMIN
 10
0.0
 20
0.0
  9
$PLIMMAX
 10
12.0
 20
9.0
  9
$UNITMODE
 70
     0
  9
$VISRETAIN
 70
     0
  9
$PLINEGEN
 70
     1
  9
$PSLTSCALE
 70
     0
  9
$TREEDEPTH
 70
  3020
  9
$CMLSTYLE
  2
Standard
  9
$CMLJUST
 70
     0
  9
$CMLSCALE
 40
1.0
  9
$PROXYGRAPHICS
 70
     0
  9
$MEASUREMENT
 70
     1
  9
$CELWEIGHT
370
     0
  9
$ENDCAPS
280
     0
  9
$JOINSTYLE
280
     0
  9
$LWDISPLAY
290
     0
  9
$INSUNITS
 70
     0
  9
$HYPERLINKBASE
  1

  9
$STYLESHEET
  1

  9
$XEDIT
290
     1
  9
$CEPSNTYPE
380
     0
  9
$PSTYLEMODE
290
     1
  9
$FINGERPRINTGUID
  2

  9
$VERSIONGUID
  2

  9
$EXTNAMES
290
     1
  9
$PSVPSCALE
 40
0.0
  0
ENDSEC
  0
SECTION
  2
CLASSES
  0
CLASS
  1
LWPOLYLINE
  2
AcDbPolyline
  3
AutoCAD 2000
 90
        0
280
     0
281
     1
  0
CLASS
  1
IMAGE
  2
AcDbRasterImage
  3
ISM
 90
      127
280
     0
281
     1
  0
CLASS
  1
OLE2FRAME
  2
AcDbOle2Frame
  3
AutoCAD 2000
 90
        0
280
     0
281
     1
  0
CLASS
  1
HATCH
  2
AcDbHatch
  3
AutoCAD 2000
 90
        0
280
     0
281
     1
  0
CLASS
  1
DICTIONARYVAR
  2
AcDbDictionaryVar
  3
AutoCAD 2000
 90
        0
280
     0
281
     0
  0
CLASS
  1
RASTERVARIABLES
  2
AcDbRasterVariables
  3
ISM
 90
        0
280
     0
281
     0
  0
CLASS
  1
IMAGEDEF
  2
AcDbRasterImageDef
  3
ISM
 90
        0
280
     0
281
     0
  0
CLASS
  1
IMAGEDEF_REACTOR
  2
AcDbRasterImageDefReactor
  3
ISM
 90
        1
280
     0
281
     0
  0
CLASS
  1
IDBUFFER
  2
AcDbIdBuffer
  3
AutoCAD 2000
 90
        0
280
     0
281
     0
  0
CLASS
  1
SPATIAL_FILTER
  2
AcDbSpatialFilter
  3
AutoCAD 2000
 90
        0
280
     0
281
     0
  0
CLASS
  1
XRECORD
  2
AcDbXrecord
  3
AutoCAD 2000
 90
        0
280
     0
281
     0
  0
CLASS
  1
SORTENTSTABLE
  2
AcDbSortentsTable
  3
AutoCAD 2000
 90
        0
280
     0
281
     0
  0
CLASS
  1
LAYER_INDEX
  2
AcDbLayerIndex
  3
AutoCAD 2000
 90
        0
280
     0
281
     0
  0
CLASS
  1
SPATIAL_INDEX
  2
AcDbSpatialIndex
  3
AutoCAD 2000
 90
        0
280
     0
281
     0
  0
CLASS
  1
OBJECT_PTR
  2
CAseDLPNTableRecord
  3
"ASE-LPNTableRecord"
 90
        1
280
     0
281
     0
  0
CLASS
  1
LAYOUT
  2
AcDbLayout
  3
AutoCAD 2000
 90
        0
280
     0
281
     0
  0
CLASS
  1
PLOTSETTINGS
  2
AcDbPlotSettings
  3
AutoCAD 2000
 90
        0
280
     0
281
     0
  0
CLASS
  1
ACDBDICTIONARYWDFLT
  2
AcDbDictionaryWithDefault
  3
AutoCAD 2000
 90
        0
280
     0
281
     0
  0
CLASS
  1
ACDBPLACEHOLDER
  2
AcDbPlaceHolder
  3
AutoCAD 2000
 90
        0
280
     0
281
     0
  0
ENDSEC
  0
SECTION
  2
TABLES
  0
TABLE
  2
VPORT
  5
7
100
AcDbSymbolTable
 70
     1
  0
VPORT
  5
15
100
AcDbSymbolTableRecord
100
AcDbViewportTableRecord
  2
*ACTIVE
 70
     0
 10
0.0
 20
0.0
 11
1.0
 21
1.0
 12
142.176334
 22
-6.526333
 13
0.0
 23
0.0
 14
1.0
 24
1.0
 15
0.0
 25
0.0
 16
0.0
 26
0.0
 36
1.0
 17
0.0
 27
0.0
 37
0.0
 40
153.034526
 41
1.732051
 42
50.0
 43
0.0
 44
0.0
 50
0.0
 51
0.0
 71
     0
 72
   100
 73
     1
 74
     1
 75
     0
 76
     0
 77
     0
 78
     0
281
     0
 65
     0
110
0.0
120
0.0
130
0.0
111
1.0
121
0.0
131
0.0
112
0.0
122
1.0
132
0.0
345
0
346
0
 79
     0
146
0.0
  0
ENDTAB
  0
TABLE
  2
LTYPE
  5
4
100
AcDbSymbolTable
 70
     5
  0
LTYPE
  5
11
100
AcDbSymbolTableRecord
100
AcDbLinetypeTableRecord
  2
BYBLOCK
 70
    64
  3

 72
    65
 73
     0
 40
0.0
  0
LTYPE
  5
12
100
AcDbSymbolTableRecord
100
AcDbLinetypeTableRecord
  2
BYLAYER
 70
    64
  3

 72
    65
 73
     0
 40
0.0
  0
LTYPE
  5
13
100
AcDbSymbolTableRecord
100
AcDbLinetypeTableRecord
  2
CONTINUOUS
 70
    64
  3
Solid line
 72
    65
 73
     0
 40
0.0
  0
LTYPE
  5
F9
100
AcDbSymbolTableRecord
100
AcDbLinetypeTableRecord
  2
CENTER
 70
    64
  3
Center ____ _ ____ _ ____ _ ____ _ ____ _ ____
 72
    65
 73
     4
 40
50.8
 49
31.75
 74
     0
 49
-6.35
 74
     0
 49
6.35
 74
     0
 49
-6.35
 74
     0
  0
LTYPE
  5
274
100
AcDbSymbolTableRecord
100
AcDbLinetypeTableRecord
  2
DASHED
 70
    64
  3
Dashed __ __ __ __ __ __ __ __ __ __ __ __ __ _
 72
    65
 73
     2
 40
19.05
 49
12.7
 74
     0
 49
-6.35
 74
     0
  0
ENDTAB
  0
TABLE
  2
LAYER
  5
2
100
AcDbSymbolTable
 70
     3
  0
LAYER
  5
14
100
AcDbSymbolTableRecord
100
AcDbLayerTableRecord
  2
0
 70
     0
 62
     7
  6
CONTINUOUS
290
     1
370
    -3
390
1D
  0
LAYER
  5
23
100
AcDbSymbolTableRecord
100
AcDbLayerTableRecord
  2
DEFPOINTS
 70
     0
 62
     7
  6
CONTINUOUS
290
     0
370
    -3
390
1D
  0
LAYER
  5
24
100
AcDbSymbolTableRecord
100
AcDbLayerTableRecord
  2
LY_3
 70
     0
 62
     7
  6
CONTINUOUS
290
     1
370
    -3
390
1D
  0
ENDTAB
  0
TABLE
  2
STYLE
  5
3
100
AcDbSymbolTable
 70
     2
  0
STYLE
  5
17
100
AcDbSymbolTableRecord
100
AcDbTextStyleTableRecord
  2
MX_NOTE_STANDARD
 70
     0
 40
0.0
 41
1.0
 50
0.0
 71
     0
 42
3.2
  3
txt.shx
  4
extfont.shx
  0
STYLE
  5
39
100
AcDbSymbolTableRecord
100
AcDbTextStyleTableRecord
  2
MX_DIMTXSTY_2
 70
     0
 40
0.0
 41
1.25
 50
0.0
 71
     0
 42
3.2
  3
txt.shx
  4
extfont.shx
  0
ENDTAB
  0
TABLE
  2
VIEW
  5
5
100
AcDbSymbolTable
 70
     0
  0
ENDTAB
  0
TABLE
  2
UCS
  5
6
100
AcDbSymbolTable
 70
     0
  0
ENDTAB
  0
TABLE
  2
APPID
  5
8
100
AcDbSymbolTable
 70
     1
  0
APPID
  5
16
100
AcDbSymbolTableRecord
100
AcDbRegAppTableRecord
  2
ACAD
 70
     0
  0
ENDTAB
  0
TABLE
  2
DIMSTYLE
  5
9
100
AcDbSymbolTable
 70
     1
100
AcDbDimStyleTable
 71
     0
  0
DIMSTYLE
105
18
100
AcDbSymbolTableRecord
100
AcDbDimStyleTableRecord
  2
MXDIMSTYLE
 70
     0
  3

  4

 40
1.0
 41
2.5
 42
2.0
 43
3.75
 44
1.0
 45
0.0
 46
0.0
 47
0.0
 48
0.0
 71
     0
 72
     0
 73
     0
 74
     0
 75
     0
 76
     0
 77
     1
 78
     8
 79
     0
140
4.1656
141
2.5
142
0.0
143
0.03937
144
1.0
145
0.0
146
1.0
147
1.0
148
0.0
170
     0
171
     4
172
     1
173
     1
174
     0
175
     0
176
     0
177
     0
178
     0
179
     0
271
     2
272
     2
273
     2
274
     4
275
     0
276
     0
277
     2
278
    46
279
     0
280
     0
281
     0
282
     0
283
     0
284
     0
285
     0
286
     0
288
     0
289
     3
340
17
341
25
342
0
343
25
344
25
371
    -2
372
    -2
  0
ENDTAB
  0
TABLE
  2
BLOCK_RECORD
  5
1
100
AcDbSymbolTable
 70
     3
  0
BLOCK_RECORD
  5
A
100
AcDbSymbolTableRecord
100
AcDbBlockTableRecord
  2
*MODEL_SPACE
340
20
  0
BLOCK_RECORD
  5
B
100
AcDbSymbolTableRecord
100
AcDbBlockTableRecord
  2
*PAPER_SPACE
340
21
  0
BLOCK_RECORD
  5
25
100
AcDbSymbolTableRecord
100
AcDbBlockTableRecord
  2
_OPEN30
340
0
102
{BLKREFS
331
37
331
38
102
}
  0
BLOCK_RECORD
  5
2B
100
AcDbSymbolTableRecord
100
AcDbBlockTableRecord
  2
*D1
340
0
102
{BLKREFS
331
3F
102
}
  0
BLOCK_RECORD
  5
33
100
AcDbSymbolTableRecord
100
AcDbBlockTableRecord
  2
_NONE
340
0
  0
ENDTAB
  0
ENDSEC
  0
SECTION
  2
BLOCKS
  0
BLOCK
  5
D
100
AcDbEntity
  8
0
390
0
100
AcDbBlockBegin
  2
*MODEL_SPACE
 70
     0
 10
0.0
 20
0.0
 30
0.0
  3
*MODEL_SPACE
  1

  0
ENDBLK
  5
E
100
AcDbEntity
  8
0
390
0
100
AcDbBlockEnd
  0
BLOCK
  5
F
100
AcDbEntity
 67
     1
  8
0
390
0
100
AcDbBlockBegin
  2
*PAPER_SPACE
 70
     0
 10
0.0
 20
0.0
 30
0.0
  3
*PAPER_SPACE
  1

  0
ENDBLK
  5
10
100
AcDbEntity
 67
     1
  8
0
390
0
100
AcDbBlockEnd
  0
BLOCK
  5
26
100
AcDbEntity
  8
0
370
    -2
390
0
  6
ByBlock
 62
     0
100
AcDbBlockBegin
  2
_OPEN30
 70
     2
 10
0.0
 20
0.0
 30
0.0
  3
_OPEN30
  1

  0
LINE
  5
27
100
AcDbEntity
  8
0
370
    -2
390
0
  6
ByBlock
 62
     0
100
AcDbLine
 10
-1.0
 20
0.267949
 30
0.0
 11
0.0
 21
0.0
 31
0.0
  0
LINE
  5
28
100
AcDbEntity
  8
0
370
    -2
390
0
  6
ByBlock
 62
     0
100
AcDbLine
 10
0.0
 20
0.0
 30
0.0
 11
-1.0
 21
-0.267949
 31
0.0
  0
LINE
  5
29
100
AcDbEntity
  8
0
370
    -2
390
0
  6
ByBlock
 62
     0
100
AcDbLine
 10
0.0
 20
0.0
 30
0.0
 11
-1.0
 21
0.0
 31
0.0
  0
ENDBLK
  5
2A
100
AcDbEntity
  8
0
370
    -2
390
0
  6
ByBlock
 62
     0
100
AcDbBlockEnd
  0
BLOCK
  5
2C
100
AcDbEntity
  8
0
370
    -2
390
0
  6
ByBlock
 62
     0
100
AcDbBlockBegin
  2
*D1
 70
     1
 10
0.0
 20
0.0
 30
0.0
  3
*D1
  1

  0
LINE
  5
2D
100
AcDbEntity
  8
0
390
0
  6
CONTINUOUS
 62
   110
100
AcDbLine
 10
227.699997
 20
-56.0
 30
0.0
 11
215.0
 21
-56.0
 31
0.0
  0
LINE
  5
2E
100
AcDbEntity
  8
0
390
0
  6
CONTINUOUS
 62
   110
100
AcDbLine
 10
215.0
 20
-35.849899
 30
0.0
 11
215.0
 21
-57.0
 31
0.0
  0
LINE
  5
2F
100
AcDbEntity
  8
0
390
0
  6
CONTINUOUS
 62
   110
100
AcDbLine
 10
221.349998
 20
-56.0
 30
0.0
 11
229.432902
 21
-70.0
 31
0.0
  0
LINE
  5
30
100
AcDbEntity
  8
0
390
0
  6
CONTINUOUS
 62
   110
100
AcDbLine
 10
229.432902
 20
-70.0
 30
0.0
 11
249.75002
 21
-70.0
 31
0.0
  0
LINE
  5
31
100
AcDbEntity
  8
0
390
0
  6
CONTINUOUS
 62
   110
100
AcDbLine
 10
227.699997
 20
-56.0
 30
0.0
 11
231.699997
 21
-56.0
 31
0.0
  0
LINE
  5
32
100
AcDbEntity
  8
0
390
0
  6
CONTINUOUS
 62
   110
100
AcDbLine
 10
215.0
 20
-56.0
 30
0.0
 11
211.0
 21
-56.0
 31
0.0
  0
INSERT
  5
37
100
AcDbEntity
  8
0
390
0
  6
CONTINUOUS
 62
   110
100
AcDbBlockReference
  2
_OPEN30
 10
227.699997
 20
-56.0
 30
0.0
 41
2.77
 42
2.77
 43
2.77
 50
180.0
  0
INSERT
  5
38
100
AcDbEntity
  8
0
390
0
  6
CONTINUOUS
 62
   110
100
AcDbBlockReference
  2
_OPEN30
 10
215.0
 20
-56.0
 30
0.0
 41
2.77
 42
2.77
 43
2.77
  0
MTEXT
  5
3A
100
AcDbEntity
  8
0
390
0
  6
CONTINUOUS
 62
   110
100
AcDbMText
 10
240.00002
 20
-66.4
 30
0.0
 40
5.2
 41
0.0
 71
     5
 72
     1
  1
\A1;12.7
  7
MX_DIMTXSTY_2
 73
     1
 44
0.9
  0
POINT
  5
3B
100
AcDbEntity
  8
DEFPOINTS
390
0
  6
CONTINUOUS
 62
     0
100
AcDbPoint
 10
227.699997
 20
-53.714
 30
0.0
  0
POINT
  5
3C
100
AcDbEntity
  8
DEFPOINTS
390
0
  6
CONTINUOUS
 62
     0
100
AcDbPoint
 10
215.0
 20
-33.849899
 30
0.0
  0
POINT
  5
3D
100
AcDbEntity
  8
DEFPOINTS
390
0
  6
CONTINUOUS
 62
     0
100
AcDbPoint
 10
215.0
 20
-56.0
 30
0.0
  0
ENDBLK
  5
3E
100
AcDbEntity
  8
0
370
    -2
390
0
  6
ByBlock
 62
     0
100
AcDbBlockEnd
  0
BLOCK
  5
34
100
AcDbEntity
  8
0
370
    -2
390
0
  6
ByBlock
 62
     0
100
AcDbBlockBegin
  2
_NONE
 70
     2
 10
0.0
 20
0.0
 30
0.0
  3
_NONE
  1

  0
CIRCLE
  5
35
100
AcDbEntity
  8
0
370
    -2
390
0
  6
ByBlock
 62
     0
100
AcDbCircle
 10
0.0
 20
0.0
 30
0.0
 40
0.25
  0
ENDBLK
  5
36
100
AcDbEntity
  8
0
370
    -2
390
0
  6
ByBlock
 62
     0
100
AcDbBlockEnd
  0
ENDSEC
  0
SECTION
  2
ENTITIES
  0
INSERT
  5
3F
100
AcDbEntity
  8
0
390
0
  6
ByBlock
 62
   110
100
AcDbBlockReference
  2
*D1
 10
0.0
 20
0.0
 30
0.0
  0
LINE
  5
40
100
AcDbEntity
  8
LY_3
390
0
  6
CONTINUOUS
 62
   110
100
AcDbLine
 10
217.096266
 20
9.850746
 30
0.0
 11
216.648505
 21
9.850746
 31
0.0
  0
LINE
  5
41
100
AcDbEntity
  8
LY_3
390
0
  6
CONTINUOUS
 62
   110
100
AcDbLine
 10
217.096267
 20
9.552238
 30
0.0
 11
216.349998
 21
9.552238
 31
0.0
  0
LINE
  5
42
100
AcDbEntity
  8
LY_3
390
0
  6
CONTINUOUS
 62
   110
100
AcDbLine
 10
217.096266
 20
10.820895
 30
0.0
 11
217.096266
 21
11.119403
 31
0.0
  0
LINE
  5
43
100
AcDbEntity
  8
LY_3
390
0
  6
CONTINUOUS
 62
   110
100
AcDbLine
 10
217.096267
 20
9.552238
 30
0.0
 11
217.096266
 21
9.850746
 31
0.0
  0
LINE
  5
44
100
AcDbEntity
  8
LY_3
390
0
  6
CONTINUOUS
 62
   110
100
AcDbLine
 10
217.096267
 20
5.447761
 30
0.0
 11
217.096267
 21
5.746268
 31
0.0
  0
LINE
  5
45
100
AcDbEntity
  8
LY_3
390
0
  6
CONTINUOUS
 62
   110
100
AcDbLine
 10
217.096267
 20
4.104477
 30
0.0
 11
217.096267
 21
4.402985
 31
0.0
  0
LINE
  5
46
100
AcDbEntity
  8
LY_3
390
0
  6
CONTINUOUS
 62
   110
100
AcDbLine
 10
217.096267
 20
-3.208955
 30
0.0
 11
217.096267
 21
-2.910448
 31
0.0
  0
LINE
  5
47
100
AcDbEntity
  8
LY_3
390
0
  6
CONTINUOUS
 62
   110
100
AcDbLine
 10
217.096268
 20
-4.552239
 30
0.0
 11
217.096268
 21
-4.253732
 31
0.0
  0
LINE
  5
48
100
AcDbEntity
  8
LY_3
390
0
  6
CONTINUOUS
 62
   110
100
AcDbLine
 10
217.394775
 20
-9.328358
 30
0.0
 11
217.394775
 21
-9.02985
 31
0.0
  0
LINE
  5
49
100
AcDbEntity
  8
LY_3
390
0
  6
CONTINUOUS
 62
   110
100
AcDbLine
 10
217.394775
 20
-10.522388
 30
0.0
 11
217.394775
 21
-10.22388
 31
0.0
  0
LINE
  5
4A
100
AcDbEntity
  8
LY_3
390
0
  6
CONTINUOUS
 62
   110
100
AcDbLine
 10
217.394775
 20
-10.22388
 30
0.0
 11
217.245522
 21
-10.22388
 31
0.0
  0
LINE
  5
4B
100
AcDbEntity
  8
LY_3
390
0
  6
CONTINUOUS
 62
   110
100
AcDbLine
 10
217.394775
 20
-10.522388
 30
0.0
 11
216.349999
 21
-10.522388
 31
0.0
  0
LINE
  5
4C
100
AcDbEntity
  8
LY_3
390
0
  6
CONTINUOUS
 62
   110
100
AcDbLine
 10
224.63358
 20
0.447761
 30
0.0
 11
221.051491
 21
0.447761
 31
0.0
  0
LINE
  5
4D
100
AcDbEntity
  8
LY_3
390
0
  6
CONTINUOUS
 62
   110
100
AcDbLine
 10
221.051491
 20
0.447761
 30
0.0
 11
219.335073
 21
0.447761
 31
0.0
  0
LINE
  5
4E
100
AcDbEntity
  8
LY_3
390
0
  6
CONTINUOUS
 62
   110
100
AcDbLine
 10
224.521641
 20
-11.119403
 30
0.0
 11
224.521641
 21
-7.462686
 31
0.0
  0
LINE
  5
4F
100
AcDbEntity
  8
LY_3
390
0
  6
CONTINUOUS
 62
   110
100
AcDbLine
 10
224.521641
 20
-7.462686
 30
0.0
 11
219.335074
 21
-7.462687
 31
0.0
  0
LINE
  5
50
100
AcDbEntity
  8
LY_3
390
0
  6
CONTINUOUS
 62
   110
100
AcDbLine
 10
217.544028
 20
9.850746
 30
0.0
 11
217.096266
 21
9.850746
 31
0.0
  0
LINE
  5
51
100
AcDbEntity
  8
LY_3
390
0
  6
CONTINUOUS
 62
   110
100
AcDbLine
 10
216.648505
 20
9.850746
 30
0.0
 11
216.648505
 21
10.373133
 31
0.0
  0
LINE
  5
52
100
AcDbEntity
  8
LY_3
390
0
  6
CONTINUOUS
 62
   110
100
AcDbLine
 10
217.842535
 20
9.552238
 30
0.0
 11
217.096267
 21
9.552238
 31
0.0
  0
LINE
  5
53
100
AcDbEntity
  8
LY_3
390
0
  6
CONTINUOUS
 62
   110
100
AcDbLine
 10
216.349998
 20
8.507462
 30
0.0
 11
216.349998
 21
8.80597
 31
0.0
  0
LINE
  5
54
100
AcDbEntity
  8
LY_3
390
0
  6
CONTINUOUS
 62
   110
100
AcDbLine
 10
217.544028
 20
8.80597
 30
0.0
 11
217.544028
 21
9.402984
 31
0.0
  0
LINE
  5
55
100
AcDbEntity
  8
LY_3
390
0
  6
CONTINUOUS
 62
   110
100
AcDbLine
 10
217.842535
 20
9.552238
 30
0.0
 11
217.842535
 21
10.373133
 31
0.0
  0
LINE
  5
56
100
AcDbEntity
  8
LY_3
390
0
  6
CONTINUOUS
 62
   110
100
AcDbLine
 10
217.544028
 20
9.850746
 30
0.0
 11
217.544028
 21
10.373133
 31
0.0
  0
LINE
  5
57
100
AcDbEntity
  8
LY_3
390
0
  6
CONTINUOUS
 62
   110
100
AcDbLine
 10
217.544028
 20
8.507462
 30
0.0
 11
216.349998
 21
8.507462
 31
0.0
  0
LINE
  5
58
100
AcDbEntity
  8
LY_3
390
0
  6
CONTINUOUS
 62
   110
100
AcDbLine
 10
217.544028
 20
8.80597
 30
0.0
 11
216.349998
 21
8.80597
 31
0.0
  0
LINE
  5
59
100
AcDbEntity
  8
LY_3
390
0
  6
CONTINUOUS
 62
   110
100
AcDbLine
 10
217.544028
 20
7.910447
 30
0.0
 11
217.544028
 21
8.507462
 31
0.0
  0
LINE
  5
5A
100
AcDbEntity
  8
LY_3
390
0
  6
CONTINUOUS
 62
   110
100
AcDbLine
 10
217.842535
 20
9.402984
 30
0.0
 11
217.544028
 21
9.402984
 31
0.0
  0
LINE
  5
5B
100
AcDbEntity
  8
LY_3
390
0
  6
CONTINUOUS
 62
   110
100
AcDbLine
 10
217.842535
 20
7.910447
 30
0.0
 11
217.544028
 21
7.910447
 31
0.0
  0
LINE
  5
5C
100
AcDbEntity
  8
LY_3
390
0
  6
CONTINUOUS
 62
   110
100
AcDbLine
 10
217.842535
 20
7.910447
 30
0.0
 11
217.842535
 21
9.402984
 31
0.0
  0
LINE
  5
5D
100
AcDbEntity
  8
LY_3
390
0
  6
CONTINUOUS
 62
   110
100
AcDbLine
 10
217.842535
 20
6.716418
 30
0.0
 11
217.842535
 21
7.014925
 31
0.0
  0
LINE
  5
5E
100
AcDbEntity
  8
LY_3
390
0
  6
CONTINUOUS
 62
   110
100
AcDbLine
 10
216.349998
 20
9.552238
 30
0.0
 11
216.349998
 21
10.373133
 31
0.0
  0
LINE
  5
5F
100
AcDbEntity
  8
LY_3
390
0
  6
CONTINUOUS
 62
   110
100
AcDbLine
 10
216.648506
 20
7.313432
 30
0.0
 11
216.648506
 21
8.059701
 31
0.0
  0
LINE
  5
60
100
AcDbEntity
  8
LY_3
390
0
  6
CONTINUOUS
 62
   110
100
AcDbLine
 10
217.842535
 20
7.014925
 30
0.0
 11
216.947013
 21
7.014925
 31
0.0
  0
LINE
  5
61
100
AcDbEntity
  8
LY_3
390
0
  6
CONTINUOUS
 62
   110
100
AcDbLine
 10
216.648506
 20
8.059701
 30
0.0
 11
216.349998
 21
8.059701
 31
0.0
  0
LINE
  5
62
100
AcDbEntity
  8
LY_3
390
0
  6
CONTINUOUS
 62
   110
100
AcDbLine
 10
217.842535
 20
6.716418
 30
0.0
 11
216.947013
 21
6.716417
 31
0.0
  0
LINE
  5
63
100
AcDbEntity
  8
LY_3
390
0
  6
CONTINUOUS
 62
   110
100
AcDbLine
 10
216.222056
 20
6.157937
 30
0.0
 11
216.126118
 21
6.272272
 31
0.0
  0
LINE
  5
64
100
AcDbEntity
  8
LY_3
390
0
  6
CONTINUOUS
 62
   110
100
AcDbLine
 10
216.222059
 20
6.157934
 30
0.0
 11
216.372552
 21
6.284213
 31
0.0
  0
LINE
  5
65
100
AcDbEntity
  8
LY_3
390
0
  6
CONTINUOUS
 62
   110
100
AcDbLine
 10
216.12612
 20
6.272269
 30
0.0
 11
216.416645
 21
6.516048
 31
0.0
  0
LINE
  5
66
100
AcDbEntity
  8
LY_3
390
0
  6
CONTINUOUS
 62
   110
100
AcDbLine
 10
217.544029
 20
-3.80597
 30
0.0
 11
217.544029
 21
-3.656717
 31
0.0
  0
LINE
  5
67
100
AcDbEntity
  8
LY_3
390
0
  6
CONTINUOUS
 62
   110
100
AcDbLine
 10
216.648506
 20
-3.80597
 30
0.0
 11
216.648506
 21
-3.656717
 31
0.0
  0
LINE
  5
68
100
AcDbEntity
  8
LY_3
390
0
  6
CONTINUOUS
 62
   110
100
AcDbLine
 10
217.842536
 20
-3.80597
 30
0.0
 11
217.842536
 21
-3.656717
 31
0.0
  0
LINE
  5
69
100
AcDbEntity
  8
LY_3
390
0
  6
CONTINUOUS
 62
   110
100
AcDbLine
 10
216.349999
 20
-3.80597
 30
0.0
 11
216.349999
 21
-3.656717
 31
0.0
  0
LINE
  5
6A
100
AcDbEntity
  8
LY_3
390
0
  6
CONTINUOUS
 62
   110
100
AcDbLine
 10
216.349998
 20
1.567164
 30
0.0
 11
216.349998
 21
1.865671
 31
0.0
  0
LINE
  5
6B
100
AcDbEntity
  8
LY_3
390
0
  6
CONTINUOUS
 62
   110
100
AcDbLine
 10
217.170894
 20
1.567164
 30
0.0
 11
216.349998
 21
1.567164
 31
0.0
  0
LINE
  5
6C
100
AcDbEntity
  8
LY_3
390
0
  6
CONTINUOUS
 62
   110
100
AcDbLine
 10
217.170894
 20
0.671641
 30
0.0
 11
216.349998
 21
0.671641
 31
0.0
  0
LINE
  5
6D
100
AcDbEntity
  8
LY_3
390
0
  6
CONTINUOUS
 62
   110
100
AcDbLine
 10
217.544028
 20
1.044776
 30
0.0
 11
217.544028
 21
1.19403
 31
0.0
  0
LINE
  5
6E
100
AcDbEntity
  8
LY_3
390
0
  6
CONTINUOUS
 62
   110
100
AcDbLine
 10
217.170894
 20
1.865671
 30
0.0
 11
216.349998
 21
1.865671
 31
0.0
  0
LINE
  5
6F
100
AcDbEntity
  8
LY_3
390
0
  6
CONTINUOUS
 62
   110
100
AcDbLine
 10
217.170894
 20
0.373134
 30
0.0
 11
216.349998
 21
0.373134
 31
0.0
  0
LINE
  5
70
100
AcDbEntity
  8
LY_3
390
0
  6
CONTINUOUS
 62
   110
100
AcDbLine
 10
217.842536
 20
1.044776
 30
0.0
 11
217.842536
 21
1.19403
 31
0.0
  0
LINE
  5
71
100
AcDbEntity
  8
LY_3
390
0
  6
CONTINUOUS
 62
   110
100
AcDbLine
 10
216.349998
 20
0.374968
 30
0.0
 11
216.349998
 21
0.671641
 31
0.0
  0
LINE
  5
72
100
AcDbEntity
  8
LY_3
390
0
  6
CONTINUOUS
 62
   110
100
AcDbLine
 10
216.349998
 20
7.313432
 30
0.0
 11
216.349998
 21
8.059701
 31
0.0
  0
LINE
  5
73
100
AcDbEntity
  8
LY_3
390
0
  6
CONTINUOUS
 62
   110
100
AcDbLine
 10
217.544028
 20
4.029849
 30
0.0
 11
217.842536
 21
4.029849
 31
0.0
  0
LINE
  5
74
100
AcDbEntity
  8
LY_3
390
0
  6
CONTINUOUS
 62
   110
100
AcDbLine
 10
217.544028
 20
3.28358
 30
0.0
 11
217.544028
 21
4.02985
 31
0.0
  0
LINE
  5
75
100
AcDbEntity
  8
LY_3
390
0
  6
CONTINUOUS
 62
   110
100
AcDbLine
 10
216.648506
 20
3.28358
 30
0.0
 11
216.648506
 21
4.02985
 31
0.0
  0
LINE
  5
76
100
AcDbEntity
  8
LY_3
390
0
  6
CONTINUOUS
 62
   110
100
AcDbLine
 10
217.842536
 20
3.283581
 30
0.0
 11
217.842536
 21
4.02985
 31
0.0
  0
LINE
  5
77
100
AcDbEntity
  8
LY_3
390
0
  6
CONTINUOUS
 62
   110
100
AcDbLine
 10
216.349998
 20
3.28358
 30
0.0
 11
216.349998
 21
4.02985
 31
0.0
  0
LINE
  5
78
100
AcDbEntity
  8
LY_3
390
0
  6
CONTINUOUS
 62
   110
100
AcDbLine
 10
216.648507
 20
-6.940298
 30
0.0
 11
216.349999
 21
-6.940298
 31
0.0
  0
LINE
  5
79
100
AcDbEntity
  8
LY_3
390
0
  6
CONTINUOUS
 62
   110
100
AcDbLine
 10
217.245522
 20
-6.940298
 30
0.0
 11
216.947014
 21
-6.940298
 31
0.0
  0
LINE
  5
7A
100
AcDbEntity
  8
LY_3
390
0
  6
CONTINUOUS
 62
   110
100
AcDbLine
 10
217.544029
 20
-7.61194
 30
0.0
 11
217.544029
 21
-6.940298
 31
0.0
  0
LINE
  5
7B
100
AcDbEntity
  8
LY_3
390
0
  6
CONTINUOUS
 62
   110
100
AcDbLine
 10
216.648507
 20
-7.61194
 30
0.0
 11
216.648507
 21
-6.940298
 31
0.0
  0
LINE
  5
7C
100
AcDbEntity
  8
LY_3
390
0
  6
CONTINUOUS
 62
   110
100
AcDbLine
 10
217.245522
 20
-8.034093
 30
0.0
 11
217.245522
 21
-6.940298
 31
0.0
  0
LINE
  5
7D
100
AcDbEntity
  8
LY_3
390
0
  6
CONTINUOUS
 62
   110
100
AcDbLine
 10
216.947014
 20
-8.034093
 30
0.0
 11
216.947014
 21
-6.940298
 31
0.0
  0
LINE
  5
7E
100
AcDbEntity
  8
LY_3
390
0
  6
CONTINUOUS
 62
   110
100
AcDbLine
 10
216.349999
 20
-7.61194
 30
0.0
 11
216.349999
 21
-6.940298
 31
0.0
  0
LINE
  5
7F
100
AcDbEntity
  8
LY_3
390
0
  6
CONTINUOUS
 62
   110
100
AcDbLine
 10
217.842537
 20
-7.61194
 30
0.0
 11
217.842536
 21
-6.940298
 31
0.0
  0
LINE
  5
80
100
AcDbEntity
  8
LY_3
390
0
  6
CONTINUOUS
 62
   110
100
AcDbLine
 10
217.842536
 20
-6.940298
 30
0.0
 11
217.544029
 21
-6.940298
 31
0.0
  0
LINE
  5
81
100
AcDbEntity
  8
LY_3
390
0
  6
CONTINUOUS
 62
   110
100
AcDbLine
 10
216.349999
 20
-4.822299
 30
0.0
 11
216.349999
 21
-4.477612
 31
0.0
  0
LINE
  5
82
100
AcDbEntity
  8
LY_3
390
0
  6
CONTINUOUS
 62
   110
100
AcDbLine
 10
217.842536
 20
-4.998044
 30
0.0
 11
217.842536
 21
-4.477612
 31
0.0
  0
LINE
  5
83
100
AcDbEntity
  8
LY_3
390
0
  6
CONTINUOUS
 62
   110
100
AcDbLine
 10
216.954214
 20
-5.746269
 30
0.0
 11
216.349999
 21
-5.746269
 31
0.0
  0
LINE
  5
84
100
AcDbEntity
  8
LY_3
390
0
  6
CONTINUOUS
 62
   110
100
AcDbLine
 10
217.240988
 20
-5.336711
 30
0.0
 11
216.954213
 21
-5.746269
 31
0.0
  0
LINE
  5
85
100
AcDbEntity
  8
LY_3
390
0
  6
CONTINUOUS
 62
   110
100
AcDbLine
 10
216.35
 20
-4.822298
 30
0.0
 11
217.240989
 21
-5.336711
 31
0.0
  0
LINE
  5
86
100
AcDbEntity
  8
LY_3
390
0
  6
CONTINUOUS
 62
   110
100
AcDbLine
 10
217.842536
 20
-4.998044
 30
0.0
 11
217.318623
 21
-5.746269
 31
0.0
  0
LINE
  5
87
100
AcDbEntity
  8
LY_3
390
0
  6
CONTINUOUS
 62
   110
100
AcDbLine
 10
217.842536
 20
-4.477611
 30
0.0
 11
217.412859
 21
-5.091255
 31
0.0
  0
LINE
  5
88
100
AcDbEntity
  8
LY_3
390
0
  6
CONTINUOUS
 62
   110
100
AcDbLine
 10
216.349999
 20
-4.477612
 30
0.0
 11
217.412859
 21
-5.091254
 31
0.0
  0
LINE
  5
89
100
AcDbEntity
  8
LY_3
390
0
  6
CONTINUOUS
 62
   110
100
AcDbLine
 10
217.842536
 20
-5.746269
 30
0.0
 11
217.318623
 21
-5.746269
 31
0.0
  0
LINE
  5
8A
100
AcDbEntity
  8
LY_3
390
0
  6
CONTINUOUS
 62
   110
100
AcDbLine
 10
217.842536
 20
-6.044776
 30
0.0
 11
216.349999
 21
-6.044776
 31
0.0
  0
LINE
  5
8B
100
AcDbEntity
  8
LY_3
390
0
  6
CONTINUOUS
 62
   110
100
AcDbLine
 10
216.349999
 20
-6.044776
 30
0.0
 11
216.349999
 21
-5.746269
 31
0.0
  0
LINE
  5
8C
100
AcDbEntity
  8
LY_3
390
0
  6
CONTINUOUS
 62
   110
100
AcDbLine
 10
217.842536
 20
-6.044776
 30
0.0
 11
217.842536
 21
-5.746269
 31
0.0
  0
LINE
  5
8D
100
AcDbEntity
  8
LY_3
390
0
  6
CONTINUOUS
 62
   110
100
AcDbLine
 10
217.544028
 20
4.850746
 30
0.0
 11
217.544028
 21
5.0
 31
0.0
  0
LINE
  5
8E
100
AcDbEntity
  8
LY_3
390
0
  6
CONTINUOUS
 62
   110
100
AcDbLine
 10
216.648506
 20
4.850746
 30
0.0
 11
216.648506
 21
5.0
 31
0.0
  0
LINE
  5
8F
100
AcDbEntity
  8
LY_3
390
0
  6
CONTINUOUS
 62
   110
100
AcDbLine
 10
216.351833
 20
4.029849
 30
0.0
 11
216.648506
 21
4.029849
 31
0.0
  0
LINE
  5
90
100
AcDbEntity
  8
LY_3
390
0
  6
CONTINUOUS
 62
   110
100
AcDbLine
 10
217.842536
 20
4.850746
 30
0.0
 11
217.842536
 21
5.0
 31
0.0
  0
LINE
  5
91
100
AcDbEntity
  8
LY_3
390
0
  6
CONTINUOUS
 62
   110
100
AcDbLine
 10
216.349998
 20
4.850746
 30
0.0
 11
216.349998
 21
5.0
 31
0.0
  0
LINE
  5
92
100
AcDbEntity
  8
LY_3
390
0
  6
CONTINUOUS
 62
   110
100
AcDbLine
 10
216.349999
 20
-1.538717
 30
0.0
 11
216.349999
 21
-1.19403
 31
0.0
  0
LINE
  5
93
100
AcDbEntity
  8
LY_3
390
0
  6
CONTINUOUS
 62
   110
100
AcDbLine
 10
217.842536
 20
-1.714462
 30
0.0
 11
217.842536
 21
-1.19403
 31
0.0
  0
LINE
  5
94
100
AcDbEntity
  8
LY_3
390
0
  6
CONTINUOUS
 62
   110
100
AcDbLine
 10
216.954213
 20
-2.462687
 30
0.0
 11
216.349999
 21
-2.462687
 31
0.0
  0
LINE
  5
95
100
AcDbEntity
  8
LY_3
390
0
  6
CONTINUOUS
 62
   110
100
AcDbLine
 10
217.240986
 20
-2.053129
 30
0.0
 11
216.954212
 21
-2.462686
 31
0.0
  0
LINE
  5
96
100
AcDbEntity
  8
LY_3
390
0
  6
CONTINUOUS
 62
   110
100
AcDbLine
 10
216.349999
 20
-1.538716
 30
0.0
 11
217.240988
 21
-2.053129
 31
0.0
  0
LINE
  5
97
100
AcDbEntity
  8
LY_3
390
0
  6
CONTINUOUS
 62
   110
100
AcDbLine
 10
217.842534
 20
-1.714461
 30
0.0
 11
217.318622
 21
-2.462686
 31
0.0
  0
LINE
  5
98
100
AcDbEntity
  8
LY_3
390
0
  6
CONTINUOUS
 62
   110
100
AcDbLine
 10
217.842535
 20
-1.194029
 30
0.0
 11
217.412857
 21
-1.807672
 31
0.0
  0
LINE
  5
99
100
AcDbEntity
  8
LY_3
390
0
  6
CONTINUOUS
 62
   110
100
AcDbLine
 10
216.349999
 20
-1.194029
 30
0.0
 11
217.412859
 21
-1.807672
 31
0.0
  0
LINE
  5
9A
100
AcDbEntity
  8
LY_3
390
0
  6
CONTINUOUS
 62
   110
100
AcDbLine
 10
216.349998
 20
-9.394263
 30
0.0
 11
216.947013
 21
-9.812298
 31
0.0
  0
LINE
  5
9B
100
AcDbEntity
  8
LY_3
390
0
  6
CONTINUOUS
 62
   110
100
AcDbLine
 10
216.349997
 20
-9.029853
 30
0.0
 11
216.947956
 21
-9.448549
 31
0.0
  0
LINE
  5
9C
100
AcDbEntity
  8
LY_3
390
0
  6
CONTINUOUS
 62
   110
100
AcDbLine
 10
217.842536
 20
-2.462687
 30
0.0
 11
217.318623
 21
-2.462687
 31
0.0
  0
LINE
  5
9D
100
AcDbEntity
  8
LY_3
390
0
  6
CONTINUOUS
 62
   110
100
AcDbLine
 10
217.842536
 20
-2.761194
 30
0.0
 11
216.349999
 21
-2.761194
 31
0.0
  0
LINE
  5
9E
100
AcDbEntity
  8
LY_3
390
0
  6
CONTINUOUS
 62
   110
100
AcDbLine
 10
216.648506
 20
0.149253
 30
0.0
 11
216.349998
 21
0.149253
 31
0.0
  0
LINE
  5
9F
100
AcDbEntity
  8
LY_3
390
0
  6
CONTINUOUS
 62
   110
100
AcDbLine
 10
217.245521
 20
0.149253
 30
0.0
 11
216.947013
 21
0.149253
 31
0.0
  0
LINE
  5
A0
100
AcDbEntity
  8
LY_3
390
0
  6
CONTINUOUS
 62
   110
100
AcDbLine
 10
217.544029
 20
-0.522388
 30
0.0
 11
217.544029
 21
0.149253
 31
0.0
  0
LINE
  5
A1
100
AcDbEntity
  8
LY_3
390
0
  6
CONTINUOUS
 62
   110
100
AcDbLine
 10
216.648506
 20
-0.522388
 30
0.0
 11
216.648506
 21
0.149253
 31
0.0
  0
LINE
  5
A2
100
AcDbEntity
  8
LY_3
390
0
  6
CONTINUOUS
 62
   110
100
AcDbLine
 10
217.245521
 20
-0.944542
 30
0.0
 11
217.245521
 21
0.149253
 31
0.0
  0
LINE
  5
A3
100
AcDbEntity
  8
LY_3
390
0
  6
CONTINUOUS
 62
   110
100
AcDbLine
 10
216.947013
 20
-0.944542
 30
0.0
 11
216.947013
 21
0.149253
 31
0.0
  0
LINE
  5
A4
100
AcDbEntity
  8
LY_3
390
0
  6
CONTINUOUS
 62
   110
100
AcDbLine
 10
216.349999
 20
-2.761194
 30
0.0
 11
216.349999
 21
-2.462687
 31
0.0
  0
LINE
  5
A5
100
AcDbEntity
  8
LY_3
390
0
  6
CONTINUOUS
 62
   110
100
AcDbLine
 10
217.842536
 20
-2.761194
 30
0.0
 11
217.842536
 21
-2.462687
 31
0.0
  0
LINE
  5
A6
100
AcDbEntity
  8
LY_3
390
0
  6
CONTINUOUS
 62
   110
100
AcDbLine
 10
216.349999
 20
-0.522388
 30
0.0
 11
216.349998
 21
0.149253
 31
0.0
  0
LINE
  5
A7
100
AcDbEntity
  8
LY_3
390
0
  6
CONTINUOUS
 62
   110
100
AcDbLine
 10
217.842536
 20
-0.522388
 30
0.0
 11
217.842536
 21
0.149253
 31
0.0
  0
LINE
  5
A8
100
AcDbEntity
  8
LY_3
390
0
  6
CONTINUOUS
 62
   110
100
AcDbLine
 10
217.842537
 20
-8.507463
 30
0.0
 11
216.349999
 21
-8.507463
 31
0.0
  0
LINE
  5
A9
100
AcDbEntity
  8
LY_3
390
0
  6
CONTINUOUS
 62
   110
100
AcDbLine
 10
217.842537
 20
-8.80597
 30
0.0
 11
216.349999
 21
-8.805971
 31
0.0
  0
LINE
  5
AA
100
AcDbEntity
  8
LY_3
390
0
  6
CONTINUOUS
 62
   110
100
AcDbLine
 10
216.349999
 20
-8.805971
 30
0.0
 11
216.349999
 21
-8.507463
 31
0.0
  0
LINE
  5
AB
100
AcDbEntity
  8
LY_3
390
0
  6
CONTINUOUS
 62
   110
100
AcDbLine
 10
217.842537
 20
-8.80597
 30
0.0
 11
217.842537
 21
-8.507463
 31
0.0
  0
LINE
  5
AC
100
AcDbEntity
  8
LY_3
390
0
  6
CONTINUOUS
 62
   110
100
AcDbLine
 10
216.349999
 20
-9.394262
 30
0.0
 11
216.349999
 21
-9.02985
 31
0.0
  0
LINE
  5
AD
100
AcDbEntity
  8
LY_3
390
0
  6
CONTINUOUS
 62
   110
100
AcDbLine
 10
216.947014
 20
-10.22388
 30
0.0
 11
216.349999
 21
-10.22388
 31
0.0
  0
LINE
  5
AE
100
AcDbEntity
  8
LY_3
390
0
  6
CONTINUOUS
 62
   110
100
AcDbLine
 10
217.842537
 20
-10.522388
 30
0.0
 11
217.842537
 21
-9.477612
 31
0.0
  0
LINE
  5
AF
100
AcDbEntity
  8
LY_3
390
0
  6
CONTINUOUS
 62
   110
100
AcDbLine
 10
216.349999
 20
-10.522388
 30
0.0
 11
216.349999
 21
-10.22388
 31
0.0
  0
LINE
  5
B0
100
AcDbEntity
  8
LY_3
390
0
  6
CONTINUOUS
 62
   110
100
AcDbLine
 10
217.245522
 20
-9.477612
 30
0.0
 11
217.245522
 21
-10.22388
 31
0.0
  0
LINE
  5
B1
100
AcDbEntity
  8
LY_3
390
0
  6
CONTINUOUS
 62
   110
100
AcDbLine
 10
217.544029
 20
-9.477612
 30
0.0
 11
217.544029
 21
-10.22388
 31
0.0
  0
LINE
  5
B2
100
AcDbEntity
  8
LY_3
390
0
  6
CONTINUOUS
 62
   110
100
AcDbLine
 10
216.947014
 20
-10.22388
 30
0.0
 11
216.947014
 21
-9.812295
 31
0.0
  0
LINE
  5
B3
100
AcDbEntity
  8
LY_3
390
0
  6
CONTINUOUS
 62
   110
100
AcDbLine
 10
217.842536
 20
0.149253
 30
0.0
 11
217.544029
 21
0.149253
 31
0.0
  0
LINE
  5
B4
100
AcDbEntity
  8
LY_3
390
0
  6
CONTINUOUS
 62
   110
100
AcDbLine
 10
217.544029
 20
-10.22388
 30
0.0
 11
217.394775
 21
-10.22388
 31
0.0
  0
LINE
  5
B5
100
AcDbEntity
  8
LY_3
390
0
  6
CONTINUOUS
 62
   110
100
AcDbLine
 10
217.842537
 20
-10.522388
 30
0.0
 11
217.394775
 21
-10.522388
 31
0.0
  0
LINE
  5
B6
100
AcDbEntity
  8
LY_3
390
0
  6
CONTINUOUS
 62
   110
100
AcDbLine
 10
217.842537
 20
-10.820895
 30
0.0
 11
216.349999
 21
-10.820896
 31
0.0
  0
LINE
  5
B7
100
AcDbEntity
  8
LY_3
390
0
  6
CONTINUOUS
 62
   110
100
AcDbLine
 10
217.842537
 20
-11.119403
 30
0.0
 11
216.349999
 21
-11.119403
 31
0.0
  0
LINE
  5
B8
100
AcDbEntity
  8
LY_3
390
0
  6
CONTINUOUS
 62
   110
100
AcDbLine
 10
216.349999
 20
-11.119403
 30
0.0
 11
216.349999
 21
-10.820896
 31
0.0
  0
LINE
  5
B9
100
AcDbEntity
  8
LY_3
390
0
  6
CONTINUOUS
 62
   110
100
AcDbLine
 10
217.842537
 20
-11.119403
 30
0.0
 11
217.842537
 21
-10.820895
 31
0.0
  0
LINE
  5
BA
100
AcDbEntity
  8
LY_3
390
0
  6
CONTINUOUS
 62
   110
100
AcDbLine
 10
224.63358
 20
9.328358
 30
0.0
 11
221.05149
 21
9.328358
 31
0.0
  0
LINE
  5
BB
100
AcDbEntity
  8
LY_3
390
0
  6
CONTINUOUS
 62
   110
100
AcDbLine
 10
219.335074
 20
-6.41791
 30
0.0
 11
219.335073
 21
-3.059702
 31
0.0
  0
LINE
  5
BC
100
AcDbEntity
  8
LY_3
390
0
  6
CONTINUOUS
 62
   110
100
AcDbLine
 10
226.349998
 20
0.447762
 30
0.0
 11
224.63358
 21
0.447761
 31
0.0
  0
LINE
  5
BD
100
AcDbEntity
  8
LY_3
390
0
  6
CONTINUOUS
 62
   110
100
AcDbLine
 10
226.200745
 20
-6.41791
 30
0.0
 11
226.200745
 21
-3.059701
 31
0.0
  0
LINE
  5
BE
100
AcDbEntity
  8
LY_3
390
0
  6
CONTINUOUS
 62
   110
100
AcDbLine
 10
226.200745
 20
-3.059701
 30
0.0
 11
219.335073
 21
-3.059702
 31
0.0
  0
LINE
  5
BF
100
AcDbEntity
  8
LY_3
390
0
  6
CONTINUOUS
 62
   110
100
AcDbLine
 10
226.200745
 20
-6.41791
 30
0.0
 11
219.335074
 21
-6.41791
 31
0.0
  0
LINE
  5
C0
100
AcDbEntity
  8
LY_3
390
0
  6
CONTINUOUS
 62
   110
100
AcDbLine
 10
224.521641
 20
-11.119403
 30
0.0
 11
219.335074
 21
-11.119403
 31
0.0
  0
LINE
  5
C1
100
AcDbEntity
  8
LY_3
390
0
  6
CONTINUOUS
 62
   110
100
AcDbLine
 10
219.335074
 20
-11.119403
 30
0.0
 11
219.335074
 21
-7.462687
 31
0.0
  0
ARC
  5
C2
100
AcDbEntity
  8
LY_3
390
0
  6
CONTINUOUS
 62
   110
100
AcDbCircle
 10
217.096266
 20
10.373133
 30
0.0
 40
0.746269
100
AcDbArc
 50
359.999968
 51
90.000004
  0
ARC
  5
C3
100
AcDbEntity
  8
LY_3
390
0
  6
CONTINUOUS
 62
   110
100
AcDbCircle
 10
217.096266
 20
10.373133
 30
0.0
 40
0.447761
100
AcDbArc
 50
359.999968
 51
90.000004
  0
ARC
  5
C4
100
AcDbEntity
  8
LY_3
390
0
  6
CONTINUOUS
 62
   110
100
AcDbCircle
 10
217.096267
 20
5.0
 30
0.0
 40
0.746269
100
AcDbArc
 50
0.000022
 51
90.000004
  0
ARC
  5
C5
100
AcDbEntity
  8
LY_3
390
0
  6
CONTINUOUS
 62
   110
100
AcDbCircle
 10
217.096267
 20
5.0
 30
0.0
 40
0.447761
100
AcDbArc
 50
0.000022
 51
90.000004
  0
ARC
  5
C6
100
AcDbEntity
  8
LY_3
390
0
  6
CONTINUOUS
 62
   110
100
AcDbCircle
 10
217.096267
 20
4.850746
 30
0.0
 40
0.447761
100
AcDbArc
 50
179.999976
 51
270.000027
  0
ARC
  5
C7
100
AcDbEntity
  8
LY_3
390
0
  6
CONTINUOUS
 62
   110
100
AcDbCircle
 10
217.096267
 20
4.850746
 30
0.0
 40
0.746269
100
AcDbArc
 50
179.999976
 51
270.000027
  0
ARC
  5
C8
100
AcDbEntity
  8
LY_3
390
0
  6
CONTINUOUS
 62
   110
100
AcDbCircle
 10
217.096268
 20
-3.80597
 30
0.0
 40
0.746269
100
AcDbArc
 50
179.999976
 51
270.000027
  0
ARC
  5
C9
100
AcDbEntity
  8
LY_3
390
0
  6
CONTINUOUS
 62
   110
100
AcDbCircle
 10
217.096268
 20
-3.80597
 30
0.0
 40
0.447761
100
AcDbArc
 50
179.999976
 51
270.000027
  0
ARC
  5
CA
100
AcDbEntity
  8
LY_3
390
0
  6
CONTINUOUS
 62
   110
100
AcDbCircle
 10
217.096267
 20
-3.656717
 30
0.0
 40
0.447761
100
AcDbArc
 50
0.000022
 51
90.000004
  0
ARC
  5
CB
100
AcDbEntity
  8
LY_3
390
0
  6
CONTINUOUS
 62
   110
100
AcDbCircle
 10
217.096267
 20
-3.656717
 30
0.0
 40
0.746269
100
AcDbArc
 50
0.000022
 51
90.000004
  0
ARC
  5
CC
100
AcDbEntity
  8
LY_3
390
0
  6
CONTINUOUS
 62
   110
100
AcDbCircle
 10
217.394775
 20
-9.477612
 30
0.0
 40
0.447761
100
AcDbArc
 50
0.000022
 51
90.000004
  0
ARC
  5
CD
100
AcDbEntity
  8
LY_3
390
0
  6
CONTINUOUS
 62
   110
100
AcDbCircle
 10
217.394775
 20
-9.477612
 30
0.0
 40
0.149254
100
AcDbArc
 50
0.000022
 51
90.000004
  0
ARC
  5
CE
100
AcDbEntity
  8
LY_3
390
0
  6
CONTINUOUS
 62
   110
100
AcDbCircle
 10
222.842535
 20
9.328358
 30
0.0
 40
1.791045
100
AcDbArc
 50
179.999986
 51
181.397621
  0
ARC
  5
CF
100
AcDbEntity
  8
LY_3
390
0
  6
CONTINUOUS
 62
   110
100
AcDbCircle
 10
222.842535
 20
9.328358
 30
0.0
 40
1.791045
100
AcDbArc
 50
181.397624
 51
358.602388
  0
ARC
  5
D0
100
AcDbEntity
  8
LY_3
390
0
  6
CONTINUOUS
 62
   110
100
AcDbCircle
 10
222.842535
 20
9.328358
 30
0.0
 40
1.791045
100
AcDbArc
 50
0.000022
 51
179.999986
  0
ARC
  5
D1
100
AcDbEntity
  8
LY_3
390
0
  6
CONTINUOUS
 62
   110
100
AcDbCircle
 10
222.842536
 20
0.447761
 30
0.0
 40
1.791045
100
AcDbArc
 50
0.000022
 51
179.999986
  0
ARC
  5
D2
100
AcDbEntity
  8
LY_3
390
0
  6
CONTINUOUS
 62
   110
100
AcDbCircle
 10
224.521641
 20
-9.291044
 30
0.0
 40
1.828358
100
AcDbArc
 50
89.999994
 51
270.000027
  0
ARC
  5
D3
100
AcDbEntity
  8
LY_3
390
0
  6
CONTINUOUS
 62
   110
100
AcDbCircle
 10
224.521641
 20
-9.291044
 30
0.0
 40
1.828358
100
AcDbArc
 50
270.00004
 51
90.000004
  0
ARC
  5
D4
100
AcDbEntity
  8
LY_3
390
0
  6
CONTINUOUS
 62
   110
100
AcDbCircle
 10
217.096267
 20
3.28358
 30
0.0
 40
0.447761
100
AcDbArc
 50
180.000004
 51
0.000022
  0
ARC
  5
D5
100
AcDbEntity
  8
LY_3
390
0
  6
CONTINUOUS
 62
   110
100
AcDbCircle
 10
217.096267
 20
3.28358
 30
0.0
 40
0.746269
100
AcDbArc
 50
180.000004
 51
0.000022
  0
ARC
  5
D6
100
AcDbEntity
  8
LY_3
390
0
  6
CONTINUOUS
 62
   110
100
AcDbCircle
 10
217.096266
 20
10.373133
 30
0.0
 40
0.447761
100
AcDbArc
 50
90.000004
 51
179.999986
  0
ARC
  5
D7
100
AcDbEntity
  8
LY_3
390
0
  6
CONTINUOUS
 62
   110
100
AcDbCircle
 10
217.096266
 20
10.373133
 30
0.0
 40
0.746269
100
AcDbArc
 50
90.000004
 51
179.999986
  0
ARC
  5
D8
100
AcDbEntity
  8
LY_3
390
0
  6
CONTINUOUS
 62
   110
100
AcDbCircle
 10
216.947013
 20
7.313432
 30
0.0
 40
0.298507
100
AcDbArc
 50
179.999976
 51
270.000027
  0
ARC
  5
D9
100
AcDbEntity
  8
LY_3
390
0
  6
CONTINUOUS
 62
   110
100
AcDbCircle
 10
216.947013
 20
7.313432
 30
0.0
 40
0.597015
100
AcDbArc
 50
179.999976
 51
270.000027
  0
CIRCLE
  5
DA
100
AcDbEntity
  8
LY_3
390
0
  6
CONTINUOUS
 62
   110
100
AcDbCircle
 10
216.536565
 20
5.895522
 30
0.0
 40
0.186567
  0
ARC
  5
DB
100
AcDbEntity
  8
LY_3
390
0
  6
CONTINUOUS
 62
   110
100
AcDbCircle
 10
216.536565
 20
6.373133
 30
0.0
 40
0.186567
100
AcDbArc
 50
208.46315
 51
130.000082
  0
ARC
  5
DC
100
AcDbEntity
  8
LY_3
390
0
  6
CONTINUOUS
 62
   110
100
AcDbCircle
 10
217.096267
 20
-3.656717
 30
0.0
 40
0.447761
100
AcDbArc
 50
90.000004
 51
179.999986
  0
ARC
  5
DD
100
AcDbEntity
  8
LY_3
390
0
  6
CONTINUOUS
 62
   110
100
AcDbCircle
 10
217.096268
 20
-3.80597
 30
0.0
 40
0.447761
100
AcDbArc
 50
270.00004
 51
0.000022
  0
ARC
  5
DE
100
AcDbEntity
  8
LY_3
390
0
  6
CONTINUOUS
 62
   110
100
AcDbCircle
 10
217.096267
 20
-3.656717
 30
0.0
 40
0.746269
100
AcDbArc
 50
90.000004
 51
179.999986
  0
ARC
  5
DF
100
AcDbEntity
  8
LY_3
390
0
  6
CONTINUOUS
 62
   110
100
AcDbCircle
 10
217.096268
 20
-3.80597
 30
0.0
 40
0.746269
100
AcDbArc
 50
270.00004
 51
0.000022
  0
ARC
  5
E0
100
AcDbEntity
  8
LY_3
390
0
  6
CONTINUOUS
 62
   110
100
AcDbCircle
 10
217.170894
 20
1.194029
 30
0.0
 40
0.373134
100
AcDbArc
 50
0.000022
 51
90.000004
  0
ARC
  5
E1
100
AcDbEntity
  8
LY_3
390
0
  6
CONTINUOUS
 62
   110
100
AcDbCircle
 10
217.170894
 20
1.044776
 30
0.0
 40
0.373134
100
AcDbArc
 50
270.00004
 51
0.000022
  0
ARC
  5
E2
100
AcDbEntity
  8
LY_3
390
0
  6
CONTINUOUS
 62
   110
100
AcDbCircle
 10
217.170894
 20
1.194029
 30
0.0
 40
0.671642
100
AcDbArc
 50
0.000022
 51
90.000004
  0
ARC
  5
E3
100
AcDbEntity
  8
LY_3
390
0
  6
CONTINUOUS
 62
   110
100
AcDbCircle
 10
217.170894
 20
1.044776
 30
0.0
 40
0.671642
100
AcDbArc
 50
270.00004
 51
0.000022
  0
ARC
  5
E4
100
AcDbEntity
  8
LY_3
390
0
  6
CONTINUOUS
 62
   110
100
AcDbCircle
 10
217.096268
 20
-7.61194
 30
0.0
 40
0.447761
100
AcDbArc
 50
179.999986
 51
250.528793
  0
ARC
  5
E5
100
AcDbEntity
  8
LY_3
390
0
  6
CONTINUOUS
 62
   110
100
AcDbCircle
 10
217.096268
 20
-7.61194
 30
0.0
 40
0.447761
100
AcDbArc
 50
289.471216
 51
0.000022
  0
ARC
  5
E6
100
AcDbEntity
  8
LY_3
390
0
  6
CONTINUOUS
 62
   110
100
AcDbCircle
 10
217.096268
 20
-7.61194
 30
0.0
 40
0.746269
100
AcDbArc
 50
180.000004
 51
0.000022
  0
ARC
  5
E7
100
AcDbEntity
  8
LY_3
390
0
  6
CONTINUOUS
 62
   110
100
AcDbCircle
 10
217.096267
 20
5.0
 30
0.0
 40
0.447761
100
AcDbArc
 50
90.000004
 51
179.999986
  0
ARC
  5
E8
100
AcDbEntity
  8
LY_3
390
0
  6
CONTINUOUS
 62
   110
100
AcDbCircle
 10
217.096267
 20
4.850746
 30
0.0
 40
0.447761
100
AcDbArc
 50
270.00004
 51
0.000022
  0
ARC
  5
E9
100
AcDbEntity
  8
LY_3
390
0
  6
CONTINUOUS
 62
   110
100
AcDbCircle
 10
217.096267
 20
5.0
 30
0.0
 40
0.746269
100
AcDbArc
 50
90.000004
 51
179.999986
  0
ARC
  5
EA
100
AcDbEntity
  8
LY_3
390
0
  6
CONTINUOUS
 62
   110
100
AcDbCircle
 10
217.096267
 20
4.850746
 30
0.0
 40
0.746269
100
AcDbArc
 50
270.00004
 51
0.000022
  0
ARC
  5
EB
100
AcDbEntity
  8
LY_3
390
0
  6
CONTINUOUS
 62
   110
100
AcDbCircle
 10
217.096267
 20
-0.522388
 30
0.0
 40
0.447761
100
AcDbArc
 50
179.999986
 51
250.528793
  0
ARC
  5
EC
100
AcDbEntity
  8
LY_3
390
0
  6
CONTINUOUS
 62
   110
100
AcDbCircle
 10
217.096267
 20
-0.522388
 30
0.0
 40
0.447761
100
AcDbArc
 50
289.471216
 51
0.000022
  0
ARC
  5
ED
100
AcDbEntity
  8
LY_3
390
0
  6
CONTINUOUS
 62
   110
100
AcDbCircle
 10
217.096267
 20
-0.522388
 30
0.0
 40
0.746269
100
AcDbArc
 50
180.000004
 51
0.000022
  0
ARC
  5
EE
100
AcDbEntity
  8
LY_3
390
0
  6
CONTINUOUS
 62
   110
100
AcDbCircle
 10
217.394775
 20
-9.477612
 30
0.0
 40
0.149254
100
AcDbArc
 50
90.000004
 51
179.999986
  0
ARC
  5
EF
100
AcDbEntity
  8
LY_3
390
0
  6
CONTINUOUS
 62
   110
100
AcDbCircle
 10
217.394775
 20
-9.477612
 30
0.0
 40
0.447761
100
AcDbArc
 50
90.000004
 51
176.278162
  0
ARC
  5
F0
100
AcDbEntity
  8
LY_3
390
0
  6
CONTINUOUS
 62
   110
100
AcDbCircle
 10
222.842535
 20
9.328358
 30
0.0
 40
1.791045
100
AcDbArc
 50
358.602388
 51
0.000022
  0
ARC
  5
F1
100
AcDbEntity
  8
LY_3
390
0
  6
CONTINUOUS
 62
   110
100
AcDbCircle
 10
222.842536
 20
0.447761
 30
0.0
 40
1.791045
100
AcDbArc
 50
180.000004
 51
0.000022
  0
ARC
  5
F2
100
AcDbEntity
  8
LY_3
390
0
  6
CONTINUOUS
 62
   110
100
AcDbCircle
 10
222.842535
 20
6.268657
 30
0.0
 40
3.507463
100
AcDbArc
 50
120.696258
 51
59.303778
  0
ARC
  5
F3
100
AcDbEntity
  8
LY_3
390
0
  6
CONTINUOUS
 62
   110
100
AcDbCircle
 10
222.842536
 20
0.447761
 30
0.0
 40
3.507463
100
AcDbArc
 50
180.000004
 51
0.000022
  0
SOLID
  5
F4
100
AcDbEntity
  8
LY_3
390
0
  6
CONTINUOUS
 62
   110
100
AcDbTrace
 10
216.349999
 20
-8.805971
 30
0.0
 11
216.349999
 21
-8.507463
 31
0.0
 12
217.842537
 22
-8.80597
 32
0.0
 13
217.842537
 23
-8.507463
 33
0.0
  0
SOLID
  5
F5
100
AcDbEntity
  8
LY_3
390
0
  6
CONTINUOUS
 62
   110
100
AcDbTrace
 10
216.349999
 20
-11.119403
 30
0.0
 11
216.349999
 21
-10.820896
 31
0.0
 12
217.842537
 22
-11.119403
 32
0.0
 13
217.842537
 23
-10.820895
 33
0.0
  0
SOLID
  5
F6
100
AcDbEntity
  8
LY_3
390
0
  6
CONTINUOUS
 62
   110
100
AcDbTrace
 10
219.335074
 20
-6.41791
 30
0.0
 11
219.335073
 21
-3.059702
 31
0.0
 12
226.200745
 22
-6.41791
 32
0.0
 13
226.200745
 23
-3.059701
 33
0.0
  0
LINE
  5
F7
100
AcDbEntity
  8
LY_3
390
0
  6
CONTINUOUS
 62
     3
100
AcDbLine
 10
-24.138344
 20
-0.75
 30
0.0
 11
-34.641876
 21
-0.75
 31
0.0
  0
LINE
  5
F8
100
AcDbEntity
  8
LY_3
390
0
  6
CONTINUOUS
 62
     3
100
AcDbLine
 10
-24.138344
 20
0.75
 30
0.0
 11
-34.641876
 21
0.75
 31
0.0
  0
LINE
  5
FA
100
AcDbEntity
  8
LY_3
390
0
  6
CENTER
 62
   110
100
AcDbLine
 10
-28.665456
 20
16.549993
 30
0.0
 11
-22.170265
 21
12.799994
 31
0.0
  0
LINE
  5
FB
100
AcDbEntity
  8
LY_3
390
0
  6
CENTER
 62
   110
100
AcDbLine
 10
-28.665446
 20
-16.550004
 30
0.0
 11
-22.170254
 21
-12.800003
 31
0.0
  0
LINE
  5
FC
100
AcDbEntity
  8
LY_3
390
0
  6
CENTER
 62
   110
100
AcDbLine
 10
28.665454
 20
16.550007
 30
0.0
 11
22.170261
 21
12.800006
 31
0.0
  0
LINE
  5
FD
100
AcDbEntity
  8
LY_3
390
0
  6
CENTER
 62
   110
100
AcDbLine
 10
28.665441
 20
-16.550003
 30
0.0
 11
22.17025
 21
-12.800003
 31
0.0
  0
LINE
  5
FE
100
AcDbEntity
  8
LY_3
390
0
  6
CONTINUOUS
 62
     3
100
AcDbLine
 10
34.641876
 20
0.75
 30
0.0
 11
24.138344
 21
0.75
 31
0.0
  0
LINE
  5
FF
100
AcDbEntity
  8
LY_3
390
0
  6
CONTINUOUS
 62
     3
100
AcDbLine
 10
34.641876
 20
-0.75
 30
0.0
 11
24.138344
 21
-0.75
 31
0.0
  0
CIRCLE
  5
100
100
AcDbEntity
  8
LY_3
390
0
  6
CONTINUOUS
 62
     3
100
AcDbCircle
 10
0.0
 20
29.350006
 30
0.0
 40
3.399994
  0
CIRCLE
  5
101
100
AcDbEntity
  8
LY_3
390
0
  6
CONTINUOUS
 62
     3
100
AcDbCircle
 10
-25.417862
 20
14.674995
 30
0.0
 40
3.399994
  0
CIRCLE
  5
102
100
AcDbEntity
  8
LY_3
390
0
  6
CONTINUOUS
 62
     3
100
AcDbCircle
 10
-25.417847
 20
-14.675013
 30
0.0
 40
3.399994
  0
CIRCLE
  5
103
100
AcDbEntity
  8
LY_3
390
0
  6
CONTINUOUS
 62
     3
100
AcDbCircle
 10
0.000008
 20
-29.350008
 30
0.0
 40
3.399994
  0
CIRCLE
  5
104
100
AcDbEntity
  8
LY_3
390
0
  6
CONTINUOUS
 62
     3
100
AcDbCircle
 10
0.0
 20
0.0
 30
0.0
 40
33.849995
  0
CIRCLE
  5
105
100
AcDbEntity
  8
LY_3
390
0
  6
CONTINUOUS
 62
     3
100
AcDbCircle
 10
25.417854
 20
-14.675
 30
0.0
 40
3.399994
  0
CIRCLE
  5
106
100
AcDbEntity
  8
LY_3
390
0
  6
CONTINUOUS
 62
     3
100
AcDbCircle
 10
25.417847
 20
14.675003
 30
0.0
 40
3.399994
  0
LINE
  5
107
100
AcDbEntity
  8
LY_3
390
0
  6
CONTINUOUS
 62
   110
100
AcDbLine
 10
85.0
 20
20.0
 30
0.0
 11
105.0
 21
20.0
 31
0.0
  0
LINE
  5
108
100
AcDbEntity
  8
LY_3
390
0
  6
CONTINUOUS
 62
   110
100
AcDbLine
 10
85.0
 20
6.0
 30
0.0
 11
85.0
 21
21.0
 31
0.0
  0
LINE
  5
109
100
AcDbEntity
  8
LY_3
390
0
  6
CONTINUOUS
 62
   110
100
AcDbLine
 10
105.0
 20
7.0
 30
0.0
 11
105.0
 21
21.0
 31
0.0
  0
MTEXT
  5
10A
100
AcDbEntity
  8
LY_3
390
0
  6
CONTINUOUS
 62
   110
100
AcDbMText
 10
91.897728
 20
26.2
 30
0.0
 40
5.2
 41
0.0
 71
     1
 72
     1
  1
\W1.023;\A1;20
 73
     1
 44
1.0
  0
LINE
  5
10B
100
AcDbEntity
  8
LY_3
390
0
  6
CONTINUOUS
 62
   110
100
AcDbLine
 10
87.77
 20
19.257781
 30
0.0
 11
85.0
 21
20.0
 31
0.0
  0
LINE
  5
10C
100
AcDbEntity
  8
LY_3
390
0
  6
CONTINUOUS
 62
   110
100
AcDbLine
 10
85.0
 20
20.0
 30
0.0
 11
87.77
 21
20.742219
 31
0.0
  0
LINE
  5
10D
100
AcDbEntity
  8
LY_3
390
0
  6
CONTINUOUS
 62
   110
100
AcDbLine
 10
85.0
 20
20.0
 30
0.0
 11
87.77
 21
20.0
 31
0.0
  0
LINE
  5
10E
100
AcDbEntity
  8
LY_3
390
0
  6
CONTINUOUS
 62
   110
100
AcDbLine
 10
102.23
 20
20.742219
 30
0.0
 11
105.0
 21
20.0
 31
0.0
  0
LINE
  5
10F
100
AcDbEntity
  8
LY_3
390
0
  6
CONTINUOUS
 62
   110
100
AcDbLine
 10
105.0
 20
20.0
 30
0.0
 11
102.23
 21
19.257781
 31
0.0
  0
LINE
  5
110
100
AcDbEntity
  8
LY_3
390
0
  6
CONTINUOUS
 62
   110
100
AcDbLine
 10
105.0
 20
20.0
 30
0.0
 11
102.23
 21
20.0
 31
0.0
  0
LWPOLYLINE
  5
111
100
AcDbEntity
  8
LY_3
390
0
  6
CONTINUOUS
 62
   110
100
AcDbPolyline
 90
        3
 70
     0
 10
221.349998
 20
34.649994
 10
210.0
 20
50.0
 10
160.312892
 20
50.0
  0
MTEXT
  5
112
100
AcDbEntity
  8
LY_3
390
0
  6
CONTINUOUS
 62
   110
100
AcDbMText
 10
160.989975
 20
57.5
 30
0.0
 40
5.2
 41
0.0
 71
     1
 72
     1
  1
\W0.781;\A1;コンフラットフランジ
 73
     1
 44
1.0
  0
LWPOLYLINE
  5
113
100
AcDbEntity
  8
LY_3
390
0
  6
CONTINUOUS
 62
   110
100
AcDbPolyline
 90
        3
 70
     0
 10
261.125023
 20
39.999985
 10
250.0
 20
60.0
 10
224.30864
 20
60.0
  0
MTEXT
  5
114
100
AcDbEntity
  8
LY_3
390
0
  6
CONTINUOUS
 62
   110
100
AcDbMText
 10
224.985723
 20
67.5
 30
0.0
 40
5.2
 41
0.0
 71
     1
 72
     1
  1
\W0.781;\A1;ストッパー
 73
     1
 44
1.0
  0
LINE
  5
115
100
AcDbEntity
  8
LY_3
390
0
  6
CONTINUOUS
 62
   110
100
AcDbLine
 10
-60.0
 20
-5.0
 30
0.0
 11
-60.0
 21
4.0
 31
0.0
  0
LINE
  5
116
100
AcDbEntity
  8
LY_3
390
0
  6
CONTINUOUS
 62
   110
100
AcDbLine
 10
-60.0
 20
4.0
 30
0.0
 11
-60.0
 21
13.629167
 31
0.0
  0
LINE
  5
117
100
AcDbEntity
  8
LY_3
390
0
  6
CONTINUOUS
 62
   110
100
AcDbLine
 10
-2.0
 20
-5.0
 30
0.0
 11
-61.0
 21
-5.0
 31
0.0
  0
LINE
  5
118
100
AcDbEntity
  8
LY_3
390
0
  6
CONTINUOUS
 62
   110
100
AcDbLine
 10
-5.0
 20
4.0
 30
0.0
 11
-61.0
 21
4.0
 31
0.0
  0
LINE
  5
119
100
AcDbEntity
  8
LY_3
390
0
  6
CONTINUOUS
 62
   110
100
AcDbLine
 10
-60.0
 20
-5.0
 30
0.0
 11
-60.0
 21
-9.0
 31
0.0
  0
LINE
  5
11A
100
AcDbEntity
  8
LY_3
390
0
  6
CONTINUOUS
 62
   110
100
AcDbLine
 10
-60.0
 20
4.0
 30
0.0
 11
-60.0
 21
8.0
 31
0.0
  0
MTEXT
  5
11B
100
AcDbEntity
  8
LY_3
390
0
  6
CONTINUOUS
 62
   110
100
AcDbMText
 10
-66.2
 20
9.254556
 30
0.0
 40
5.2
 41
0.0
 71
     1
 72
     1
  1
\W0.952;\A1;9
 11
0.0
 21
1.0
 31
0.0
 73
     1
 44
1.0
  0
LINE
  5
11C
100
AcDbEntity
  8
LY_3
390
0
  6
CONTINUOUS
 62
   110
100
AcDbLine
 10
-60.742219
 20
-7.77
 30
0.0
 11
-60.0
 21
-5.0
 31
0.0
  0
LINE
  5
11D
100
AcDbEntity
  8
LY_3
390
0
  6
CONTINUOUS
 62
   110
100
AcDbLine
 10
-60.0
 20
-5.0
 30
0.0
 11
-59.257781
 21
-7.77
 31
0.0
  0
LINE
  5
11E
100
AcDbEntity
  8
LY_3
390
0
  6
CONTINUOUS
 62
   110
100
AcDbLine
 10
-60.0
 20
-5.0
 30
0.0
 11
-60.0
 21
-7.77
 31
0.0
  0
LINE
  5
11F
100
AcDbEntity
  8
LY_3
390
0
  6
CONTINUOUS
 62
   110
100
AcDbLine
 10
-59.257781
 20
6.77
 30
0.0
 11
-60.0
 21
4.0
 31
0.0
  0
LINE
  5
120
100
AcDbEntity
  8
LY_3
390
0
  6
CONTINUOUS
 62
   110
100
AcDbLine
 10
-60.0
 20
4.0
 30
0.0
 11
-60.742219
 21
6.77
 31
0.0
  0
LINE
  5
121
100
AcDbEntity
  8
LY_3
390
0
  6
CONTINUOUS
 62
   110
100
AcDbLine
 10
-60.0
 20
4.0
 30
0.0
 11
-60.0
 21
6.77
 31
0.0
  0
LINE
  5
122
100
AcDbEntity
  8
LY_3
390
0
  6
CENTER
 62
   110
100
AcDbLine
 10
0.0
 20
50.0
 30
0.0
 11
0.0
 21
-50.0
 31
0.0
  0
LINE
  5
123
100
AcDbEntity
  8
LY_3
390
0
  6
CONTINUOUS
 62
   110
100
AcDbLine
 10
3.0
 20
4.0
 30
0.0
 11
-3.0
 21
4.0
 31
0.0
  0
LINE
  5
124
100
AcDbEntity
  8
LY_3
390
0
  6
CONTINUOUS
 62
   110
100
AcDbLine
 10
283.5
 20
-39.945183
 30
0.0
 11
281.0
 21
-39.945183
 31
0.0
  0
LINE
  5
125
100
AcDbEntity
  8
LY_3
390
0
  6
CONTINUOUS
 62
   110
100
AcDbLine
 10
283.5
 20
-39.902557
 30
0.0
 11
281.0
 21
-39.902557
 31
0.0
  0
LINE
  5
126
100
AcDbEntity
  8
LY_3
390
0
  6
CONTINUOUS
 62
   110
100
AcDbLine
 10
285.0
 20
-39.847786
 30
0.0
 11
281.0
 21
-39.847786
 31
0.0
  0
LINE
  5
127
100
AcDbEntity
  8
LY_3
390
0
  6
CONTINUOUS
 62
   110
100
AcDbLine
 10
283.5
 20
-39.780876
 30
0.0
 11
281.0
 21
-39.780876
 31
0.0
  0
LINE
  5
128
100
AcDbEntity
  8
LY_3
390
0
  6
CONTINUOUS
 62
   110
100
AcDbLine
 10
283.5
 20
-39.701836
 30
0.0
 11
281.0
 21
-39.701836
 31
0.0
  0
LINE
  5
129
100
AcDbEntity
  8
LY_3
390
0
  6
CONTINUOUS
 62
   110
100
AcDbLine
 10
283.5
 20
-39.610718
 30
0.0
 11
281.0
 21
-39.610718
 31
0.0
  0
LINE
  5
12A
100
AcDbEntity
  8
LY_3
390
0
  6
CONTINUOUS
 62
   110
100
AcDbLine
 10
283.5
 20
-39.50753
 30
0.0
 11
281.0
 21
-39.50753
 31
0.0
  0
LINE
  5
12B
100
AcDbEntity
  8
LY_3
390
0
  6
CONTINUOUS
 62
   110
100
AcDbLine
 10
286.5
 20
-39.392303
 30
0.0
 11
281.0
 21
-39.392303
 31
0.0
  0
LINE
  5
12C
100
AcDbEntity
  8
LY_3
390
0
  6
CONTINUOUS
 62
   110
100
AcDbLine
 10
283.5
 20
-39.265083
 30
0.0
 11
281.0
 21
-39.265083
 31
0.0
  0
LINE
  5
12D
100
AcDbEntity
  8
LY_3
390
0
  6
CONTINUOUS
 62
   110
100
AcDbLine
 10
283.5
 20
-39.125893
 30
0.0
 11
281.0
 21
-39.125893
 31
0.0
  0
LINE
  5
12E
100
AcDbEntity
  8
LY_3
390
0
  6
CONTINUOUS
 62
   110
100
AcDbLine
 10
283.5
 20
-38.974792
 30
0.0
 11
281.0
 21
-38.974792
 31
0.0
  0
LINE
  5
12F
100
AcDbEntity
  8
LY_3
390
0
  6
CONTINUOUS
 62
   110
100
AcDbLine
 10
283.5
 20
-38.811821
 30
0.0
 11
281.0
 21
-38.811821
 31
0.0
  0
LINE
  5
130
100
AcDbEntity
  8
LY_3
390
0
  6
CONTINUOUS
 62
   110
100
AcDbLine
 10
285.0
 20
-38.637016
 30
0.0
 11
281.0
 21
-38.637016
 31
0.0
  0
LINE
  5
131
100
AcDbEntity
  8
LY_3
390
0
  6
CONTINUOUS
 62
   110
100
AcDbLine
 10
283.5
 20
-38.450455
 30
0.0
 11
281.0
 21
-38.450455
 31
0.0
  0
LINE
  5
132
100
AcDbEntity
  8
LY_3
390
0
  6
CONTINUOUS
 62
   110
100
AcDbLine
 10
283.5
 20
-38.252174
 30
0.0
 11
281.0
 21
-38.252174
 31
0.0
  0
LINE
  5
133
100
AcDbEntity
  8
LY_3
390
0
  6
CONTINUOUS
 62
   110
100
AcDbLine
 10
283.5
 20
-38.042244
 30
0.0
 11
281.0
 21
-38.042244
 31
0.0
  0
LINE
  5
134
100
AcDbEntity
  8
LY_3
390
0
  6
CONTINUOUS
 62
   110
100
AcDbLine
 10
283.5
 20
-37.820724
 30
0.0
 11
281.0
 21
-37.820724
 31
0.0
  0
LINE
  5
135
100
AcDbEntity
  8
LY_3
390
0
  6
CONTINUOUS
 62
   110
100
AcDbLine
 10
286.5
 20
-37.587685
 30
0.0
 11
281.0
 21
-37.587685
 31
0.0
  0
LINE
  5
136
100
AcDbEntity
  8
LY_3
390
0
  6
CONTINUOUS
 62
   110
100
AcDbLine
 10
283.5
 20
-37.343193
 30
0.0
 11
281.0
 21
-37.343193
 31
0.0
  0
LINE
  5
137
100
AcDbEntity
  8
LY_3
390
0
  6
CONTINUOUS
 62
   110
100
AcDbLine
 10
283.5
 20
-37.087334
 30
0.0
 11
281.0
 21
-37.087334
 31
0.0
  0
LINE
  5
138
100
AcDbEntity
  8
LY_3
390
0
  6
CONTINUOUS
 62
   110
100
AcDbLine
 10
283.5
 20
-36.820168
 30
0.0
 11
281.0
 21
-36.820168
 31
0.0
  0
LINE
  5
139
100
AcDbEntity
  8
LY_3
390
0
  6
CONTINUOUS
 62
   110
100
AcDbLine
 10
283.5
 20
-36.541794
 30
0.0
 11
281.0
 21
-36.541794
 31
0.0
  0
LINE
  5
13A
100
AcDbEntity
  8
LY_3
390
0
  6
CONTINUOUS
 62
   110
100
AcDbLine
 10
285.0
 20
-36.252281
 30
0.0
 11
281.0
 21
-36.252281
 31
0.0
  0
LINE
  5
13B
100
AcDbEntity
  8
LY_3
390
0
  6
CONTINUOUS
 62
   110
100
AcDbLine
 10
283.5
 20
-35.951736
 30
0.0
 11
281.0
 21
-35.951736
 31
0.0
  0
LINE
  5
13C
100
AcDbEntity
  8
LY_3
390
0
  6
CONTINUOUS
 62
   110
100
AcDbLine
 10
283.5
 20
-35.640236
 30
0.0
 11
281.0
 21
-35.640236
 31
0.0
  0
LINE
  5
13D
100
AcDbEntity
  8
LY_3
390
0
  6
CONTINUOUS
 62
   110
100
AcDbLine
 10
283.5
 20
-35.317879
 30
0.0
 11
281.0
 21
-35.317879
 31
0.0
  0
LINE
  5
13E
100
AcDbEntity
  8
LY_3
390
0
  6
CONTINUOUS
 62
   110
100
AcDbLine
 10
283.5
 20
-34.984764
 30
0.0
 11
281.0
 21
-34.984764
 31
0.0
  0
LINE
  5
13F
100
AcDbEntity
  8
LY_3
390
0
  6
CONTINUOUS
 62
   110
100
AcDbLine
 10
286.5
 20
-34.640999
 30
0.0
 11
281.0
 21
-34.640999
 31
0.0
  0
LINE
  5
140
100
AcDbEntity
  8
LY_3
390
0
  6
CONTINUOUS
 62
   110
100
AcDbLine
 10
283.5
 20
-34.286674
 30
0.0
 11
281.0
 21
-34.286674
 31
0.0
  0
LINE
  5
141
100
AcDbEntity
  8
LY_3
390
0
  6
CONTINUOUS
 62
   110
100
AcDbLine
 10
283.5
 20
-33.921906
 30
0.0
 11
281.0
 21
-33.921906
 31
0.0
  0
LINE
  5
142
100
AcDbEntity
  8
LY_3
390
0
  6
CONTINUOUS
 62
   110
100
AcDbLine
 10
283.5
 20
-33.546806
 30
0.0
 11
281.0
 21
-33.546806
 31
0.0
  0
LINE
  5
143
100
AcDbEntity
  8
LY_3
390
0
  6
CONTINUOUS
 62
   110
100
AcDbLine
 10
283.5
 20
-33.161491
 30
0.0
 11
281.0
 21
-33.161491
 31
0.0
  0
LINE
  5
144
100
AcDbEntity
  8
LY_3
390
0
  6
CONTINUOUS
 62
   110
100
AcDbLine
 10
285.0
 20
-32.766075
 30
0.0
 11
281.0
 21
-32.766075
 31
0.0
  0
LINE
  5
145
100
AcDbEntity
  8
LY_3
390
0
  6
CONTINUOUS
 62
   110
100
AcDbLine
 10
283.5
 20
-32.360664
 30
0.0
 11
281.0
 21
-32.360664
 31
0.0
  0
LINE
  5
146
100
AcDbEntity
  8
LY_3
390
0
  6
CONTINUOUS
 62
   110
100
AcDbLine
 10
283.5
 20
-31.945412
 30
0.0
 11
281.0
 21
-31.945412
 31
0.0
  0
LINE
  5
147
100
AcDbEntity
  8
LY_3
390
0
  6
CONTINUOUS
 62
   110
100
AcDbLine
 10
283.5
 20
-31.520424
 30
0.0
 11
281.0
 21
-31.520424
 31
0.0
  0
LINE
  5
148
100
AcDbEntity
  8
LY_3
390
0
  6
CONTINUOUS
 62
   110
100
AcDbLine
 10
283.5
 20
-31.085838
 30
0.0
 11
281.0
 21
-31.085838
 31
0.0
  0
LINE
  5
149
100
AcDbEntity
  8
LY_3
390
0
  6
CONTINUOUS
 62
   110
100
AcDbLine
 10
286.5
 20
-30.641777
 30
0.0
 11
281.0
 21
-30.641777
 31
0.0
  0
LINE
  5
14A
100
AcDbEntity
  8
LY_3
390
0
  6
CONTINUOUS
 62
   110
100
AcDbLine
 10
283.5
 20
-30.188385
 30
0.0
 11
281.0
 21
-30.188385
 31
0.0
  0
LINE
  5
14B
100
AcDbEntity
  8
LY_3
390
0
  6
CONTINUOUS
 62
   110
100
AcDbLine
 10
283.5
 20
-29.7258
 30
0.0
 11
281.0
 21
-29.7258
 31
0.0
  0
LINE
  5
14C
100
AcDbEntity
  8
LY_3
390
0
  6
CONTINUOUS
 62
   110
100
AcDbLine
 10
283.5
 20
-29.254158
 30
0.0
 11
281.0
 21
-29.254158
 31
0.0
  0
LINE
  5
14D
100
AcDbEntity
  8
LY_3
390
0
  6
CONTINUOUS
 62
   110
100
AcDbLine
 10
283.5
 20
-28.773598
 30
0.0
 11
281.0
 21
-28.773598
 31
0.0
  0
LINE
  5
14E
100
AcDbEntity
  8
LY_3
390
0
  6
CONTINUOUS
 62
   110
100
AcDbLine
 10
285.0
 20
-28.284286
 30
0.0
 11
281.0
 21
-28.284286
 31
0.0
  0
LINE
  5
14F
100
AcDbEntity
  8
LY_3
390
0
  6
CONTINUOUS
 62
   110
100
AcDbLine
 10
283.5
 20
-27.786354
 30
0.0
 11
281.0
 21
-27.786354
 31
0.0
  0
LINE
  5
150
100
AcDbEntity
  8
LY_3
390
0
  6
CONTINUOUS
 62
   110
100
AcDbLine
 10
283.5
 20
-27.279953
 30
0.0
 11
281.0
 21
-27.279953
 31
0.0
  0
LINE
  5
151
100
AcDbEntity
  8
LY_3
390
0
  6
CONTINUOUS
 62
   110
100
AcDbLine
 10
283.5
 20
-26.765251
 30
0.0
 11
281.0
 21
-26.765251
 31
0.0
  0
LINE
  5
152
100
AcDbEntity
  8
LY_3
390
0
  6
CONTINUOUS
 62
   110
100
AcDbLine
 10
283.5
 20
-26.242386
 30
0.0
 11
281.0
 21
-26.242386
 31
0.0
  0
LINE
  5
153
100
AcDbEntity
  8
LY_3
390
0
  6
CONTINUOUS
 62
   110
100
AcDbLine
 10
286.5
 20
-25.711533
 30
0.0
 11
281.0
 21
-25.711533
 31
0.0
  0
LINE
  5
154
100
AcDbEntity
  8
LY_3
390
0
  6
CONTINUOUS
 62
   110
100
AcDbLine
 10
283.5
 20
-25.172852
 30
0.0
 11
281.0
 21
-25.172852
 31
0.0
  0
LINE
  5
155
100
AcDbEntity
  8
LY_3
390
0
  6
CONTINUOUS
 62
   110
100
AcDbLine
 10
283.5
 20
-24.626495
 30
0.0
 11
281.0
 21
-24.626495
 31
0.0
  0
LINE
  5
156
100
AcDbEntity
  8
LY_3
390
0
  6
CONTINUOUS
 62
   110
100
AcDbLine
 10
283.5
 20
-24.072639
 30
0.0
 11
281.0
 21
-24.072639
 31
0.0
  0
LINE
  5
157
100
AcDbEntity
  8
LY_3
390
0
  6
CONTINUOUS
 62
   110
100
AcDbLine
 10
283.5
 20
-23.511452
 30
0.0
 11
281.0
 21
-23.511452
 31
0.0
  0
LINE
  5
158
100
AcDbEntity
  8
LY_3
390
0
  6
CONTINUOUS
 62
   110
100
AcDbLine
 10
285.0
 20
-22.943108
 30
0.0
 11
281.0
 21
-22.943108
 31
0.0
  0
LINE
  5
159
100
AcDbEntity
  8
LY_3
390
0
  6
CONTINUOUS
 62
   110
100
AcDbLine
 10
283.5
 20
-22.367767
 30
0.0
 11
281.0
 21
-22.367767
 31
0.0
  0
LINE
  5
15A
100
AcDbEntity
  8
LY_3
390
0
  6
CONTINUOUS
 62
   110
100
AcDbLine
 10
283.5
 20
-21.785622
 30
0.0
 11
281.0
 21
-21.785622
 31
0.0
  0
LINE
  5
15B
100
AcDbEntity
  8
LY_3
390
0
  6
CONTINUOUS
 62
   110
100
AcDbLine
 10
283.5
 20
-21.196831
 30
0.0
 11
281.0
 21
-21.196831
 31
0.0
  0
LINE
  5
15C
100
AcDbEntity
  8
LY_3
390
0
  6
CONTINUOUS
 62
   110
100
AcDbLine
 10
283.5
 20
-20.601585
 30
0.0
 11
281.0
 21
-20.601585
 31
0.0
  0
LINE
  5
15D
100
AcDbEntity
  8
LY_3
390
0
  6
CONTINUOUS
 62
   110
100
AcDbLine
 10
286.5
 20
-20.000069
 30
0.0
 11
281.0
 21
-20.000069
 31
0.0
  0
LINE
  5
15E
100
AcDbEntity
  8
LY_3
390
0
  6
CONTINUOUS
 62
   110
100
AcDbLine
 10
283.5
 20
-19.392456
 30
0.0
 11
281.0
 21
-19.392456
 31
0.0
  0
LINE
  5
15F
100
AcDbEntity
  8
LY_3
390
0
  6
CONTINUOUS
 62
   110
100
AcDbLine
 10
283.5
 20
-18.778938
 30
0.0
 11
281.0
 21
-18.778938
 31
0.0
  0
LINE
  5
160
100
AcDbEntity
  8
LY_3
390
0
  6
CONTINUOUS
 62
   110
100
AcDbLine
 10
283.5
 20
-18.159698
 30
0.0
 11
281.0
 21
-18.159698
 31
0.0
  0
LINE
  5
161
100
AcDbEntity
  8
LY_3
390
0
  6
CONTINUOUS
 62
   110
100
AcDbLine
 10
283.5
 20
-17.534935
 30
0.0
 11
281.0
 21
-17.534935
 31
0.0
  0
LINE
  5
162
100
AcDbEntity
  8
LY_3
390
0
  6
CONTINUOUS
 62
   110
100
AcDbLine
 10
285.0
 20
-16.904823
 30
0.0
 11
281.0
 21
-16.904823
 31
0.0
  0
LINE
  5
163
100
AcDbEntity
  8
LY_3
390
0
  6
CONTINUOUS
 62
   110
100
AcDbLine
 10
283.5
 20
-16.269554
 30
0.0
 11
281.0
 21
-16.269554
 31
0.0
  0
LINE
  5
164
100
AcDbEntity
  8
LY_3
390
0
  6
CONTINUOUS
 62
   110
100
AcDbLine
 10
283.5
 20
-15.629341
 30
0.0
 11
281.0
 21
-15.629341
 31
0.0
  0
LINE
  5
165
100
AcDbEntity
  8
LY_3
390
0
  6
CONTINUOUS
 62
   110
100
AcDbLine
 10
283.5
 20
-14.984367
 30
0.0
 11
281.0
 21
-14.984367
 31
0.0
  0
LINE
  5
166
100
AcDbEntity
  8
LY_3
390
0
  6
CONTINUOUS
 62
   110
100
AcDbLine
 10
283.5
 20
-14.334824
 30
0.0
 11
281.0
 21
-14.334824
 31
0.0
  0
LINE
  5
167
100
AcDbEntity
  8
LY_3
390
0
  6
CONTINUOUS
 62
   110
100
AcDbLine
 10
286.5
 20
-13.680916
 30
0.0
 11
281.0
 21
-13.680916
 31
0.0
  0
LINE
  5
168
100
AcDbEntity
  8
LY_3
390
0
  6
CONTINUOUS
 62
   110
100
AcDbLine
 10
283.5
 20
-13.022842
 30
0.0
 11
281.0
 21
-13.022842
 31
0.0
  0
LINE
  5
169
100
AcDbEntity
  8
LY_3
390
0
  6
CONTINUOUS
 62
   110
100
AcDbLine
 10
283.5
 20
-12.360802
 30
0.0
 11
281.0
 21
-12.360802
 31
0.0
  0
LINE
  5
16A
100
AcDbEntity
  8
LY_3
390
0
  6
CONTINUOUS
 62
   110
100
AcDbLine
 10
283.5
 20
-11.694992
 30
0.0
 11
281.0
 21
-11.694992
 31
0.0
  0
LINE
  5
16B
100
AcDbEntity
  8
LY_3
390
0
  6
CONTINUOUS
 62
   110
100
AcDbLine
 10
283.5
 20
-11.025627
 30
0.0
 11
281.0
 21
-11.025627
 31
0.0
  0
LINE
  5
16C
100
AcDbEntity
  8
LY_3
390
0
  6
CONTINUOUS
 62
   110
100
AcDbLine
 10
285.0
 20
-10.352898
 30
0.0
 11
281.0
 21
-10.352898
 31
0.0
  0
LINE
  5
16D
100
AcDbEntity
  8
LY_3
390
0
  6
CONTINUOUS
 62
   110
100
AcDbLine
 10
283.5
 20
-9.67701
 30
0.0
 11
281.0
 21
-9.67701
 31
0.0
  0
LINE
  5
16E
100
AcDbEntity
  8
LY_3
390
0
  6
CONTINUOUS
 62
   110
100
AcDbLine
 10
283.5
 20
-8.998184
 30
0.0
 11
281.0
 21
-8.998184
 31
0.0
  0
LINE
  5
16F
100
AcDbEntity
  8
LY_3
390
0
  6
CONTINUOUS
 62
   110
100
AcDbLine
 10
283.5
 20
-8.316612
 30
0.0
 11
281.0
 21
-8.316612
 31
0.0
  0
LINE
  5
170
100
AcDbEntity
  8
LY_3
390
0
  6
CONTINUOUS
 62
   110
100
AcDbLine
 10
283.5
 20
-7.632515
 30
0.0
 11
281.0
 21
-7.632515
 31
0.0
  0
LINE
  5
171
100
AcDbEntity
  8
LY_3
390
0
  6
CONTINUOUS
 62
   110
100
AcDbLine
 10
286.5
 20
-6.946083
 30
0.0
 11
281.0
 21
-6.946083
 31
0.0
  0
LINE
  5
172
100
AcDbEntity
  8
LY_3
390
0
  6
CONTINUOUS
 62
   110
100
AcDbLine
 10
283.5
 20
-6.257538
 30
0.0
 11
281.0
 21
-6.257538
 31
0.0
  0
LINE
  5
173
100
AcDbEntity
  8
LY_3
390
0
  6
CONTINUOUS
 62
   110
100
AcDbLine
 10
283.5
 20
-5.567085
 30
0.0
 11
281.0
 21
-5.567085
 31
0.0
  0
LINE
  5
174
100
AcDbEntity
  8
LY_3
390
0
  6
CONTINUOUS
 62
   110
100
AcDbLine
 10
283.5
 20
-4.874939
 30
0.0
 11
281.0
 21
-4.874939
 31
0.0
  0
LINE
  5
175
100
AcDbEntity
  8
LY_3
390
0
  6
CONTINUOUS
 62
   110
100
AcDbLine
 10
283.5
 20
-4.181313
 30
0.0
 11
281.0
 21
-4.181313
 31
0.0
  0
LINE
  5
176
100
AcDbEntity
  8
LY_3
390
0
  6
CONTINUOUS
 62
   110
100
AcDbLine
 10
285.0
 20
-3.486404
 30
0.0
 11
281.0
 21
-3.486404
 31
0.0
  0
LINE
  5
177
100
AcDbEntity
  8
LY_3
390
0
  6
CONTINUOUS
 62
   110
100
AcDbLine
 10
283.5
 20
-2.790443
 30
0.0
 11
281.0
 21
-2.790443
 31
0.0
  0
LINE
  5
178
100
AcDbEntity
  8
LY_3
390
0
  6
CONTINUOUS
 62
   110
100
AcDbLine
 10
283.5
 20
-2.09362
 30
0.0
 11
281.0
 21
-2.09362
 31
0.0
  0
LINE
  5
179
100
AcDbEntity
  8
LY_3
390
0
  6
CONTINUOUS
 62
   110
100
AcDbLine
 10
283.5
 20
-1.396172
 30
0.0
 11
281.0
 21
-1.396172
 31
0.0
  0
LINE
  5
17A
100
AcDbEntity
  8
LY_3
390
0
  6
CONTINUOUS
 62
   110
100
AcDbLine
 10
283.5
 20
-0.698288
 30
0.0
 11
281.0
 21
-0.698288
 31
0.0
  0
LINE
  5
17B
100
AcDbEntity
  8
LY_3
390
0
  6
CONTINUOUS
 62
   110
100
AcDbLine
 10
286.5
 20
0.0
 30
0.0
 11
281.0
 21
0.0
 31
0.0
  0
LINE
  5
17C
100
AcDbEntity
  8
LY_3
390
0
  6
CONTINUOUS
 62
   110
100
AcDbLine
 10
283.5
 20
-39.975632
 30
0.0
 11
281.0
 21
-39.975632
 31
0.0
  0
LINE
  5
17D
100
AcDbEntity
  8
LY_3
390
0
  6
CONTINUOUS
 62
   110
100
AcDbLine
 10
283.5
 20
39.975632
 30
0.0
 11
281.0
 21
39.975632
 31
0.0
  0
LINE
  5
17E
100
AcDbEntity
  8
LY_3
390
0
  6
CONTINUOUS
 62
   110
100
AcDbLine
 10
283.5
 20
39.945183
 30
0.0
 11
281.0
 21
39.945183
 31
0.0
  0
LINE
  5
17F
100
AcDbEntity
  8
LY_3
390
0
  6
CONTINUOUS
 62
   110
100
AcDbLine
 10
283.5
 20
39.902557
 30
0.0
 11
281.0
 21
39.902557
 31
0.0
  0
LINE
  5
180
100
AcDbEntity
  8
LY_3
390
0
  6
CONTINUOUS
 62
   110
100
AcDbLine
 10
285.0
 20
39.847786
 30
0.0
 11
281.0
 21
39.847786
 31
0.0
  0
LINE
  5
181
100
AcDbEntity
  8
LY_3
390
0
  6
CONTINUOUS
 62
   110
100
AcDbLine
 10
283.5
 20
39.780876
 30
0.0
 11
281.0
 21
39.780876
 31
0.0
  0
LINE
  5
182
100
AcDbEntity
  8
LY_3
390
0
  6
CONTINUOUS
 62
   110
100
AcDbLine
 10
283.5
 20
39.701843
 30
0.0
 11
281.0
 21
39.701843
 31
0.0
  0
LINE
  5
183
100
AcDbEntity
  8
LY_3
390
0
  6
CONTINUOUS
 62
   110
100
AcDbLine
 10
283.5
 20
39.610718
 30
0.0
 11
281.0
 21
39.610718
 31
0.0
  0
LINE
  5
184
100
AcDbEntity
  8
LY_3
390
0
  6
CONTINUOUS
 62
   110
100
AcDbLine
 10
283.5
 20
39.50753
 30
0.0
 11
281.0
 21
39.50753
 31
0.0
  0
LINE
  5
185
100
AcDbEntity
  8
LY_3
390
0
  6
CONTINUOUS
 62
   110
100
AcDbLine
 10
286.5
 20
39.392303
 30
0.0
 11
281.0
 21
39.392303
 31
0.0
  0
LINE
  5
186
100
AcDbEntity
  8
LY_3
390
0
  6
CONTINUOUS
 62
   110
100
AcDbLine
 10
283.5
 20
39.265083
 30
0.0
 11
281.0
 21
39.265083
 31
0.0
  0
LINE
  5
187
100
AcDbEntity
  8
LY_3
390
0
  6
CONTINUOUS
 62
   110
100
AcDbLine
 10
283.5
 20
39.125893
 30
0.0
 11
281.0
 21
39.125893
 31
0.0
  0
LINE
  5
188
100
AcDbEntity
  8
LY_3
390
0
  6
CONTINUOUS
 62
   110
100
AcDbLine
 10
283.5
 20
38.974792
 30
0.0
 11
281.0
 21
38.974792
 31
0.0
  0
LINE
  5
189
100
AcDbEntity
  8
LY_3
390
0
  6
CONTINUOUS
 62
   110
100
AcDbLine
 10
283.5
 20
38.811821
 30
0.0
 11
281.0
 21
38.811821
 31
0.0
  0
LINE
  5
18A
100
AcDbEntity
  8
LY_3
390
0
  6
CONTINUOUS
 62
   110
100
AcDbLine
 10
285.0
 20
38.637024
 30
0.0
 11
281.0
 21
38.637024
 31
0.0
  0
LINE
  5
18B
100
AcDbEntity
  8
LY_3
390
0
  6
CONTINUOUS
 62
   110
100
AcDbLine
 10
283.5
 20
38.450455
 30
0.0
 11
281.0
 21
38.450455
 31
0.0
  0
LINE
  5
18C
100
AcDbEntity
  8
LY_3
390
0
  6
CONTINUOUS
 62
   110
100
AcDbLine
 10
283.5
 20
38.252174
 30
0.0
 11
281.0
 21
38.252174
 31
0.0
  0
LINE
  5
18D
100
AcDbEntity
  8
LY_3
390
0
  6
CONTINUOUS
 62
   110
100
AcDbLine
 10
283.5
 20
38.042244
 30
0.0
 11
281.0
 21
38.042244
 31
0.0
  0
LINE
  5
18E
100
AcDbEntity
  8
LY_3
390
0
  6
CONTINUOUS
 62
   110
100
AcDbLine
 10
283.5
 20
37.820724
 30
0.0
 11
281.0
 21
37.820724
 31
0.0
  0
LINE
  5
18F
100
AcDbEntity
  8
LY_3
390
0
  6
CONTINUOUS
 62
   110
100
AcDbLine
 10
286.5
 20
37.587685
 30
0.0
 11
281.0
 21
37.587685
 31
0.0
  0
LINE
  5
190
100
AcDbEntity
  8
LY_3
390
0
  6
CONTINUOUS
 62
   110
100
AcDbLine
 10
283.5
 20
37.343201
 30
0.0
 11
281.0
 21
37.343201
 31
0.0
  0
LINE
  5
191
100
AcDbEntity
  8
LY_3
390
0
  6
CONTINUOUS
 62
   110
100
AcDbLine
 10
283.5
 20
37.087334
 30
0.0
 11
281.0
 21
37.087334
 31
0.0
  0
LINE
  5
192
100
AcDbEntity
  8
LY_3
390
0
  6
CONTINUOUS
 62
   110
100
AcDbLine
 10
283.5
 20
36.820175
 30
0.0
 11
281.0
 21
36.820175
 31
0.0
  0
LINE
  5
193
100
AcDbEntity
  8
LY_3
390
0
  6
CONTINUOUS
 62
   110
100
AcDbLine
 10
283.5
 20
36.541794
 30
0.0
 11
281.0
 21
36.541794
 31
0.0
  0
LINE
  5
194
100
AcDbEntity
  8
LY_3
390
0
  6
CONTINUOUS
 62
   110
100
AcDbLine
 10
285.0
 20
36.252289
 30
0.0
 11
281.0
 21
36.252289
 31
0.0
  0
LINE
  5
195
100
AcDbEntity
  8
LY_3
390
0
  6
CONTINUOUS
 62
   110
100
AcDbLine
 10
283.5
 20
35.951736
 30
0.0
 11
281.0
 21
35.951736
 31
0.0
  0
LINE
  5
196
100
AcDbEntity
  8
LY_3
390
0
  6
CONTINUOUS
 62
   110
100
AcDbLine
 10
283.5
 20
35.640236
 30
0.0
 11
281.0
 21
35.640236
 31
0.0
  0
LINE
  5
197
100
AcDbEntity
  8
LY_3
390
0
  6
CONTINUOUS
 62
   110
100
AcDbLine
 10
283.5
 20
35.317886
 30
0.0
 11
281.0
 21
35.317886
 31
0.0
  0
LINE
  5
198
100
AcDbEntity
  8
LY_3
390
0
  6
CONTINUOUS
 62
   110
100
AcDbLine
 10
283.5
 20
34.984772
 30
0.0
 11
281.0
 21
34.984772
 31
0.0
  0
LINE
  5
199
100
AcDbEntity
  8
LY_3
390
0
  6
CONTINUOUS
 62
   110
100
AcDbLine
 10
286.5
 20
34.640999
 30
0.0
 11
281.0
 21
34.640999
 31
0.0
  0
LINE
  5
19A
100
AcDbEntity
  8
LY_3
390
0
  6
CONTINUOUS
 62
   110
100
AcDbLine
 10
283.5
 20
34.286674
 30
0.0
 11
281.0
 21
34.286674
 31
0.0
  0
LINE
  5
19B
100
AcDbEntity
  8
LY_3
390
0
  6
CONTINUOUS
 62
   110
100
AcDbLine
 10
283.5
 20
33.921906
 30
0.0
 11
281.0
 21
33.921906
 31
0.0
  0
LINE
  5
19C
100
AcDbEntity
  8
LY_3
390
0
  6
CONTINUOUS
 62
   110
100
AcDbLine
 10
283.5
 20
33.546806
 30
0.0
 11
281.0
 21
33.546806
 31
0.0
  0
LINE
  5
19D
100
AcDbEntity
  8
LY_3
390
0
  6
CONTINUOUS
 62
   110
100
AcDbLine
 10
283.5
 20
33.161491
 30
0.0
 11
281.0
 21
33.161491
 31
0.0
  0
LINE
  5
19E
100
AcDbEntity
  8
LY_3
390
0
  6
CONTINUOUS
 62
   110
100
AcDbLine
 10
285.0
 20
32.766075
 30
0.0
 11
281.0
 21
32.766075
 31
0.0
  0
LINE
  5
19F
100
AcDbEntity
  8
LY_3
390
0
  6
CONTINUOUS
 62
   110
100
AcDbLine
 10
283.5
 20
32.360672
 30
0.0
 11
281.0
 21
32.360672
 31
0.0
  0
LINE
  5
1A0
100
AcDbEntity
  8
LY_3
390
0
  6
CONTINUOUS
 62
   110
100
AcDbLine
 10
283.5
 20
31.945412
 30
0.0
 11
281.0
 21
31.945412
 31
0.0
  0
LINE
  5
1A1
100
AcDbEntity
  8
LY_3
390
0
  6
CONTINUOUS
 62
   110
100
AcDbLine
 10
283.5
 20
31.520424
 30
0.0
 11
281.0
 21
31.520424
 31
0.0
  0
LINE
  5
1A2
100
AcDbEntity
  8
LY_3
390
0
  6
CONTINUOUS
 62
   110
100
AcDbLine
 10
283.5
 20
31.085838
 30
0.0
 11
281.0
 21
31.085838
 31
0.0
  0
LINE
  5
1A3
100
AcDbEntity
  8
LY_3
390
0
  6
CONTINUOUS
 62
   110
100
AcDbLine
 10
286.5
 20
30.641777
 30
0.0
 11
281.0
 21
30.641777
 31
0.0
  0
LINE
  5
1A4
100
AcDbEntity
  8
LY_3
390
0
  6
CONTINUOUS
 62
   110
100
AcDbLine
 10
283.5
 20
30.188385
 30
0.0
 11
281.0
 21
30.188385
 31
0.0
  0
LINE
  5
1A5
100
AcDbEntity
  8
LY_3
390
0
  6
CONTINUOUS
 62
   110
100
AcDbLine
 10
283.5
 20
29.7258
 30
0.0
 11
281.0
 21
29.7258
 31
0.0
  0
LINE
  5
1A6
100
AcDbEntity
  8
LY_3
390
0
  6
CONTINUOUS
 62
   110
100
AcDbLine
 10
283.5
 20
29.254158
 30
0.0
 11
281.0
 21
29.254158
 31
0.0
  0
LINE
  5
1A7
100
AcDbEntity
  8
LY_3
390
0
  6
CONTINUOUS
 62
   110
100
AcDbLine
 10
283.5
 20
28.773605
 30
0.0
 11
281.0
 21
28.773605
 31
0.0
  0
LINE
  5
1A8
100
AcDbEntity
  8
LY_3
390
0
  6
CONTINUOUS
 62
   110
100
AcDbLine
 10
285.0
 20
28.284286
 30
0.0
 11
281.0
 21
28.284286
 31
0.0
  0
LINE
  5
1A9
100
AcDbEntity
  8
LY_3
390
0
  6
CONTINUOUS
 62
   110
100
AcDbLine
 10
283.5
 20
27.786354
 30
0.0
 11
281.0
 21
27.786354
 31
0.0
  0
LINE
  5
1AA
100
AcDbEntity
  8
LY_3
390
0
  6
CONTINUOUS
 62
   110
100
AcDbLine
 10
283.5
 20
27.279953
 30
0.0
 11
281.0
 21
27.279953
 31
0.0
  0
LINE
  5
1AB
100
AcDbEntity
  8
LY_3
390
0
  6
CONTINUOUS
 62
   110
100
AcDbLine
 10
283.5
 20
26.765251
 30
0.0
 11
281.0
 21
26.765251
 31
0.0
  0
LINE
  5
1AC
100
AcDbEntity
  8
LY_3
390
0
  6
CONTINUOUS
 62
   110
100
AcDbLine
 10
283.5
 20
26.242386
 30
0.0
 11
281.0
 21
26.242386
 31
0.0
  0
LINE
  5
1AD
100
AcDbEntity
  8
LY_3
390
0
  6
CONTINUOUS
 62
   110
100
AcDbLine
 10
286.5
 20
25.711533
 30
0.0
 11
281.0
 21
25.711533
 31
0.0
  0
LINE
  5
1AE
100
AcDbEntity
  8
LY_3
390
0
  6
CONTINUOUS
 62
   110
100
AcDbLine
 10
283.5
 20
25.172852
 30
0.0
 11
281.0
 21
25.172852
 31
0.0
  0
LINE
  5
1AF
100
AcDbEntity
  8
LY_3
390
0
  6
CONTINUOUS
 62
   110
100
AcDbLine
 10
283.5
 20
24.626495
 30
0.0
 11
281.0
 21
24.626495
 31
0.0
  0
LINE
  5
1B0
100
AcDbEntity
  8
LY_3
390
0
  6
CONTINUOUS
 62
   110
100
AcDbLine
 10
283.5
 20
24.072639
 30
0.0
 11
281.0
 21
24.072639
 31
0.0
  0
LINE
  5
1B1
100
AcDbEntity
  8
LY_3
390
0
  6
CONTINUOUS
 62
   110
100
AcDbLine
 10
283.5
 20
23.511452
 30
0.0
 11
281.0
 21
23.511452
 31
0.0
  0
LINE
  5
1B2
100
AcDbEntity
  8
LY_3
390
0
  6
CONTINUOUS
 62
   110
100
AcDbLine
 10
285.0
 20
22.943108
 30
0.0
 11
281.0
 21
22.943108
 31
0.0
  0
LINE
  5
1B3
100
AcDbEntity
  8
LY_3
390
0
  6
CONTINUOUS
 62
   110
100
AcDbLine
 10
283.5
 20
22.367767
 30
0.0
 11
281.0
 21
22.367767
 31
0.0
  0
LINE
  5
1B4
100
AcDbEntity
  8
LY_3
390
0
  6
CONTINUOUS
 62
   110
100
AcDbLine
 10
283.5
 20
21.785622
 30
0.0
 11
281.0
 21
21.785622
 31
0.0
  0
LINE
  5
1B5
100
AcDbEntity
  8
LY_3
390
0
  6
CONTINUOUS
 62
   110
100
AcDbLine
 10
283.5
 20
21.196831
 30
0.0
 11
281.0
 21
21.196831
 31
0.0
  0
LINE
  5
1B6
100
AcDbEntity
  8
LY_3
390
0
  6
CONTINUOUS
 62
   110
100
AcDbLine
 10
283.5
 20
20.601585
 30
0.0
 11
281.0
 21
20.601585
 31
0.0
  0
LINE
  5
1B7
100
AcDbEntity
  8
LY_3
390
0
  6
CONTINUOUS
 62
   110
100
AcDbLine
 10
286.5
 20
20.000069
 30
0.0
 11
281.0
 21
20.000069
 31
0.0
  0
LINE
  5
1B8
100
AcDbEntity
  8
LY_3
390
0
  6
CONTINUOUS
 62
   110
100
AcDbLine
 10
283.5
 20
19.392456
 30
0.0
 11
281.0
 21
19.392456
 31
0.0
  0
LINE
  5
1B9
100
AcDbEntity
  8
LY_3
390
0
  6
CONTINUOUS
 62
   110
100
AcDbLine
 10
283.5
 20
18.778938
 30
0.0
 11
281.0
 21
18.778938
 31
0.0
  0
LINE
  5
1BA
100
AcDbEntity
  8
LY_3
390
0
  6
CONTINUOUS
 62
   110
100
AcDbLine
 10
283.5
 20
18.159698
 30
0.0
 11
281.0
 21
18.159698
 31
0.0
  0
LINE
  5
1BB
100
AcDbEntity
  8
LY_3
390
0
  6
CONTINUOUS
 62
   110
100
AcDbLine
 10
283.5
 20
17.534935
 30
0.0
 11
281.0
 21
17.534935
 31
0.0
  0
LINE
  5
1BC
100
AcDbEntity
  8
LY_3
390
0
  6
CONTINUOUS
 62
   110
100
AcDbLine
 10
285.0
 20
16.904823
 30
0.0
 11
281.0
 21
16.904823
 31
0.0
  0
LINE
  5
1BD
100
AcDbEntity
  8
LY_3
390
0
  6
CONTINUOUS
 62
   110
100
AcDbLine
 10
283.5
 20
16.269562
 30
0.0
 11
281.0
 21
16.269562
 31
0.0
  0
LINE
  5
1BE
100
AcDbEntity
  8
LY_3
390
0
  6
CONTINUOUS
 62
   110
100
AcDbLine
 10
283.5
 20
15.629341
 30
0.0
 11
281.0
 21
15.629341
 31
0.0
  0
LINE
  5
1BF
100
AcDbEntity
  8
LY_3
390
0
  6
CONTINUOUS
 62
   110
100
AcDbLine
 10
283.5
 20
14.984367
 30
0.0
 11
281.0
 21
14.984367
 31
0.0
  0
LINE
  5
1C0
100
AcDbEntity
  8
LY_3
390
0
  6
CONTINUOUS
 62
   110
100
AcDbLine
 10
283.5
 20
14.334824
 30
0.0
 11
281.0
 21
14.334824
 31
0.0
  0
LINE
  5
1C1
100
AcDbEntity
  8
LY_3
390
0
  6
CONTINUOUS
 62
   110
100
AcDbLine
 10
286.5
 20
13.680916
 30
0.0
 11
281.0
 21
13.680916
 31
0.0
  0
LINE
  5
1C2
100
AcDbEntity
  8
LY_3
390
0
  6
CONTINUOUS
 62
   110
100
AcDbLine
 10
283.5
 20
13.022842
 30
0.0
 11
281.0
 21
13.022842
 31
0.0
  0
LINE
  5
1C3
100
AcDbEntity
  8
LY_3
390
0
  6
CONTINUOUS
 62
   110
100
AcDbLine
 10
283.5
 20
12.360802
 30
0.0
 11
281.0
 21
12.360802
 31
0.0
  0
LINE
  5
1C4
100
AcDbEntity
  8
LY_3
390
0
  6
CONTINUOUS
 62
   110
100
AcDbLine
 10
283.5
 20
11.694992
 30
0.0
 11
281.0
 21
11.694992
 31
0.0
  0
LINE
  5
1C5
100
AcDbEntity
  8
LY_3
390
0
  6
CONTINUOUS
 62
   110
100
AcDbLine
 10
283.5
 20
11.02562
 30
0.0
 11
281.0
 21
11.02562
 31
0.0
  0
LINE
  5
1C6
100
AcDbEntity
  8
LY_3
390
0
  6
CONTINUOUS
 62
   110
100
AcDbLine
 10
285.0
 20
10.352898
 30
0.0
 11
281.0
 21
10.352898
 31
0.0
  0
LINE
  5
1C7
100
AcDbEntity
  8
LY_3
390
0
  6
CONTINUOUS
 62
   110
100
AcDbLine
 10
283.5
 20
9.677017
 30
0.0
 11
281.0
 21
9.677017
 31
0.0
  0
LINE
  5
1C8
100
AcDbEntity
  8
LY_3
390
0
  6
CONTINUOUS
 62
   110
100
AcDbLine
 10
283.5
 20
8.998184
 30
0.0
 11
281.0
 21
8.998184
 31
0.0
  0
LINE
  5
1C9
100
AcDbEntity
  8
LY_3
390
0
  6
CONTINUOUS
 62
   110
100
AcDbLine
 10
283.5
 20
8.316612
 30
0.0
 11
281.0
 21
8.316612
 31
0.0
  0
LINE
  5
1CA
100
AcDbEntity
  8
LY_3
390
0
  6
CONTINUOUS
 62
   110
100
AcDbLine
 10
283.5
 20
7.632507
 30
0.0
 11
281.0
 21
7.632507
 31
0.0
  0
LINE
  5
1CB
100
AcDbEntity
  8
LY_3
390
0
  6
CONTINUOUS
 62
   110
100
AcDbLine
 10
286.5
 20
6.946083
 30
0.0
 11
281.0
 21
6.946083
 31
0.0
  0
LINE
  5
1CC
100
AcDbEntity
  8
LY_3
390
0
  6
CONTINUOUS
 62
   110
100
AcDbLine
 10
283.5
 20
6.257538
 30
0.0
 11
281.0
 21
6.257538
 31
0.0
  0
LINE
  5
1CD
100
AcDbEntity
  8
LY_3
390
0
  6
CONTINUOUS
 62
   110
100
AcDbLine
 10
283.5
 20
5.567085
 30
0.0
 11
281.0
 21
5.567085
 31
0.0
  0
LINE
  5
1CE
100
AcDbEntity
  8
LY_3
390
0
  6
CONTINUOUS
 62
   110
100
AcDbLine
 10
283.5
 20
4.874939
 30
0.0
 11
281.0
 21
4.874939
 31
0.0
  0
LINE
  5
1CF
100
AcDbEntity
  8
LY_3
390
0
  6
CONTINUOUS
 62
   110
100
AcDbLine
 10
283.5
 20
4.181313
 30
0.0
 11
281.0
 21
4.181313
 31
0.0
  0
LINE
  5
1D0
100
AcDbEntity
  8
LY_3
390
0
  6
CONTINUOUS
 62
   110
100
AcDbLine
 10
285.0
 20
3.486404
 30
0.0
 11
281.0
 21
3.486404
 31
0.0
  0
LINE
  5
1D1
100
AcDbEntity
  8
LY_3
390
0
  6
CONTINUOUS
 62
   110
100
AcDbLine
 10
283.5
 20
2.790436
 30
0.0
 11
281.0
 21
2.790436
 31
0.0
  0
LINE
  5
1D2
100
AcDbEntity
  8
LY_3
390
0
  6
CONTINUOUS
 62
   110
100
AcDbLine
 10
283.5
 20
2.09362
 30
0.0
 11
281.0
 21
2.09362
 31
0.0
  0
LINE
  5
1D3
100
AcDbEntity
  8
LY_3
390
0
  6
CONTINUOUS
 62
   110
100
AcDbLine
 10
283.5
 20
1.396172
 30
0.0
 11
281.0
 21
1.396172
 31
0.0
  0
LINE
  5
1D4
100
AcDbEntity
  8
LY_3
390
0
  6
CONTINUOUS
 62
   110
100
AcDbLine
 10
283.5
 20
0.698288
 30
0.0
 11
281.0
 21
0.698288
 31
0.0
  0
LINE
  5
1D5
100
AcDbEntity
  8
LY_3
390
0
  6
CONTINUOUS
 62
     3
100
AcDbLine
 10
105.0
 20
4.0
 30
0.0
 11
85.0
 21
4.0
 31
0.0
  0
LINE
  5
1D6
100
AcDbEntity
  8
LY_3
390
0
  6
CONTINUOUS
 62
     3
100
AcDbLine
 10
105.0
 20
5.0
 30
0.0
 11
105.0
 21
4.0
 31
0.0
  0
LINE
  5
1D7
100
AcDbEntity
  8
LY_3
390
0
  6
CONTINUOUS
 62
     3
100
AcDbLine
 10
310.999985
 20
-40.5
 30
0.0
 11
310.999985
 21
40.5
 31
0.0
  0
LINE
  5
1D8
100
AcDbEntity
  8
LY_3
390
0
  6
CONTINUOUS
 62
     3
100
AcDbLine
 10
293.999985
 20
40.0
 30
0.0
 11
281.0
 21
40.0
 31
0.0
  0
LINE
  5
1D9
100
AcDbEntity
  8
LY_3
390
0
  6
CONTINUOUS
 62
     3
100
AcDbLine
 10
293.999985
 20
-40.0
 30
0.0
 11
281.0
 21
-40.0
 31
0.0
  0
LINE
  5
1DA
100
AcDbEntity
  8
LY_3
390
0
  6
CONTINUOUS
 62
     3
100
AcDbLine
 10
293.999985
 20
-40.0
 30
0.0
 11
293.999985
 21
40.0
 31
0.0
  0
LINE
  5
1DB
100
AcDbEntity
  8
LY_3
390
0
  6
CONTINUOUS
 62
     3
100
AcDbLine
 10
280.699997
 20
17.029831
 30
0.0
 11
269.699997
 21
17.029831
 31
0.0
  0
LINE
  5
1DC
100
AcDbEntity
  8
LY_3
390
0
  6
CONTINUOUS
 62
     3
100
AcDbLine
 10
310.999984
 20
40.500004
 30
0.0
 11
311.499995
 21
39.999993
 31
0.0
  0
LINE
  5
1DD
100
AcDbEntity
  8
LY_3
390
0
  6
CONTINUOUS
 62
     3
100
AcDbLine
 10
311.500003
 20
-39.999982
 30
0.0
 11
311.000003
 21
-40.499982
 31
0.0
  0
LINE
  5
1DE
100
AcDbEntity
  8
LY_3
390
0
  6
CONTINUOUS
 62
     3
100
AcDbLine
 10
294.699997
 20
-40.5
 30
0.0
 11
294.699997
 21
40.5
 31
0.0
  0
LINE
  5
1DF
100
AcDbEntity
  8
LY_3
390
0
  6
CONTINUOUS
 62
     3
100
AcDbLine
 10
266.923843
 20
32.999985
 30
0.0
 11
266.750366
 21
32.999985
 31
0.0
  0
LINE
  5
1E0
100
AcDbEntity
  8
LY_3
390
0
  6
CONTINUOUS
 62
     3
100
AcDbLine
 10
268.473846
 20
32.999985
 30
0.0
 11
268.250534
 21
32.999985
 31
0.0
  0
LINE
  5
1E1
100
AcDbEntity
  8
LY_3
390
0
  6
CONTINUOUS
 62
     3
100
AcDbLine
 10
267.698853
 20
32.999985
 30
0.0
 11
267.475525
 21
32.999985
 31
0.0
  0
LINE
  5
1E2
100
AcDbEntity
  8
LY_3
390
0
  6
CONTINUOUS
 62
     3
100
AcDbLine
 10
266.888294
 20
32.546432
 30
0.0
 11
267.275789
 21
37.49643
 31
0.0
  0
LINE
  5
1E3
100
AcDbEntity
  8
LY_3
390
0
  6
CONTINUOUS
 62
     3
100
AcDbLine
 10
267.236984
 20
37.0
 30
0.0
 11
267.018768
 21
37.0
 31
0.0
  0
LINE
  5
1E4
100
AcDbEntity
  8
LY_3
390
0
  6
CONTINUOUS
 62
     3
100
AcDbLine
 10
268.011978
 20
37.0
 30
0.0
 11
267.788666
 21
37.0
 31
0.0
  0
LINE
  5
1E5
100
AcDbEntity
  8
LY_3
390
0
  6
CONTINUOUS
 62
     3
100
AcDbLine
 10
268.786972
 20
37.0
 30
0.0
 11
268.56366
 21
37.0
 31
0.0
  0
LINE
  5
1E6
100
AcDbEntity
  8
LY_3
390
0
  6
CONTINUOUS
 62
     3
100
AcDbLine
 10
267.04955
 20
37.456567
 30
0.0
 11
266.717405
 21
32.506577
 31
0.0
  0
LINE
  5
1E7
100
AcDbEntity
  8
LY_3
390
0
  6
CONTINUOUS
 62
     3
100
AcDbLine
 10
267.663308
 20
32.546418
 30
0.0
 11
268.050804
 21
37.496423
 31
0.0
  0
LINE
  5
1E8
100
AcDbEntity
  8
LY_3
390
0
  6
CONTINUOUS
 62
     3
100
AcDbLine
 10
268.59911
 20
37.453555
 30
0.0
 11
268.211611
 21
32.50355
 31
0.0
  0
LINE
  5
1E9
100
AcDbEntity
  8
LY_3
390
0
  6
CONTINUOUS
 62
     3
100
AcDbLine
 10
268.438307
 20
32.546451
 30
0.0
 11
268.825803
 21
37.496456
 31
0.0
  0
LINE
  5
1EA
100
AcDbEntity
  8
LY_3
390
0
  6
CONTINUOUS
 62
     3
100
AcDbLine
 10
269.374109
 20
37.453541
 30
0.0
 11
268.98661
 21
32.503537
 31
0.0
  0
LINE
  5
1EB
100
AcDbEntity
  8
LY_3
390
0
  6
CONTINUOUS
 62
     3
100
AcDbLine
 10
269.213323
 20
32.546452
 30
0.0
 11
269.600819
 21
37.496457
 31
0.0
  0
LINE
  5
1EC
100
AcDbEntity
  8
LY_3
390
0
  6
CONTINUOUS
 62
     3
100
AcDbLine
 10
267.824139
 20
37.453535
 30
0.0
 11
267.43664
 21
32.50353
 31
0.0
  0
LINE
  5
1ED
100
AcDbEntity
  8
LY_3
390
0
  6
CONTINUOUS
 62
     3
100
AcDbLine
 10
269.561966
 20
37.0
 30
0.0
 11
269.338669
 21
37.0
 31
0.0
  0
LINE
  5
1EE
100
AcDbEntity
  8
LY_3
390
0
  6
CONTINUOUS
 62
     3
100
AcDbLine
 10
269.24884
 20
32.999985
 30
0.0
 11
269.025528
 21
32.999985
 31
0.0
  0
LINE
  5
1EF
100
AcDbEntity
  8
LY_3
390
0
  6
CONTINUOUS
 62
     3
100
AcDbLine
 10
310.999985
 20
-2.824768
 30
0.0
 11
294.699997
 21
-2.824768
 31
0.0
  0
LINE
  5
1F0
100
AcDbEntity
  8
LY_3
390
0
  6
CONTINUOUS
 62
     3
100
AcDbLine
 10
310.999985
 20
-5.636154
 30
0.0
 11
294.699997
 21
-5.636154
 31
0.0
  0
LINE
  5
1F1
100
AcDbEntity
  8
LY_3
390
0
  6
CONTINUOUS
 62
     3
100
AcDbLine
 10
310.999985
 20
-8.420059
 30
0.0
 11
294.699997
 21
-8.420059
 31
0.0
  0
LINE
  5
1F2
100
AcDbEntity
  8
LY_3
390
0
  6
CONTINUOUS
 62
     3
100
AcDbLine
 10
310.999985
 20
-11.162949
 30
0.0
 11
294.699997
 21
-11.162949
 31
0.0
  0
LINE
  5
1F3
100
AcDbEntity
  8
LY_3
390
0
  6
CONTINUOUS
 62
     3
100
AcDbLine
 10
310.999985
 20
-13.851456
 30
0.0
 11
294.699997
 21
-13.851456
 31
0.0
  0
LINE
  5
1F4
100
AcDbEntity
  8
LY_3
390
0
  6
CONTINUOUS
 62
     3
100
AcDbLine
 10
310.999985
 20
-16.472473
 30
0.0
 11
294.699997
 21
-16.472473
 31
0.0
  0
LINE
  5
1F5
100
AcDbEntity
  8
LY_3
390
0
  6
CONTINUOUS
 62
     3
100
AcDbLine
 10
310.999985
 20
-19.013245
 30
0.0
 11
294.699997
 21
-19.013245
 31
0.0
  0
LINE
  5
1F6
100
AcDbEntity
  8
LY_3
390
0
  6
CONTINUOUS
 62
     3
100
AcDbLine
 10
310.999985
 20
-21.461365
 30
0.0
 11
294.699997
 21
-21.461365
 31
0.0
  0
LINE
  5
1F7
100
AcDbEntity
  8
LY_3
390
0
  6
CONTINUOUS
 62
     3
100
AcDbLine
 10
310.999985
 20
-23.804932
 30
0.0
 11
294.699997
 21
-23.804932
 31
0.0
  0
LINE
  5
1F8
100
AcDbEntity
  8
LY_3
390
0
  6
CONTINUOUS
 62
     3
100
AcDbLine
 10
310.999985
 20
-26.032532
 30
0.0
 11
294.699997
 21
-26.032532
 31
0.0
  0
LINE
  5
1F9
100
AcDbEntity
  8
LY_3
390
0
  6
CONTINUOUS
 62
     3
100
AcDbLine
 10
310.999985
 20
-28.133301
 30
0.0
 11
294.699997
 21
-28.133301
 31
0.0
  0
LINE
  5
1FA
100
AcDbEntity
  8
LY_3
390
0
  6
CONTINUOUS
 62
     3
100
AcDbLine
 10
310.999985
 20
-30.097015
 30
0.0
 11
294.699997
 21
-30.097015
 31
0.0
  0
LINE
  5
1FB
100
AcDbEntity
  8
LY_3
390
0
  6
CONTINUOUS
 62
     3
100
AcDbLine
 10
310.999985
 20
-31.914078
 30
0.0
 11
294.699997
 21
-31.914078
 31
0.0
  0
LINE
  5
1FC
100
AcDbEntity
  8
LY_3
390
0
  6
CONTINUOUS
 62
     3
100
AcDbLine
 10
310.999985
 20
-33.575668
 30
0.0
 11
294.699997
 21
-33.575668
 31
0.0
  0
LINE
  5
1FD
100
AcDbEntity
  8
LY_3
390
0
  6
CONTINUOUS
 62
     3
100
AcDbLine
 10
310.999985
 20
-35.073669
 30
0.0
 11
294.699997
 21
-35.073669
 31
0.0
  0
LINE
  5
1FE
100
AcDbEntity
  8
LY_3
390
0
  6
CONTINUOUS
 62
     3
100
AcDbLine
 10
310.999985
 20
-36.400803
 30
0.0
 11
294.699997
 21
-36.400803
 31
0.0
  0
LINE
  5
1FF
100
AcDbEntity
  8
LY_3
390
0
  6
CONTINUOUS
 62
     3
100
AcDbLine
 10
310.999985
 20
-37.550598
 30
0.0
 11
294.699997
 21
-37.550598
 31
0.0
  0
LINE
  5
200
100
AcDbEntity
  8
LY_3
390
0
  6
CONTINUOUS
 62
     3
100
AcDbLine
 10
310.999985
 20
-38.517426
 30
0.0
 11
294.699997
 21
-38.517426
 31
0.0
  0
LINE
  5
201
100
AcDbEntity
  8
LY_3
390
0
  6
CONTINUOUS
 62
     3
100
AcDbLine
 10
310.999985
 20
-39.296616
 30
0.0
 11
294.699997
 21
-39.296616
 31
0.0
  0
LINE
  5
202
100
AcDbEntity
  8
LY_3
390
0
  6
CONTINUOUS
 62
     3
100
AcDbLine
 10
310.999985
 20
-39.884354
 30
0.0
 11
294.699997
 21
-39.884354
 31
0.0
  0
LINE
  5
203
100
AcDbEntity
  8
LY_3
390
0
  6
CONTINUOUS
 62
     3
100
AcDbLine
 10
310.999985
 20
-40.277771
 30
0.0
 11
294.699997
 21
-40.277771
 31
0.0
  0
LINE
  5
204
100
AcDbEntity
  8
LY_3
390
0
  6
CONTINUOUS
 62
     3
100
AcDbLine
 10
310.999985
 20
0.000183
 30
0.0
 11
294.699997
 21
0.000183
 31
0.0
  0
LINE
  5
205
100
AcDbEntity
  8
LY_3
390
0
  6
CONTINUOUS
 62
     3
100
AcDbLine
 10
310.999985
 20
2.825134
 30
0.0
 11
294.699997
 21
2.825134
 31
0.0
  0
LINE
  5
206
100
AcDbEntity
  8
LY_3
390
0
  6
CONTINUOUS
 62
     3
100
AcDbLine
 10
310.999985
 20
5.636505
 30
0.0
 11
294.699997
 21
5.636505
 31
0.0
  0
LINE
  5
207
100
AcDbEntity
  8
LY_3
390
0
  6
CONTINUOUS
 62
     3
100
AcDbLine
 10
310.999985
 20
8.420425
 30
0.0
 11
294.699997
 21
8.420425
 31
0.0
  0
LINE
  5
208
100
AcDbEntity
  8
LY_3
390
0
  6
CONTINUOUS
 62
     3
100
AcDbLine
 10
310.999985
 20
11.163315
 30
0.0
 11
294.699997
 21
11.163315
 31
0.0
  0
LINE
  5
209
100
AcDbEntity
  8
LY_3
390
0
  6
CONTINUOUS
 62
     3
100
AcDbLine
 10
310.999985
 20
13.851807
 30
0.0
 11
294.699997
 21
13.851807
 31
0.0
  0
LINE
  5
20A
100
AcDbEntity
  8
LY_3
390
0
  6
CONTINUOUS
 62
     3
100
AcDbLine
 10
310.999985
 20
16.472839
 30
0.0
 11
294.699997
 21
16.472839
 31
0.0
  0
LINE
  5
20B
100
AcDbEntity
  8
LY_3
390
0
  6
CONTINUOUS
 62
     3
100
AcDbLine
 10
310.999985
 20
19.013596
 30
0.0
 11
294.699997
 21
19.013596
 31
0.0
  0
LINE
  5
20C
100
AcDbEntity
  8
LY_3
390
0
  6
CONTINUOUS
 62
     3
100
AcDbLine
 10
310.999985
 20
21.461731
 30
0.0
 11
294.699997
 21
21.461731
 31
0.0
  0
LINE
  5
20D
100
AcDbEntity
  8
LY_3
390
0
  6
CONTINUOUS
 62
     3
100
AcDbLine
 10
310.999985
 20
23.805298
 30
0.0
 11
294.699997
 21
23.805298
 31
0.0
  0
LINE
  5
20E
100
AcDbEntity
  8
LY_3
390
0
  6
CONTINUOUS
 62
     3
100
AcDbLine
 10
310.999985
 20
26.032898
 30
0.0
 11
294.699997
 21
26.032898
 31
0.0
  0
LINE
  5
20F
100
AcDbEntity
  8
LY_3
390
0
  6
CONTINUOUS
 62
     3
100
AcDbLine
 10
310.999985
 20
28.133667
 30
0.0
 11
294.699997
 21
28.133667
 31
0.0
  0
LINE
  5
210
100
AcDbEntity
  8
LY_3
390
0
  6
CONTINUOUS
 62
     3
100
AcDbLine
 10
310.999985
 20
30.097366
 30
0.0
 11
294.699997
 21
30.097366
 31
0.0
  0
LINE
  5
211
100
AcDbEntity
  8
LY_3
390
0
  6
CONTINUOUS
 62
     3
100
AcDbLine
 10
310.999985
 20
31.914429
 30
0.0
 11
294.699997
 21
31.914429
 31
0.0
  0
LINE
  5
212
100
AcDbEntity
  8
LY_3
390
0
  6
CONTINUOUS
 62
     3
100
AcDbLine
 10
310.999985
 20
33.576019
 30
0.0
 11
294.699997
 21
33.576019
 31
0.0
  0
LINE
  5
213
100
AcDbEntity
  8
LY_3
390
0
  6
CONTINUOUS
 62
     3
100
AcDbLine
 10
310.999985
 20
35.074036
 30
0.0
 11
294.699997
 21
35.074036
 31
0.0
  0
LINE
  5
214
100
AcDbEntity
  8
LY_3
390
0
  6
CONTINUOUS
 62
     3
100
AcDbLine
 10
310.999985
 20
36.401154
 30
0.0
 11
294.699997
 21
36.401154
 31
0.0
  0
LINE
  5
215
100
AcDbEntity
  8
LY_3
390
0
  6
CONTINUOUS
 62
     3
100
AcDbLine
 10
310.999985
 20
37.550949
 30
0.0
 11
294.699997
 21
37.550949
 31
0.0
  0
LINE
  5
216
100
AcDbEntity
  8
LY_3
390
0
  6
CONTINUOUS
 62
     3
100
AcDbLine
 10
310.999985
 20
38.517792
 30
0.0
 11
294.699997
 21
38.517792
 31
0.0
  0
LINE
  5
217
100
AcDbEntity
  8
LY_3
390
0
  6
CONTINUOUS
 62
     3
100
AcDbLine
 10
310.999985
 20
39.296982
 30
0.0
 11
294.699997
 21
39.296982
 31
0.0
  0
LINE
  5
218
100
AcDbEntity
  8
LY_3
390
0
  6
CONTINUOUS
 62
     3
100
AcDbLine
 10
310.999985
 20
39.884705
 30
0.0
 11
294.699997
 21
39.884705
 31
0.0
  0
LINE
  5
219
100
AcDbEntity
  8
LY_3
390
0
  6
CONTINUOUS
 62
     3
100
AcDbLine
 10
310.999985
 20
40.278137
 30
0.0
 11
294.699997
 21
40.278137
 31
0.0
  0
LINE
  5
21A
100
AcDbEntity
  8
LY_3
390
0
  6
CONTINUOUS
 62
   110
100
AcDbLine
 10
257.500015
 20
36.378189
 30
0.0
 11
264.750031
 21
36.378189
 31
0.0
  0
LINE
  5
21B
100
AcDbEntity
  8
LY_3
390
0
  6
CONTINUOUS
 62
   110
100
AcDbLine
 10
257.500015
 20
37.033691
 30
0.0
 11
264.750031
 21
37.033691
 31
0.0
  0
LINE
  5
21C
100
AcDbEntity
  8
LY_3
390
0
  6
CONTINUOUS
 62
   110
100
AcDbLine
 10
257.500015
 20
37.649597
 30
0.0
 11
264.750031
 21
37.649597
 31
0.0
  0
LINE
  5
21D
100
AcDbEntity
  8
LY_3
390
0
  6
CONTINUOUS
 62
   110
100
AcDbLine
 10
257.500015
 20
38.213943
 30
0.0
 11
264.750031
 21
38.213943
 31
0.0
  0
LINE
  5
21E
100
AcDbEntity
  8
LY_3
390
0
  6
CONTINUOUS
 62
   110
100
AcDbLine
 10
257.500015
 20
38.715729
 30
0.0
 11
264.750031
 21
38.715729
 31
0.0
  0
LINE
  5
21F
100
AcDbEntity
  8
LY_3
390
0
  6
CONTINUOUS
 62
   110
100
AcDbLine
 10
257.500015
 20
39.145203
 30
0.0
 11
264.750031
 21
39.145203
 31
0.0
  0
LINE
  5
220
100
AcDbEntity
  8
LY_3
390
0
  6
CONTINUOUS
 62
   110
100
AcDbLine
 10
257.500015
 20
39.493973
 30
0.0
 11
264.750031
 21
39.493973
 31
0.0
  0
LINE
  5
221
100
AcDbEntity
  8
LY_3
390
0
  6
CONTINUOUS
 62
   110
100
AcDbLine
 10
257.500015
 20
39.755295
 30
0.0
 11
264.750031
 21
39.755295
 31
0.0
  0
LINE
  5
222
100
AcDbEntity
  8
LY_3
390
0
  6
CONTINUOUS
 62
   110
100
AcDbLine
 10
257.500015
 20
39.924042
 30
0.0
 11
264.750031
 21
39.924042
 31
0.0
  0
LINE
  5
223
100
AcDbEntity
  8
LY_3
390
0
  6
CONTINUOUS
 62
     3
100
AcDbLine
 10
266.500015
 20
31.750046
 30
0.0
 11
266.500015
 21
38.250046
 31
0.0
  0
LINE
  5
224
100
AcDbEntity
  8
LY_3
390
0
  6
CONTINUOUS
 62
     3
100
AcDbLine
 10
257.500015
 20
30.000031
 30
0.0
 11
257.500015
 21
40.0
 31
0.0
  0
LINE
  5
225
100
AcDbEntity
  8
LY_3
390
0
  6
CONTINUOUS
 62
     3
100
AcDbLine
 10
256.499934
 20
30.999929
 30
0.0
 11
257.499935
 21
29.999927
 31
0.0
  0
LINE
  5
226
100
AcDbEntity
  8
LY_3
390
0
  6
CONTINUOUS
 62
     3
100
AcDbLine
 10
256.499986
 20
39.000036
 30
0.0
 11
257.499986
 21
40.000039
 31
0.0
  0
LINE
  5
227
100
AcDbEntity
  8
LY_3
390
0
  6
CONTINUOUS
 62
     3
100
AcDbLine
 10
256.5
 20
31.000031
 30
0.0
 11
256.5
 21
39.000015
 31
0.0
  0
LINE
  5
228
100
AcDbEntity
  8
LY_3
390
0
  6
CONTINUOUS
 62
     3
100
AcDbLine
 10
264.750031
 20
30.000015
 30
0.0
 11
264.750031
 21
40.000015
 31
0.0
  0
LINE
  5
229
100
AcDbEntity
  8
LY_3
390
0
  6
CONTINUOUS
 62
     3
100
AcDbLine
 10
266.499968
 20
31.750055
 30
0.0
 11
264.749958
 21
30.000051
 31
0.0
  0
LINE
  5
22A
100
AcDbEntity
  8
LY_3
390
0
  6
CONTINUOUS
 62
     3
100
AcDbLine
 10
266.500093
 20
38.250084
 30
0.0
 11
264.750107
 21
40.000069
 31
0.0
  0
LINE
  5
22B
100
AcDbEntity
  8
LY_3
390
0
  6
CONTINUOUS
 62
     3
100
AcDbLine
 10
264.75
 20
29.999985
 30
0.0
 11
257.500015
 21
29.999985
 31
0.0
  0
LINE
  5
22C
100
AcDbEntity
  8
LY_3
390
0
  6
CONTINUOUS
 62
     3
100
AcDbLine
 10
264.750031
 20
39.999985
 30
0.0
 11
257.500015
 21
39.999985
 31
0.0
  0
LINE
  5
22D
100
AcDbEntity
  8
LY_3
390
0
  6
CONTINUOUS
 62
     3
100
AcDbLine
 10
205.199997
 20
14.5
 30
0.0
 11
205.199997
 21
-14.5
 31
0.0
  0
LINE
  5
22E
100
AcDbEntity
  8
LY_3
390
0
  6
CONTINUOUS
 62
     3
100
AcDbLine
 10
215.800003
 20
-34.650009
 30
0.0
 11
215.800003
 21
34.649994
 31
0.0
  0
LINE
  5
22F
100
AcDbEntity
  8
LY_3
390
0
  6
CONTINUOUS
 62
     3
100
AcDbLine
 10
226.899994
 20
34.649994
 30
0.0
 11
226.899994
 21
-34.650009
 31
0.0
  0
LINE
  5
230
100
AcDbEntity
  8
LY_3
390
0
  6
CONTINUOUS
 62
     3
100
AcDbLine
 10
294.199997
 20
0.0
 30
0.0
 11
294.199997
 21
-40.0
 31
0.0
  0
LINE
  5
231
100
AcDbEntity
  8
LY_3
390
0
  6
CONTINUOUS
 62
     3
100
AcDbLine
 10
311.499985
 20
40.0
 30
0.0
 11
311.499985
 21
-40.0
 31
0.0
  0
LINE
  5
232
100
AcDbEntity
  8
LY_3
390
0
  6
CONTINUOUS
 62
     3
100
AcDbLine
 10
310.999985
 20
-40.5
 30
0.0
 11
294.699997
 21
-40.5
 31
0.0
  0
LINE
  5
233
100
AcDbEntity
  8
LY_3
390
0
  6
CONTINUOUS
 62
     3
100
AcDbLine
 10
294.200012
 20
-40.000018
 30
0.0
 11
294.7
 21
-40.50001
 31
0.0
  0
LINE
  5
234
100
AcDbEntity
  8
LY_3
390
0
  6
CONTINUOUS
 62
   110
100
AcDbLine
 10
281.0
 20
40.0
 30
0.0
 11
281.0
 21
-40.0
 31
0.0
  0
LINE
  5
235
100
AcDbEntity
  8
LY_3
390
0
  6
CONTINUOUS
 62
     3
100
AcDbLine
 10
280.699997
 20
-40.0
 30
0.0
 11
269.699997
 21
-40.0
 31
0.0
  0
LINE
  5
236
100
AcDbEntity
  8
LY_3
390
0
  6
CONTINUOUS
 62
     3
100
AcDbLine
 10
261.699997
 20
-21.0
 30
0.0
 11
227.699997
 21
-21.0
 31
0.0
  0
LINE
  5
237
100
AcDbEntity
  8
LY_3
390
0
  6
CONTINUOUS
 62
     3
100
AcDbLine
 10
227.700102
 20
-33.850072
 30
0.0
 11
226.900097
 21
-34.650076
 31
0.0
  0
LINE
  5
238
100
AcDbEntity
  8
LY_3
390
0
  6
CONTINUOUS
 62
     3
100
AcDbLine
 10
215.800003
 20
-34.650009
 30
0.0
 11
226.899994
 21
-34.650009
 31
0.0
  0
LINE
  5
239
100
AcDbEntity
  8
LY_3
390
0
  6
CONTINUOUS
 62
     3
100
AcDbLine
 10
215.000056
 20
-33.849933
 30
0.0
 11
215.800059
 21
-34.649934
 31
0.0
  0
LINE
  5
23A
100
AcDbEntity
  8
LY_3
390
0
  6
CONTINUOUS
 62
     3
100
AcDbLine
 10
215.0
 20
-15.5
 30
0.0
 11
206.199997
 21
-15.5
 31
0.0
  0
LINE
  5
23B
100
AcDbEntity
  8
LY_3
390
0
  6
CONTINUOUS
 62
     3
100
AcDbLine
 10
205.199997
 20
-14.5
 30
0.0
 11
163.0
 21
-14.5
 31
0.0
  0
LINE
  5
23C
100
AcDbEntity
  8
LY_3
390
0
  6
CONTINUOUS
 62
     3
100
AcDbLine
 10
162.0
 20
-5.0
 30
0.0
 11
85.0
 21
-5.0
 31
0.0
  0
LINE
  5
23D
100
AcDbEntity
  8
LY_3
390
0
  6
CONTINUOUS
 62
     3
100
AcDbLine
 10
85.0
 20
4.0
 30
0.0
 11
85.0
 21
-5.0
 31
0.0
  0
LINE
  5
23E
100
AcDbEntity
  8
LY_3
390
0
  6
CONTINUOUS
 62
     3
100
AcDbLine
 10
162.0
 20
5.0
 30
0.0
 11
105.0
 21
5.0
 31
0.0
  0
LINE
  5
23F
100
AcDbEntity
  8
LY_3
390
0
  6
CONTINUOUS
 62
     3
100
AcDbLine
 10
162.0
 20
-13.5
 30
0.0
 11
162.0
 21
13.5
 31
0.0
  0
LINE
  5
240
100
AcDbEntity
  8
LY_3
390
0
  6
CONTINUOUS
 62
     3
100
AcDbLine
 10
205.199997
 20
14.5
 30
0.0
 11
163.0
 21
14.5
 31
0.0
  0
LINE
  5
241
100
AcDbEntity
  8
LY_3
390
0
  6
CONTINUOUS
 62
     3
100
AcDbLine
 10
215.0
 20
15.5
 30
0.0
 11
206.199997
 21
15.5
 31
0.0
  0
LINE
  5
242
100
AcDbEntity
  8
LY_3
390
0
  6
CONTINUOUS
 62
     3
100
AcDbLine
 10
215.0
 20
33.850006
 30
0.0
 11
215.0
 21
-33.849899
 31
0.0
  0
LINE
  5
243
100
AcDbEntity
  8
LY_3
390
0
  6
CONTINUOUS
 62
     3
100
AcDbLine
 10
215.800028
 20
34.650016
 30
0.0
 11
215.00002
 21
33.850008
 31
0.0
  0
LINE
  5
244
100
AcDbEntity
  8
LY_3
390
0
  6
CONTINUOUS
 62
     3
100
AcDbLine
 10
215.800003
 20
34.649994
 30
0.0
 11
226.899994
 21
34.649994
 31
0.0
  0
LINE
  5
245
100
AcDbEntity
  8
LY_3
390
0
  6
CONTINUOUS
 62
     3
100
AcDbLine
 10
227.699996
 20
33.850004
 30
0.0
 11
226.89999
 21
34.650008
 31
0.0
  0
LINE
  5
246
100
AcDbEntity
  8
LY_3
390
0
  6
CONTINUOUS
 62
     3
100
AcDbLine
 10
227.699997
 20
33.849991
 30
0.0
 11
227.699997
 21
-33.850082
 31
0.0
  0
LINE
  5
247
100
AcDbEntity
  8
LY_3
390
0
  6
CONTINUOUS
 62
     3
100
AcDbLine
 10
261.699997
 20
21.0
 30
0.0
 11
227.699997
 21
21.0
 31
0.0
  0
LINE
  5
248
100
AcDbEntity
  8
LY_3
390
0
  6
CONTINUOUS
 62
     3
100
AcDbLine
 10
269.699997
 20
-40.0
 30
0.0
 11
269.699997
 21
40.0
 31
0.0
  0
LINE
  5
249
100
AcDbEntity
  8
LY_3
390
0
  6
CONTINUOUS
 62
     3
100
AcDbLine
 10
280.699997
 20
40.0
 30
0.0
 11
269.699997
 21
40.0
 31
0.0
  0
LINE
  5
24A
100
AcDbEntity
  8
LY_3
390
0
  6
CONTINUOUS
 62
     3
100
AcDbLine
 10
280.699997
 20
-40.0
 30
0.0
 11
280.699997
 21
40.0
 31
0.0
  0
LINE
  5
24B
100
AcDbEntity
  8
LY_3
390
0
  6
CONTINUOUS
 62
     3
100
AcDbLine
 10
294.199997
 20
0.0
 30
0.0
 11
294.199997
 21
40.0
 31
0.0
  0
LINE
  5
24C
100
AcDbEntity
  8
LY_3
390
0
  6
CONTINUOUS
 62
     3
100
AcDbLine
 10
294.699962
 20
40.500026
 30
0.0
 11
294.199973
 21
40.000036
 31
0.0
  0
LINE
  5
24D
100
AcDbEntity
  8
LY_3
390
0
  6
CONTINUOUS
 62
     3
100
AcDbLine
 10
310.999985
 20
40.5
 30
0.0
 11
294.699997
 21
40.5
 31
0.0
  0
LINE
  5
24E
100
AcDbEntity
  8
LY_3
390
0
  6
CONTINUOUS
 62
     3
100
AcDbLine
 10
316.999985
 20
40.0
 30
0.0
 11
311.499985
 21
40.0
 31
0.0
  0
LINE
  5
24F
100
AcDbEntity
  8
LY_3
390
0
  6
CONTINUOUS
 62
     3
100
AcDbLine
 10
324.999985
 20
32.0
 30
0.0
 11
324.999985
 21
-32.0
 31
0.0
  0
LINE
  5
250
100
AcDbEntity
  8
LY_3
390
0
  6
CONTINUOUS
 62
     3
100
AcDbLine
 10
316.999985
 20
-40.0
 30
0.0
 11
311.499985
 21
-40.0
 31
0.0
  0
LINE
  5
251
100
AcDbEntity
  8
LY_3
390
0
  6
CONTINUOUS
 62
     3
100
AcDbLine
 10
102.345306
 20
-4.700005
 30
0.0
 11
100.345306
 21
-4.700005
 31
0.0
  0
LINE
  5
252
100
AcDbEntity
  8
LY_3
390
0
  6
CONTINUOUS
 62
     3
100
AcDbLine
 10
100.345318
 20
-4.700002
 30
0.0
 11
100.045314
 21
-5.000006
 31
0.0
  0
LINE
  5
253
100
AcDbEntity
  8
LY_3
390
0
  6
CONTINUOUS
 62
     3
100
AcDbLine
 10
102.345315
 20
-4.700007
 30
0.0
 11
102.64532
 21
-5.000012
 31
0.0
  0
LINE
  5
254
100
AcDbEntity
  8
LY_3
390
0
  6
CONTINUOUS
 62
     3
100
AcDbLine
 10
102.345306
 20
-2.0
 30
0.0
 11
102.345306
 21
-4.700005
 31
0.0
  0
LINE
  5
255
100
AcDbEntity
  8
LY_3
390
0
  6
CONTINUOUS
 62
     3
100
AcDbLine
 10
100.345306
 20
-2.0
 30
0.0
 11
100.345306
 21
-4.700005
 31
0.0
  0
LINE
  5
256
100
AcDbEntity
  8
LY_3
390
0
  6
CONTINUOUS
 62
     3
100
AcDbLine
 10
101.345306
 20
-1.26931
 30
0.0
 11
101.345306
 21
-5.683304
 31
0.0
  0
LINE
  5
257
100
AcDbEntity
  8
LY_3
390
0
  6
CONTINUOUS
 62
     3
100
AcDbLine
 10
86.000074
 20
-2.000021
 30
0.0
 11
85.000063
 21
-3.000034
 31
0.0
  0
LINE
  5
258
100
AcDbEntity
  8
LY_3
390
0
  6
CONTINUOUS
 62
     3
100
AcDbLine
 10
86.000137
 20
2.000102
 30
0.0
 11
85.000137
 21
3.000104
 31
0.0
  0
LINE
  5
259
100
AcDbEntity
  8
LY_3
390
0
  6
CONTINUOUS
 62
   110
100
AcDbLine
 10
99.133972
 20
-2.5
 30
0.0
 11
96.300003
 21
-2.5
 31
0.0
  0
LINE
  5
25A
100
AcDbEntity
  8
LY_3
390
0
  6
CONTINUOUS
 62
   110
100
AcDbLine
 10
99.133972
 20
2.5
 30
0.0
 11
99.133972
 21
-2.5
 31
0.0
  0
LINE
  5
25B
100
AcDbEntity
  8
LY_3
390
0
  6
CONTINUOUS
 62
   110
100
AcDbLine
 10
99.133972
 20
2.5
 30
0.0
 11
96.300003
 21
2.5
 31
0.0
  0
LINE
  5
25C
100
AcDbEntity
  8
LY_3
390
0
  6
CONTINUOUS
 62
   110
100
AcDbLine
 10
100.000064
 20
2.000019
 30
0.0
 11
99.134038
 21
2.500017
 31
0.0
  0
LINE
  5
25D
100
AcDbEntity
  8
LY_3
390
0
  6
CONTINUOUS
 62
   110
100
AcDbLine
 10
100.000069
 20
-2.00011
 30
0.0
 11
99.134043
 21
-2.500109
 31
0.0
  0
LINE
  5
25E
100
AcDbEntity
  8
LY_3
390
0
  6
CONTINUOUS
 62
     3
100
AcDbLine
 10
102.845306
 20
-2.0
 30
0.0
 11
96.800003
 21
-2.0
 31
0.0
  0
LINE
  5
25F
100
AcDbEntity
  8
LY_3
390
0
  6
CONTINUOUS
 62
     3
100
AcDbLine
 10
102.845306
 20
2.0
 30
0.0
 11
96.800003
 21
2.0
 31
0.0
  0
LINE
  5
260
100
AcDbEntity
  8
LY_3
390
0
  6
CONTINUOUS
 62
     3
100
AcDbLine
 10
102.845306
 20
2.0
 30
0.0
 11
102.845306
 21
-2.0
 31
0.0
  0
LINE
  5
261
100
AcDbEntity
  8
LY_3
390
0
  6
CONTINUOUS
 62
     3
100
AcDbLine
 10
104.000007
 20
-0.000021
 30
0.0
 11
102.845318
 21
-2.000012
 31
0.0
  0
LINE
  5
262
100
AcDbEntity
  8
LY_3
390
0
  6
CONTINUOUS
 62
     3
100
AcDbLine
 10
104.000007
 20
0.00002
 30
0.0
 11
102.845318
 21
2.000011
 31
0.0
  0
LINE
  5
263
100
AcDbEntity
  8
LY_3
390
0
  6
CONTINUOUS
 62
     3
100
AcDbLine
 10
96.300003
 20
-2.5
 30
0.0
 11
85.500031
 21
-2.5
 31
0.0
  0
LINE
  5
264
100
AcDbEntity
  8
LY_3
390
0
  6
CONTINUOUS
 62
   110
100
AcDbLine
 10
96.800003
 20
-2.0
 30
0.0
 11
86.000031
 21
-2.0
 31
0.0
  0
LINE
  5
265
100
AcDbEntity
  8
LY_3
390
0
  6
CONTINUOUS
 62
   110
100
AcDbLine
 10
96.800003
 20
2.0
 30
0.0
 11
86.0
 21
2.0
 31
0.0
  0
LINE
  5
266
100
AcDbEntity
  8
LY_3
390
0
  6
CONTINUOUS
 62
     3
100
AcDbLine
 10
96.300003
 20
2.5
 30
0.0
 11
85.5
 21
2.5
 31
0.0
  0
LINE
  5
267
100
AcDbEntity
  8
LY_3
390
0
  6
CONTINUOUS
 62
     3
100
AcDbLine
 10
86.000031
 20
-2.0
 30
0.0
 11
86.000031
 21
-1.542908
 31
0.0
  0
LINE
  5
268
100
AcDbEntity
  8
LY_3
390
0
  6
CONTINUOUS
 62
     3
100
AcDbLine
 10
86.0
 20
2.0
 30
0.0
 11
86.0
 21
1.542892
 31
0.0
  0
LINE
  5
269
100
AcDbEntity
  8
LY_3
390
0
  6
CONTINUOUS
 62
     3
100
AcDbLine
 10
86.39944
 20
-1.875044
 30
0.0
 11
86.760291
 21
-2.500031
 31
0.0
  0
LINE
  5
26A
100
AcDbEntity
  8
LY_3
390
0
  6
CONTINUOUS
 62
     3
100
AcDbLine
 10
86.760361
 20
2.5
 30
0.0
 11
86.760361
 21
-2.5
 31
0.0
  0
LINE
  5
26B
100
AcDbEntity
  8
LY_3
390
0
  6
CONTINUOUS
 62
     3
100
AcDbLine
 10
86.399392
 20
1.875075
 30
0.0
 11
86.760246
 21
2.500069
 31
0.0
  0
LINE
  5
26C
100
AcDbEntity
  8
LY_3
390
0
  6
CONTINUOUS
 62
     3
100
AcDbLine
 10
96.300003
 20
2.5
 30
0.0
 11
96.300003
 21
-2.5
 31
0.0
  0
LINE
  5
26D
100
AcDbEntity
  8
LY_3
390
0
  6
CONTINUOUS
 62
     3
100
AcDbLine
 10
97.000033
 20
-1.800037
 30
0.0
 11
96.300038
 21
-2.500035
 31
0.0
  0
LINE
  5
26E
100
AcDbEntity
  8
LY_3
390
0
  6
CONTINUOUS
 62
     3
100
AcDbLine
 10
96.30002
 20
2.500028
 30
0.0
 11
97.000029
 21
1.800022
 31
0.0
  0
LINE
  5
26F
100
AcDbEntity
  8
LY_3
390
0
  6
CONTINUOUS
 62
     3
100
AcDbLine
 10
97.0
 20
1.800003
 30
0.0
 11
97.0
 21
-1.800003
 31
0.0
  0
LINE
  5
270
100
AcDbEntity
  8
LY_3
390
0
  6
CENTER
 62
   110
100
AcDbLine
 10
330.499992
 20
0.0
 30
0.0
 11
82.166656
 21
0.0
 31
0.0
  0
CIRCLE
  5
271
100
AcDbEntity
  8
LY_3
390
0
  6
CONTINUOUS
 62
     3
100
AcDbCircle
 10
0.0
 20
0.0
 30
0.0
 40
24.15
  0
CIRCLE
  5
272
100
AcDbEntity
  8
LY_3
390
0
  6
CENTER
 62
   110
100
AcDbCircle
 10
0.0
 20
0.0
 30
0.0
 40
29.35
  0
CIRCLE
  5
273
100
AcDbEntity
  8
LY_3
390
0
  6
CONTINUOUS
 62
     3
100
AcDbCircle
 10
0.0
 20
0.0
 30
0.0
 40
40.5
  0
CIRCLE
  5
275
100
AcDbEntity
  8
LY_3
390
0
  6
DASHED
 62
   110
100
AcDbCircle
 10
0.0
 20
0.0
 30
0.0
 40
21.0
  0
CIRCLE
  5
276
100
AcDbEntity
  8
LY_3
390
0
  6
CONTINUOUS
 62
     3
100
AcDbCircle
 10
0.0
 20
0.0
 30
0.0
 40
34.649994
  0
CIRCLE
  5
277
100
AcDbEntity
  8
LY_3
390
0
  6
CONTINUOUS
 62
     3
100
AcDbCircle
 10
0.0
 20
0.0
 30
0.0
 40
15.5
  0
CIRCLE
  5
278
100
AcDbEntity
  8
LY_3
390
0
  6
CONTINUOUS
 62
     3
100
AcDbCircle
 10
0.0
 20
0.0
 30
0.0
 40
14.5
  0
CIRCLE
  5
279
100
AcDbEntity
  8
LY_3
390
0
  6
CONTINUOUS
 62
     3
100
AcDbCircle
 10
0.0
 20
0.0
 30
0.0
 40
2.0
  0
CIRCLE
  5
27A
100
AcDbEntity
  8
LY_3
390
0
  6
CONTINUOUS
 62
     3
100
AcDbCircle
 10
0.0
 20
0.0
 30
0.0
 40
2.5
  0
CIRCLE
  5
27B
100
AcDbEntity
  8
LY_3
390
0
  6
CONTINUOUS
 62
     3
100
AcDbCircle
 10
0.0
 20
0.0
 30
0.0
 40
5.0
  0
ARC
  5
27C
100
AcDbEntity
  8
LY_3
390
0
  6
CONTINUOUS
 62
     3
100
AcDbCircle
 10
261.699997
 20
-29.0
 30
0.0
 40
8.0
100
AcDbArc
 50
0.000036
 51
90.000018
  0
ARC
  5
27D
100
AcDbEntity
  8
LY_3
390
0
  6
CONTINUOUS
 62
     3
100
AcDbCircle
 10
261.699997
 20
29.0
 30
0.0
 40
8.0
100
AcDbArc
 50
269.999972
 51
0.000022
  0
ARC
  5
27E
100
AcDbEntity
  8
LY_3
390
0
  6
CONTINUOUS
 62
     3
100
AcDbCircle
 10
267.937515
 20
32.524994
 30
0.0
 40
0.275
100
AcDbArc
 50
175.524001
 51
355.524018
  0
ARC
  5
27F
100
AcDbEntity
  8
LY_3
390
0
  6
CONTINUOUS
 62
     3
100
AcDbCircle
 10
268.324997
 20
37.474976
 30
0.0
 40
0.275002
100
AcDbArc
 50
355.524035
 51
175.524063
  0
ARC
  5
280
100
AcDbEntity
  8
LY_3
390
0
  6
CONTINUOUS
 62
     3
100
AcDbCircle
 10
268.712509
 20
32.524994
 30
0.0
 40
0.275
100
AcDbArc
 50
175.524001
 51
355.524086
  0
ARC
  5
281
100
AcDbEntity
  8
LY_3
390
0
  6
CONTINUOUS
 62
     3
100
AcDbCircle
 10
269.100006
 20
37.474976
 30
0.0
 40
0.275002
100
AcDbArc
 50
355.524104
 51
175.524001
  0
ARC
  5
282
100
AcDbEntity
  8
LY_3
390
0
  6
CONTINUOUS
 62
     3
100
AcDbCircle
 10
269.487503
 20
32.524994
 30
0.0
 40
0.275
100
AcDbArc
 50
175.524001
 51
320.597422
  0
ARC
  5
283
100
AcDbEntity
  8
LY_3
390
0
  6
CONTINUOUS
 62
     3
100
AcDbCircle
 10
269.875
 20
37.474976
 30
0.0
 40
0.275002
100
AcDbArc
 50
129.521757
 51
175.524001
  0
ARC
  5
284
100
AcDbEntity
  8
LY_3
390
0
  6
CONTINUOUS
 62
     3
100
AcDbCircle
 10
267.162506
 20
32.524994
 30
0.0
 40
0.275
100
AcDbArc
 50
175.524001
 51
355.524018
  0
ARC
  5
285
100
AcDbEntity
  8
LY_3
390
0
  6
CONTINUOUS
 62
     3
100
AcDbCircle
 10
267.550003
 20
37.474976
 30
0.0
 40
0.275002
100
AcDbArc
 50
355.524104
 51
175.524001
  0
ARC
  5
286
100
AcDbEntity
  8
LY_3
390
0
  6
CONTINUOUS
 62
     3
100
AcDbCircle
 10
266.442856
 20
32.524994
 30
0.0
 40
0.275002
100
AcDbArc
 50
281.99486
 51
356.161575
  0
ARC
  5
287
100
AcDbEntity
  8
LY_3
390
0
  6
CONTINUOUS
 62
     3
100
AcDbCircle
 10
266.775009
 20
37.474976
 30
0.0
 40
0.275002
100
AcDbArc
 50
356.161593
 51
180.0
  0
ARC
  5
288
100
AcDbEntity
  8
LY_3
390
0
  6
CONTINUOUS
 62
     3
100
AcDbCircle
 10
206.199997
 20
-14.5
 30
0.0
 40
1.0
100
AcDbArc
 50
180.0
 51
269.999982
  0
ARC
  5
289
100
AcDbEntity
  8
LY_3
390
0
  6
CONTINUOUS
 62
     3
100
AcDbCircle
 10
163.0
 20
-13.5
 30
0.0
 40
1.0
100
AcDbArc
 50
180.0
 51
269.999982
  0
ARC
  5
28A
100
AcDbEntity
  8
LY_3
390
0
  6
CONTINUOUS
 62
     3
100
AcDbCircle
 10
163.0
 20
13.5
 30
0.0
 40
1.0
100
AcDbArc
 50
90.000018
 51
180.0
  0
ARC
  5
28B
100
AcDbEntity
  8
LY_3
390
0
  6
CONTINUOUS
 62
     3
100
AcDbCircle
 10
206.199997
 20
14.5
 30
0.0
 40
1.0
100
AcDbArc
 50
90.000018
 51
180.0
  0
ARC
  5
28C
100
AcDbEntity
  8
LY_3
390
0
  6
CONTINUOUS
 62
     3
100
AcDbCircle
 10
316.999985
 20
32.0
 30
0.0
 40
8.0
100
AcDbArc
 50
0.000036
 51
90.000018
  0
ARC
  5
28D
100
AcDbEntity
  8
LY_3
390
0
  6
CONTINUOUS
 62
     3
100
AcDbCircle
 10
316.999985
 20
-32.0
 30
0.0
 40
8.0
100
AcDbArc
 50
269.999972
 51
0.000022
  0
ARC
  5
28E
100
AcDbEntity
  8
LY_3
390
0
  6
CONTINUOUS
 62
     3
100
AcDbCircle
 10
85.75
 20
-2.25
 30
0.0
 40
0.75
100
AcDbArc
 50
30.000672
 51
180.000055
  0
ARC
  5
28F
100
AcDbEntity
  8
LY_3
390
0
  6
CONTINUOUS
 62
     3
100
AcDbCircle
 10
85.75
 20
2.25
 30
0.0
 40
0.75
100
AcDbArc
 50
180.0
 51
329.999383
  0
LWPOLYLINE
  5
290
100
AcDbEntity
  8
LY_3
390
0
  6
CONTINUOUS
 62
     3
100
AcDbPolyline
 90
       16
 70
     0
 10
115.103874
 20
4.999013
 10
115.245805
 20
4.169368
 10
115.463066
 20
3.396296
 10
115.798462
 20
2.709938
 10
116.384846
 20
2.036002
 10
117.13951
 20
1.482442
 10
118.005695
 20
1.006233
 10
118.926641
 20
0.564351
 10
119.845586
 20
0.11377
 10
120.705773
 20
-0.388535
 10
121.450439
 20
-0.985588
 10
121.985739
 20
-1.634149
 10
122.392666
 20
-2.37759
 10
122.683507
 20
-3.198305
 10
122.870549
 20
-4.078687
 10
122.966077
 20
-5.001131
  0
LWPOLYLINE
  5
291
100
AcDbEntity
  8
LY_3
390
0
  6
CONTINUOUS
 62
     3
100
AcDbPolyline
 90
       19
 70
     0
 10
185.550223
 20
8.813238
 10
185.877325
 20
9.294735
 10
186.303282
 20
9.743186
 10
186.820185
 20
10.150262
 10
187.418431
 20
10.508402
 10
188.086911
 20
10.810956
 10
188.813209
 20
11.052303
 10
189.583836
 20
11.227962
 10
190.384479
 20
11.33467
 10
191.200268
 20
11.370445
 10
192.016052
 20
11.334623
 10
192.81668
 20
11.227869
 10
193.587282
 20
11.052165
 10
194.313546
 20
10.810775
 10
194.981983
 20
10.508183
 10
195.58018
 20
10.150008
 10
196.097025
 20
9.742902
 10
196.522919
 20
9.294426
 10
196.849953
 20
8.81291
  0
LWPOLYLINE
  5
292
100
AcDbEntity
  8
LY_3
390
0
  6
CONTINUOUS
 62
     3
100
AcDbPolyline
 90
       72
 70
     1
 10
185.199997
 20
10.112091
 10
185.222829
 20
9.776105
 10
185.29115
 20
9.442677
 10
185.404442
 20
9.114343
 10
185.561841
 20
8.793602
 10
185.76215
 20
8.482896
 10
186.003845
 20
8.184589
 10
186.285085
 20
7.900952
 10
186.60373
 20
7.634143
 10
186.957356
 20
7.386192
 10
187.343271
 20
7.158987
 10
187.758538
 20
6.954257
 10
188.199997
 20
6.77356
 10
188.664287
 20
6.618272
 10
189.147876
 20
6.489573
 10
189.647083
 20
6.388444
 10
190.158108
 20
6.315654
 10
190.677062
 20
6.271757
 10
191.199997
 20
6.257088
 10
191.722931
 20
6.271757
 10
192.241886
 20
6.315654
 10
192.752911
 20
6.388444
 10
193.252118
 20
6.489573
 10
193.735707
 20
6.618272
 10
194.199997
 20
6.77356
 10
194.641456
 20
6.954257
 10
195.056723
 20
7.158987
 10
195.442638
 20
7.386192
 10
195.796264
 20
7.634143
 10
196.114909
 20
7.900952
 10
196.396149
 20
8.184589
 10
196.637844
 20
8.482896
 10
196.838153
 20
8.793602
 10
196.995552
 20
9.114343
 10
197.108843
 20
9.442677
 10
197.177165
 20
9.776105
 10
197.199997
 20
10.112091
 10
197.177165
 20
10.448077
 10
197.108843
 20
10.781505
 10
196.995552
 20
11.109839
 10
196.838153
 20
11.43058
 10
196.637844
 20
11.741286
 10
196.396149
 20
12.039593
 10
196.114909
 20
12.32323
 10
195.796264
 20
12.590039
 10
195.442638
 20
12.83799
 10
195.056723
 20
13.065195
 10
194.641456
 20
13.269925
 10
194.199997
 20
13.450622
 10
193.735707
 20
13.605911
 10
193.252118
 20
13.734609
 10
192.752911
 20
13.835738
 10
192.241886
 20
13.908528
 10
191.722931
 20
13.952425
 10
191.199997
 20
13.967094
 10
190.677062
 20
13.952425
 10
190.158108
 20
13.908528
 10
189.647083
 20
13.835738
 10
189.147876
 20
13.734609
 10
188.664287
 20
13.605911
 10
188.199997
 20
13.450622
 10
187.758538
 20
13.269925
 10
187.343271
 20
13.065195
 10
186.957356
 20
12.83799
 10
186.60373
 20
12.590039
 10
186.285085
 20
12.32323
 10
186.003845
 20
12.039593
 10
185.76215
 20
11.741286
 10
185.561841
 20
11.43058
 10
185.404442
 20
11.109839
 10
185.29115
 20
10.781505
 10
185.222829
 20
10.448077
  0
LWPOLYLINE
  5
293
100
AcDbEntity
  8
LY_3
390
0
  6
CONTINUOUS
 62
     3
100
AcDbPolyline
 90
       72
 70
     1
 10
237.399994
 20
14.849243
 10
237.407605
 20
14.726005
 10
237.430378
 20
14.603704
 10
237.468142
 20
14.483273
 10
237.520609
 20
14.365626
 10
237.587378
 20
14.25166
 10
237.667943
 20
14.142242
 10
237.76169
 20
14.038205
 10
237.867905
 20
13.940341
 10
237.98578
 20
13.849393
 10
238.114419
 20
13.766055
 10
238.252841
 20
13.690961
 10
238.399994
 20
13.624682
 10
238.554757
 20
13.567723
 10
238.715954
 20
13.520516
 10
238.882356
 20
13.483423
 10
239.052698
 20
13.456724
 10
239.225682
 20
13.440622
 10
239.399994
 20
13.435242
 10
239.574305
 20
13.440622
 10
239.74729
 20
13.456724
 10
239.917632
 20
13.483423
 10
240.084034
 20
13.520516
 10
240.24523
 20
13.567723
 10
240.399994
 20
13.624682
 10
240.547147
 20
13.690961
 10
240.685569
 20
13.766055
 10
240.814207
 20
13.849393
 10
240.932083
 20
13.940341
 10
241.038298
 20
14.038205
 10
241.132045
 20
14.142242
 10
241.212609
 20
14.25166
 10
241.279379
 20
14.365626
 10
241.331846
 20
14.483273
 10
241.369609
 20
14.603704
 10
241.392383
 20
14.726005
 10
241.399994
 20
14.849243
 10
241.392383
 20
14.972482
 10
241.369609
 20
15.094782
 10
241.331846
 20
15.215214
 10
241.279379
 20
15.33286
 10
241.212609
 20
15.446826
 10
241.132045
 20
15.556244
 10
241.038298
 20
15.660281
 10
240.932083
 20
15.758146
 10
240.814207
 20
15.849093
 10
240.685569
 20
15.932431
 10
240.547147
 20
16.007525
 10
240.399994
 20
16.073804
 10
240.24523
 20
16.130764
 10
240.084034
 20
16.17797
 10
239.917632
 20
16.215064
 10
239.74729
 20
16.241763
 10
239.574305
 20
16.257864
 10
239.399994
 20
16.263245
 10
239.225682
 20
16.257864
 10
239.052698
 20
16.241763
 10
238.882356
 20
16.215064
 10
238.715954
 20
16.17797
 10
238.554757
 20
16.130764
 10
238.399994
 20
16.073804
 10
238.252841
 20
16.007525
 10
238.114419
 20
15.932431
 10
237.98578
 20
15.849093
 10
237.867905
 20
15.758146
 10
237.76169
 20
15.660281
 10
237.667943
 20
15.556244
 10
237.587378
 20
15.446826
 10
237.520609
 20
15.33286
 10
237.468142
 20
15.215214
 10
237.430378
 20
15.094782
 10
237.407605
 20
14.972482
  0
LWPOLYLINE
  5
294
100
AcDbEntity
  8
LY_3
390
0
  6
CONTINUOUS
 62
     3
100
AcDbPolyline
 90
       72
 70
     1
 10
237.800003
 20
14.849243
 10
237.806091
 20
14.750626
 10
237.824311
 20
14.65276
 10
237.854521
 20
14.556389
 10
237.896494
 20
14.462247
 10
237.94991
 20
14.37105
 10
238.014361
 20
14.283493
 10
238.089358
 20
14.200241
 10
238.17433
 20
14.121929
 10
238.26863
 20
14.049152
 10
238.37154
 20
13.982464
 10
238.482277
 20
13.922372
 10
238.599998
 20
13.869335
 10
238.723809
 20
13.823756
 10
238.852765
 20
13.785981
 10
238.985886
 20
13.756298
 10
239.122158
 20
13.734933
 10
239.260546
 20
13.722049
 10
239.399994
 20
13.717743
 10
239.539442
 20
13.722049
 10
239.677829
 20
13.734933
 10
239.814102
 20
13.756298
 10
239.947223
 20
13.785981
 10
240.076179
 20
13.823756
 10
240.199989
 20
13.869335
 10
240.317711
 20
13.922372
 10
240.428448
 20
13.982464
 10
240.531358
 20
14.049152
 10
240.625658
 20
14.121929
 10
240.71063
 20
14.200241
 10
240.785627
 20
14.283493
 10
240.850078
 20
14.37105
 10
240.903493
 20
14.462247
 10
240.945466
 20
14.556389
 10
240.975677
 20
14.65276
 10
240.993896
 20
14.750626
 10
240.999985
 20
14.849243
 10
240.993896
 20
14.94786
 10
240.975677
 20
15.045726
 10
240.945466
 20
15.142097
 10
240.903493
 20
15.236239
 10
240.850078
 20
15.327436
 10
240.785627
 20
15.414993
 10
240.71063
 20
15.498245
 10
240.625658
 20
15.576558
 10
240.531358
 20
15.649335
 10
240.428448
 20
15.716023
 10
240.317711
 20
15.776114
 10
240.199989
 20
15.829151
 10
240.076179
 20
15.874731
 10
239.947223
 20
15.912506
 10
239.814102
 20
15.942188
 10
239.677829
 20
15.963553
 10
239.539442
 20
15.976438
 10
239.399994
 20
15.980743
 10
239.260546
 20
15.976438
 10
239.122158
 20
15.963553
 10
238.985886
 20
15.942188
 10
238.852765
 20
15.912506
 10
238.723809
 20
15.874731
 10
238.599998
 20
15.829151
 10
238.482277
 20
15.776114
 10
238.37154
 20
15.716023
 10
238.26863
 20
15.649335
 10
238.17433
 20
15.576558
 10
238.089358
 20
15.498245
 10
238.014361
 20
15.414993
 10
237.94991
 20
15.327436
 10
237.896494
 20
15.236239
 10
237.854521
 20
15.142097
 10
237.824311
 20
15.045726
 10
237.806091
 20
14.94786
  0
LWPOLYLINE
  5
295
100
AcDbEntity
  8
LY_3
390
0
  6
CONTINUOUS
 62
     3
100
AcDbPolyline
 90
       72
 70
     1
 10
272.199997
 20
-20.0
 10
272.207608
 20
-20.132085
 10
272.230381
 20
-20.263164
 10
272.268145
 20
-20.392241
 10
272.320612
 20
-20.518333
 10
272.387381
 20
-20.640479
 10
272.467946
 20
-20.757751
 10
272.561693
 20
-20.869257
 10
272.667908
 20
-20.974147
 10
272.785783
 20
-21.071622
 10
272.914422
 20
-21.160943
 10
273.052844
 20
-21.241427
 10
273.199997
 20
-21.312464
 10
273.35476
 20
-21.373512
 10
273.515957
 20
-21.424107
 10
273.682359
 20
-21.463863
 10
273.852701
 20
-21.492479
 10
274.025685
 20
-21.509736
 10
274.199997
 20
-21.515503
 10
274.374308
 20
-21.509736
 10
274.547293
 20
-21.492479
 10
274.717635
 20
-21.463863
 10
274.884037
 20
-21.424107
 10
275.045233
 20
-21.373512
 10
275.199997
 20
-21.312464
 10
275.34715
 20
-21.241427
 10
275.485572
 20
-21.160943
 10
275.614211
 20
-21.071622
 10
275.732086
 20
-20.974147
 10
275.838301
 20
-20.869257
 10
275.932048
 20
-20.757751
 10
276.012613
 20
-20.640479
 10
276.079382
 20
-20.518333
 10
276.131849
 20
-20.392241
 10
276.169612
 20
-20.263164
 10
276.192386
 20
-20.132085
 10
276.199997
 20
-20.0
 10
276.192386
 20
-19.867915
 10
276.169612
 20
-19.736836
 10
276.131849
 20
-19.607759
 10
276.079382
 20
-19.481667
 10
276.012613
 20
-19.359521
 10
275.932048
 20
-19.242249
 10
275.838301
 20
-19.130743
 10
275.732086
 20
-19.025853
 10
275.614211
 20
-18.928378
 10
275.485572
 20
-18.839057
 10
275.34715
 20
-18.758573
 10
275.199997
 20
-18.687536
 10
275.045233
 20
-18.626488
 10
274.884037
 20
-18.575893
 10
274.717635
 20
-18.536137
 10
274.547293
 20
-18.507521
 10
274.374308
 20
-18.490264
 10
274.199997
 20
-18.484497
 10
274.025685
 20
-18.490264
 10
273.852701
 20
-18.507521
 10
273.682359
 20
-18.536137
 10
273.515957
 20
-18.575893
 10
273.35476
 20
-18.626488
 10
273.199997
 20
-18.687536
 10
273.052844
 20
-18.758573
 10
272.914422
 20
-18.839057
 10
272.785783
 20
-18.928378
 10
272.667908
 20
-19.025853
 10
272.561693
 20
-19.130743
 10
272.467946
 20
-19.242249
 10
272.387381
 20
-19.359521
 10
272.320612
 20
-19.481667
 10
272.268145
 20
-19.607759
 10
272.230381
 20
-19.736836
 10
272.207608
 20
-19.867915
  0
MTEXT
  5
296
100
AcDbEntity
  8
LY_3
390
0
  6
CONTINUOUS
 62
   110
100
AcDbMText
 10
287.4
 20
23.929715
 30
0.0
 40
3.2
 41
0.0
 71
     1
 72
     1
  1
\W0.742;\A1;40
 11
0.0
 21
1.0
 31
0.0
 73
     1
 44
1.0
  0
MTEXT
  5
297
100
AcDbEntity
  8
LY_3
390
0
  6
CONTINUOUS
 62
   110
100
AcDbMText
 10
287.4
 20
11.135462
 30
0.0
 40
3.2
 41
0.0
 71
     1
 72
     1
  1
\W1.061;\A1;20
 11
0.0
 21
1.0
 31
0.0
 73
     1
 44
1.0
  0
MTEXT
  5
298
100
AcDbEntity
  8
LY_3
390
0
  6
CONTINUOUS
 62
   110
100
AcDbMText
 10
287.4
 20
-0.990476
 30
0.0
 40
3.2
 41
0.0
 71
     1
 72
     1
  1
\W1.143;\A1;0
 11
0.0
 21
1.0
 31
0.0
 73
     1
 44
1.0
  0
MTEXT
  5
299
100
AcDbEntity
  8
LY_3
390
0
  6
CONTINUOUS
 62
   110
100
AcDbMText
 10
287.4
 20
-17.321782
 30
0.0
 40
3.2
 41
0.0
 71
     1
 72
     1
  1
\W0.910;\A1;340
 11
0.0
 21
1.0
 31
0.0
 73
     1
 44
1.0
  0
MTEXT
  5
29A
100
AcDbEntity
  8
LY_3
390
0
  6
CONTINUOUS
 62
   110
100
AcDbMText
 10
287.4
 20
-28.312151
 30
0.0
 40
3.2
 41
0.0
 71
     1
 72
     1
  1
\W0.650;\A1;320
 11
0.0
 21
1.0
 31
0.0
 73
     1
 44
1.0
  0
MTEXT
  5
29B
100
AcDbEntity
  8
LY_3
390
0
  6
CONTINUOUS
 62
   110
100
AcDbMText
 10
287.4
 20
-35.930472
 30
0.0
 40
3.2
 41
0.0
 71
     1
 72
     1
  1
\W0.345;\A1;300
 11
0.0
 21
1.0
 31
0.0
 73
     1
 44
1.0
  0
MTEXT
  5
29C
100
AcDbEntity
  8
LY_3
390
0
  6
CONTINUOUS
 62
   110
100
AcDbMText
 10
287.4
 20
38.883213
 30
0.0
 40
3.2
 41
0.0
 71
     1
 72
     1
  1
\W0.212;\A1;80
 11
0.0
 21
1.0
 31
0.0
 73
     1
 44
1.0
  0
MTEXT
  5
29D
100
AcDbEntity
  8
LY_3
390
0
  6
CONTINUOUS
 62
   110
100
AcDbMText
 10
287.4
 20
33.622817
 30
0.0
 40
3.2
 41
0.0
 71
     1
 72
     1
  1
\W0.424;\A1;60
 11
0.0
 21
1.0
 31
0.0
 73
     1
 44
1.0
  0
MTEXT
  5
29E
100
AcDbEntity
  8
LY_3
390
0
  6
CONTINUOUS
 62
   110
100
AcDbMText
 10
287.4
 20
-39.912427
 30
0.0
 40
3.2
 41
0.0
 71
     1
 72
     1
  1
\W0.130;\A1;280
 11
0.0
 21
1.0
 31
0.0
 73
     1
 44
1.0
  0
LWPOLYLINE
  5
29F
100
AcDbEntity
  8
LY_3
390
0
  6
CONTINUOUS
 62
   110
100
AcDbPolyline
 90
        3
 70
     0
 10
102.345305
 20
-3.327404
 10
110.0
 20
-20.0
 10
126.632431
 20
-20.0
  0
MTEXT
  5
2A0
100
AcDbEntity
  8
LY_3
390
0
  6
CONTINUOUS
 62
   110
100
AcDbMText
 10
111.754653
 20
-12.5
 30
0.0
 40
5.2
 41
0.0
 71
     1
 72
     1
  1
\W0.833;\A1;２キリ
 73
     1
 44
1.0
  0
LWPOLYLINE
  5
2A1
100
AcDbEntity
  8
LY_3
390
0
  6
CONTINUOUS
 62
   110
100
AcDbPolyline
 90
        3
 70
     0
 10
97.442426
 20
2.5
 10
80.0
 20
30.0
 10
118.65148
 20
30.0
  0
MTEXT
  5
2A2
100
AcDbEntity
  8
LY_3
390
0
  6
CONTINUOUS
 62
   110
100
AcDbMText
 10
82.973704
 20
37.5
 30
0.0
 40
5.2
 41
0.0
 71
     1
 72
     1
  1
\W0.833;\A1;Ｍ４　深さ１５
 73
     1
 44
1.0
  0
LINE
  5
2A3
100
AcDbEntity
  8
LY_3
390
0
  6
CONTINUOUS
 62
   110
100
AcDbLine
 10
191.843002
 20
-7.210983
 30
0.0
 11
191.843002
 21
23.789024
 31
0.0
  0
LINE
  5
2A4
100
AcDbEntity
  8
LY_3
390
0
  6
CONTINUOUS
 62
   110
100
AcDbLine
 10
191.843002
 20
23.789024
 30
0.0
 11
191.843002
 21
37.504582
 31
0.0
  0
LINE
  5
2A5
100
AcDbEntity
  8
LY_3
390
0
  6
CONTINUOUS
 62
   110
100
AcDbLine
 10
204.467936
 20
-14.499992
 30
0.0
 11
189.557005
 21
-5.891163
 31
0.0
  0
LINE
  5
2A6
100
AcDbEntity
  8
LY_3
390
0
  6
CONTINUOUS
 62
   110
100
AcDbLine
 10
204.467928
 20
16.50002
 30
0.0
 11
189.556992
 21
25.108853
 31
0.0
  0
MTEXT
  5
2A7
100
AcDbEntity
  8
LY_3
390
0
  6
CONTINUOUS
 62
   110
100
AcDbMText
 10
185.643003
 20
22.785939
 30
0.0
 40
5.2
 41
0.0
 71
     1
 72
     1
  1
\W1.017;\A1;\U+220531
 11
0.0
 21
1.0
 31
0.0
 73
     1
 44
1.0
  0
LINE
  5
2A8
100
AcDbEntity
  8
LY_3
390
0
  6
CONTINUOUS
 62
   110
100
AcDbLine
 10
192.585221
 20
-4.440983
 30
0.0
 11
191.843002
 21
-7.210983
 31
0.0
  0
LINE
  5
2A9
100
AcDbEntity
  8
LY_3
390
0
  6
CONTINUOUS
 62
   110
100
AcDbLine
 10
191.843002
 20
-7.210983
 30
0.0
 11
191.100784
 21
-4.440983
 31
0.0
  0
LINE
  5
2AA
100
AcDbEntity
  8
LY_3
390
0
  6
CONTINUOUS
 62
   110
100
AcDbLine
 10
191.843002
 20
-7.210983
 30
0.0
 11
191.843002
 21
-4.440983
 31
0.0
  0
LINE
  5
2AB
100
AcDbEntity
  8
LY_3
390
0
  6
CONTINUOUS
 62
   110
100
AcDbLine
 10
191.100784
 20
21.019024
 30
0.0
 11
191.843002
 21
23.789024
 31
0.0
  0
LINE
  5
2AC
100
AcDbEntity
  8
LY_3
390
0
  6
CONTINUOUS
 62
   110
100
AcDbLine
 10
191.843002
 20
23.789024
 30
0.0
 11
192.585221
 21
21.019024
 31
0.0
  0
LINE
  5
2AD
100
AcDbEntity
  8
LY_3
390
0
  6
CONTINUOUS
 62
   110
100
AcDbLine
 10
191.843002
 20
23.789024
 30
0.0
 11
191.843002
 21
21.019024
 31
0.0
  0
LINE
  5
2AE
100
AcDbEntity
  8
LY_3
390
0
  6
CONTINUOUS
 62
   110
100
AcDbLine
 10
325.0
 20
-80.0
 30
0.0
 11
85.0
 21
-80.0
 31
0.0
  0
LINE
  5
2AF
100
AcDbEntity
  8
LY_3
390
0
  6
CONTINUOUS
 62
   110
100
AcDbLine
 10
325.0
 20
-34.0
 30
0.0
 11
325.0
 21
-82.286
 31
0.0
  0
LINE
  5
2B0
100
AcDbEntity
  8
LY_3
390
0
  6
CONTINUOUS
 62
   110
100
AcDbLine
 10
85.0
 20
-7.0
 30
0.0
 11
85.0
 21
-82.286
 31
0.0
  0
MTEXT
  5
2B1
100
AcDbEntity
  8
LY_3
390
0
  6
CONTINUOUS
 62
   110
100
AcDbMText
 10
198.947897
 20
-73.8
 30
0.0
 40
5.2
 41
0.0
 71
     1
 72
     1
  1
\W1.008;\A1;240
 73
     1
 44
1.0
  0
LINE
  5
2B2
100
AcDbEntity
  8
LY_3
390
0
  6
CONTINUOUS
 62
   110
100
AcDbLine
 10
322.23
 20
-79.257781
 30
0.0
 11
325.0
 21
-80.0
 31
0.0
  0
LINE
  5
2B3
100
AcDbEntity
  8
LY_3
390
0
  6
CONTINUOUS
 62
   110
100
AcDbLine
 10
325.0
 20
-80.0
 30
0.0
 11
322.23
 21
-80.742219
 31
0.0
  0
LINE
  5
2B4
100
AcDbEntity
  8
LY_3
390
0
  6
CONTINUOUS
 62
   110
100
AcDbLine
 10
325.0
 20
-80.0
 30
0.0
 11
322.23
 21
-80.0
 31
0.0
  0
LINE
  5
2B5
100
AcDbEntity
  8
LY_3
390
0
  6
CONTINUOUS
 62
   110
100
AcDbLine
 10
87.77
 20
-80.742219
 30
0.0
 11
85.0
 21
-80.0
 31
0.0
  0
LINE
  5
2B6
100
AcDbEntity
  8
LY_3
390
0
  6
CONTINUOUS
 62
   110
100
AcDbLine
 10
85.0
 20
-80.0
 30
0.0
 11
87.77
 21
-79.257781
 31
0.0
  0
LINE
  5
2B7
100
AcDbEntity
  8
LY_3
390
0
  6
CONTINUOUS
 62
   110
100
AcDbLine
 10
85.0
 20
-80.0
 30
0.0
 11
87.77
 21
-80.0
 31
0.0
  0
LINE
  5
2B8
100
AcDbEntity
  8
LY_3
390
0
  6
CONTINUOUS
 62
   110
100
AcDbLine
 10
325.0
 20
-56.0
 30
0.0
 11
269.699997
 21
-56.0
 31
0.0
  0
LINE
  5
2B9
100
AcDbEntity
  8
LY_3
390
0
  6
CONTINUOUS
 62
   110
100
AcDbLine
 10
269.699997
 20
-42.0
 30
0.0
 11
269.699997
 21
-58.285995
 31
0.0
  0
MTEXT
  5
2BA
100
AcDbEntity
  8
LY_3
390
0
  6
CONTINUOUS
 62
   110
100
AcDbMText
 10
288.683332
 20
-49.8
 30
0.0
 40
5.2
 41
0.0
 71
     1
 72
     1
  1
\A1;55.3
 73
     1
 44
1.0
  0
LINE
  5
2BB
100
AcDbEntity
  8
LY_3
390
0
  6
CONTINUOUS
 62
   110
100
AcDbLine
 10
322.23
 20
-55.257781
 30
0.0
 11
325.0
 21
-56.0
 31
0.0
  0
LINE
  5
2BC
100
AcDbEntity
  8
LY_3
390
0
  6
CONTINUOUS
 62
   110
100
AcDbLine
 10
325.0
 20
-56.0
 30
0.0
 11
322.23
 21
-56.742219
 31
0.0
  0
LINE
  5
2BD
100
AcDbEntity
  8
LY_3
390
0
  6
CONTINUOUS
 62
   110
100
AcDbLine
 10
325.0
 20
-56.0
 30
0.0
 11
322.23
 21
-56.0
 31
0.0
  0
LINE
  5
2BE
100
AcDbEntity
  8
LY_3
390
0
  6
CONTINUOUS
 62
   110
100
AcDbLine
 10
272.469997
 20
-56.742219
 30
0.0
 11
269.699997
 21
-56.0
 31
0.0
  0
LINE
  5
2BF
100
AcDbEntity
  8
LY_3
390
0
  6
CONTINUOUS
 62
   110
100
AcDbLine
 10
269.699997
 20
-56.0
 30
0.0
 11
272.469997
 21
-55.257781
 31
0.0
  0
LINE
  5
2C0
100
AcDbEntity
  8
LY_3
390
0
  6
CONTINUOUS
 62
   110
100
AcDbLine
 10
269.699997
 20
-56.0
 30
0.0
 11
272.469997
 21
-56.0
 31
0.0
  0
LINE
  5
2C1
100
AcDbEntity
  8
LY_3
390
0
  6
CONTINUOUS
 62
   110
100
AcDbLine
 10
151.616913
 20
-14.5
 30
0.0
 11
151.616913
 21
14.5
 31
0.0
  0
LINE
  5
2C2
100
AcDbEntity
  8
LY_3
390
0
  6
CONTINUOUS
 62
   110
100
AcDbLine
 10
151.616913
 20
14.5
 30
0.0
 11
151.616913
 21
29.924263
 31
0.0
  0
LINE
  5
2C3
100
AcDbEntity
  8
LY_3
390
0
  6
CONTINUOUS
 62
   110
100
AcDbLine
 10
161.0
 20
-14.5
 30
0.0
 11
149.330913
 21
-14.5
 31
0.0
  0
LINE
  5
2C4
100
AcDbEntity
  8
LY_3
390
0
  6
CONTINUOUS
 62
   110
100
AcDbLine
 10
161.0
 20
14.5
 30
0.0
 11
149.330913
 21
14.5
 31
0.0
  0
MTEXT
  5
2C5
100
AcDbEntity
  8
LY_3
390
0
  6
CONTINUOUS
 62
   110
100
AcDbMText
 10
145.416913
 20
15.151537
 30
0.0
 40
5.2
 41
0.0
 71
     1
 72
     1
  1
\W0.955;\A1;\U+220529
 11
0.0
 21
1.0
 31
0.0
 73
     1
 44
1.0
  0
LINE
  5
2C6
100
AcDbEntity
  8
LY_3
390
0
  6
CONTINUOUS
 62
   110
100
AcDbLine
 10
152.359132
 20
-11.73
 30
0.0
 11
151.616913
 21
-14.5
 31
0.0
  0
LINE
  5
2C7
100
AcDbEntity
  8
LY_3
390
0
  6
CONTINUOUS
 62
   110
100
AcDbLine
 10
151.616913
 20
-14.5
 30
0.0
 11
150.874694
 21
-11.73
 31
0.0
  0
LINE
  5
2C8
100
AcDbEntity
  8
LY_3
390
0
  6
CONTINUOUS
 62
   110
100
AcDbLine
 10
151.616913
 20
-14.5
 30
0.0
 11
151.616913
 21
-11.73
 31
0.0
  0
LINE
  5
2C9
100
AcDbEntity
  8
LY_3
390
0
  6
CONTINUOUS
 62
   110
100
AcDbLine
 10
150.874694
 20
11.73
 30
0.0
 11
151.616913
 21
14.5
 31
0.0
  0
LINE
  5
2CA
100
AcDbEntity
  8
LY_3
390
0
  6
CONTINUOUS
 62
   110
100
AcDbLine
 10
151.616913
 20
14.5
 30
0.0
 11
152.359132
 21
11.73
 31
0.0
  0
LINE
  5
2CB
100
AcDbEntity
  8
LY_3
390
0
  6
CONTINUOUS
 62
   110
100
AcDbLine
 10
151.616913
 20
14.5
 30
0.0
 11
151.616913
 21
11.73
 31
0.0
  0
LINE
  5
2CC
100
AcDbEntity
  8
LY_3
390
0
  6
CONTINUOUS
 62
   110
100
AcDbLine
 10
67.699997
 20
-5.0
 30
0.0
 11
67.699997
 21
5.0
 31
0.0
  0
LINE
  5
2CD
100
AcDbEntity
  8
LY_3
390
0
  6
CONTINUOUS
 62
   110
100
AcDbLine
 10
67.699997
 20
5.0
 30
0.0
 11
67.699997
 21
59.508437
 31
0.0
  0
LINE
  5
2CE
100
AcDbEntity
  8
LY_3
390
0
  6
CONTINUOUS
 62
   110
100
AcDbLine
 10
83.0
 20
-5.0
 30
0.0
 11
65.413997
 21
-5.0
 31
0.0
  0
LINE
  5
2CF
100
AcDbEntity
  8
LY_3
390
0
  6
CONTINUOUS
 62
   110
100
AcDbLine
 10
103.0
 20
5.0
 30
0.0
 11
65.413997
 21
5.0
 31
0.0
  0
MTEXT
  5
2D0
100
AcDbEntity
  8
LY_3
390
0
  6
CONTINUOUS
 62
   110
100
AcDbMText
 10
59.333331
 20
13.354143
 30
0.0
 40
5.2
 41
0.0
 71
     1
 72
     1
  1
\W0.976;\A1;\U+220510e7
 11
0.0
 21
1.0
 31
0.0
 73
     1
 44
1.0
  0
MTEXT
  5
2D1
100
AcDbEntity
  8
LY_3
390
0
  6
CONTINUOUS
 62
   110
100
AcDbMText
 10
56.733331
 20
37.952047
 30
0.0
 40
3.9
 41
0.0
 71
     1
 72
     1
  1
\W1.087;\A1;-0.025
 11
0.0
 21
1.0
 31
0.0
 73
     1
 44
1.0
  0
MTEXT
  5
2D2
100
AcDbEntity
  8
LY_3
390
0
  6
CONTINUOUS
 62
   110
100
AcDbMText
 10
63.23333
 20
37.976418
 30
0.0
 40
3.9
 41
0.0
 71
     1
 72
     1
  1
\W1.125;\A1;-0.040
 11
0.0
 21
1.0
 31
0.0
 73
     1
 44
1.0
  0
LINE
  5
2D3
100
AcDbEntity
  8
LY_3
390
0
  6
CONTINUOUS
 62
   110
100
AcDbLine
 10
68.442216
 20
-2.23
 30
0.0
 11
67.699997
 21
-5.0
 31
0.0
  0
LINE
  5
2D4
100
AcDbEntity
  8
LY_3
390
0
  6
CONTINUOUS
 62
   110
100
AcDbLine
 10
67.699997
 20
-5.0
 30
0.0
 11
66.957778
 21
-2.23
 31
0.0
  0
LINE
  5
2D5
100
AcDbEntity
  8
LY_3
390
0
  6
CONTINUOUS
 62
   110
100
AcDbLine
 10
67.699997
 20
-5.0
 30
0.0
 11
67.699997
 21
-2.23
 31
0.0
  0
LINE
  5
2D6
100
AcDbEntity
  8
LY_3
390
0
  6
CONTINUOUS
 62
   110
100
AcDbLine
 10
66.957778
 20
2.23
 30
0.0
 11
67.699997
 21
5.0
 31
0.0
  0
LINE
  5
2D7
100
AcDbEntity
  8
LY_3
390
0
  6
CONTINUOUS
 62
   110
100
AcDbLine
 10
67.699997
 20
5.0
 30
0.0
 11
68.442216
 21
2.23
 31
0.0
  0
LINE
  5
2D8
100
AcDbEntity
  8
LY_3
390
0
  6
CONTINUOUS
 62
   110
100
AcDbLine
 10
67.699997
 20
5.0
 30
0.0
 11
67.699997
 21
2.23
 31
0.0
  0
LINE
  5
2D9
100
AcDbEntity
  8
LY_3
390
0
  6
CONTINUOUS
 62
   110
100
AcDbLine
 10
350.0
 20
40.5
 30
0.0
 11
350.0
 21
-40.5
 31
0.0
  0
LINE
  5
2DA
100
AcDbEntity
  8
LY_3
390
0
  6
CONTINUOUS
 62
   110
100
AcDbLine
 10
313.0
 20
40.5
 30
0.0
 11
352.286
 21
40.5
 31
0.0
  0
LINE
  5
2DB
100
AcDbEntity
  8
LY_3
390
0
  6
CONTINUOUS
 62
   110
100
AcDbLine
 10
322.806374
 20
-40.5
 30
0.0
 11
352.286
 21
-40.5
 31
0.0
  0
MTEXT
  5
2DC
100
AcDbEntity
  8
LY_3
390
0
  6
CONTINUOUS
 62
   110
100
AcDbMText
 10
343.8
 20
-6.037289
 30
0.0
 40
5.2
 41
0.0
 71
     1
 72
     1
  1
\W1.017;\A1;\U+220581
 11
0.0
 21
1.0
 31
0.0
 73
     1
 44
1.0
  0
LINE
  5
2DD
100
AcDbEntity
  8
LY_3
390
0
  6
CONTINUOUS
 62
   110
100
AcDbLine
 10
349.257781
 20
37.73
 30
0.0
 11
350.0
 21
40.5
 31
0.0
  0
LINE
  5
2DE
100
AcDbEntity
  8
LY_3
390
0
  6
CONTINUOUS
 62
   110
100
AcDbLine
 10
350.0
 20
40.5
 30
0.0
 11
350.742219
 21
37.73
 31
0.0
  0
LINE
  5
2DF
100
AcDbEntity
  8
LY_3
390
0
  6
CONTINUOUS
 62
   110
100
AcDbLine
 10
350.0
 20
40.5
 30
0.0
 11
350.0
 21
37.73
 31
0.0
  0
LINE
  5
2E0
100
AcDbEntity
  8
LY_3
390
0
  6
CONTINUOUS
 62
   110
100
AcDbLine
 10
350.742219
 20
-37.73
 30
0.0
 11
350.0
 21
-40.5
 31
0.0
  0
LINE
  5
2E1
100
AcDbEntity
  8
LY_3
390
0
  6
CONTINUOUS
 62
   110
100
AcDbLine
 10
350.0
 20
-40.5
 30
0.0
 11
349.257781
 21
-37.73
 31
0.0
  0
LINE
  5
2E2
100
AcDbEntity
  8
LY_3
390
0
  6
CONTINUOUS
 62
   110
100
AcDbLine
 10
350.0
 20
-40.5
 30
0.0
 11
350.0
 21
-37.73
 31
0.0
  0
LINE
  5
2E3
100
AcDbEntity
  8
LY_3
390
0
  6
CONTINUOUS
 62
   110
100
AcDbLine
 10
162.0
 20
-56.0
 30
0.0
 11
85.0
 21
-56.0
 31
0.0
  0
MTEXT
  5
2E4
100
AcDbEntity
  8
LY_3
390
0
  6
CONTINUOUS
 62
   110
100
AcDbMText
 10
120.033332
 20
-49.8
 30
0.0
 40
5.2
 41
0.0
 71
     1
 72
     1
  1
\A1;77
 73
     1
 44
1.0
  0
LINE
  5
2E5
100
AcDbEntity
  8
LY_3
390
0
  6
CONTINUOUS
 62
   110
100
AcDbLine
 10
159.23
 20
-55.257781
 30
0.0
 11
162.0
 21
-56.0
 31
0.0
  0
LINE
  5
2E6
100
AcDbEntity
  8
LY_3
390
0
  6
CONTINUOUS
 62
   110
100
AcDbLine
 10
162.0
 20
-56.0
 30
0.0
 11
159.23
 21
-56.742219
 31
0.0
  0
LINE
  5
2E7
100
AcDbEntity
  8
LY_3
390
0
  6
CONTINUOUS
 62
   110
100
AcDbLine
 10
162.0
 20
-56.0
 30
0.0
 11
159.23
 21
-56.0
 31
0.0
  0
LINE
  5
2E8
100
AcDbEntity
  8
LY_3
390
0
  6
CONTINUOUS
 62
   110
100
AcDbLine
 10
87.77
 20
-56.742219
 30
0.0
 11
85.0
 21
-56.0
 31
0.0
  0
LINE
  5
2E9
100
AcDbEntity
  8
LY_3
390
0
  6
CONTINUOUS
 62
   110
100
AcDbLine
 10
85.0
 20
-56.0
 30
0.0
 11
87.77
 21
-55.257781
 31
0.0
  0
LINE
  5
2EA
100
AcDbEntity
  8
LY_3
390
0
  6
CONTINUOUS
 62
   110
100
AcDbLine
 10
85.0
 20
-56.0
 30
0.0
 11
87.77
 21
-56.0
 31
0.0
  0
LINE
  5
2EB
100
AcDbEntity
  8
LY_3
390
0
  6
CONTINUOUS
 62
   110
100
AcDbLine
 10
215.0
 20
-56.0
 30
0.0
 11
162.0
 21
-56.0
 31
0.0
  0
LINE
  5
2EC
100
AcDbEntity
  8
LY_3
390
0
  6
CONTINUOUS
 62
   110
100
AcDbLine
 10
162.0
 20
-15.5
 30
0.0
 11
162.0
 21
-58.286
 31
0.0
  0
MTEXT
  5
2ED
100
AcDbEntity
  8
LY_3
390
0
  6
CONTINUOUS
 62
   110
100
AcDbMText
 10
185.033334
 20
-49.8
 30
0.0
 40
5.2
 41
0.0
 71
     1
 72
     1
  1
\A1;53
 73
     1
 44
1.0
  0
LINE
  5
2EE
100
AcDbEntity
  8
LY_3
390
0
  6
CONTINUOUS
 62
   110
100
AcDbLine
 10
212.23
 20
-55.257781
 30
0.0
 11
215.0
 21
-56.0
 31
0.0
  0
LINE
  5
2EF
100
AcDbEntity
  8
LY_3
390
0
  6
CONTINUOUS
 62
   110
100
AcDbLine
 10
215.0
 20
-56.0
 30
0.0
 11
212.23
 21
-56.742219
 31
0.0
  0
LINE
  5
2F0
100
AcDbEntity
  8
LY_3
390
0
  6
CONTINUOUS
 62
   110
100
AcDbLine
 10
215.0
 20
-56.0
 30
0.0
 11
212.23
 21
-56.0
 31
0.0
  0
LINE
  5
2F1
100
AcDbEntity
  8
LY_3
390
0
  6
CONTINUOUS
 62
   110
100
AcDbLine
 10
164.77
 20
-56.742219
 30
0.0
 11
162.0
 21
-56.0
 31
0.0
  0
LINE
  5
2F2
100
AcDbEntity
  8
LY_3
390
0
  6
CONTINUOUS
 62
   110
100
AcDbLine
 10
162.0
 20
-56.0
 30
0.0
 11
164.77
 21
-55.257781
 31
0.0
  0
LINE
  5
2F3
100
AcDbEntity
  8
LY_3
390
0
  6
CONTINUOUS
 62
   110
100
AcDbLine
 10
162.0
 20
-56.0
 30
0.0
 11
164.77
 21
-56.0
 31
0.0
  0
LINE
  5
2F4
100
AcDbEntity
  8
LY_3
390
0
  6
CONTINUOUS
 62
   110
100
AcDbLine
 10
269.699997
 20
-56.0
 30
0.0
 11
227.699997
 21
-56.0
 31
0.0
  0
LINE
  5
2F5
100
AcDbEntity
  8
LY_3
390
0
  6
CONTINUOUS
 62
   110
100
AcDbLine
 10
227.699997
 20
-35.849991
 30
0.0
 11
227.699997
 21
-58.286
 31
0.0
  0
MTEXT
  5
2F6
100
AcDbEntity
  8
LY_3
390
0
  6
CONTINUOUS
 62
   110
100
AcDbMText
 10
245.233331
 20
-49.8
 30
0.0
 40
5.2
 41
0.0
 71
     1
 72
     1
  1
\A1;42
 73
     1
 44
1.0
  0
LINE
  5
2F7
100
AcDbEntity
  8
LY_3
390
0
  6
CONTINUOUS
 62
   110
100
AcDbLine
 10
266.929997
 20
-55.257781
 30
0.0
 11
269.699997
 21
-56.0
 31
0.0
  0
LINE
  5
2F8
100
AcDbEntity
  8
LY_3
390
0
  6
CONTINUOUS
 62
   110
100
AcDbLine
 10
269.699997
 20
-56.0
 30
0.0
 11
266.929997
 21
-56.742219
 31
0.0
  0
LINE
  5
2F9
100
AcDbEntity
  8
LY_3
390
0
  6
CONTINUOUS
 62
   110
100
AcDbLine
 10
269.699997
 20
-56.0
 30
0.0
 11
266.929997
 21
-56.0
 31
0.0
  0
LINE
  5
2FA
100
AcDbEntity
  8
LY_3
390
0
  6
CONTINUOUS
 62
   110
100
AcDbLine
 10
230.469997
 20
-56.742219
 30
0.0
 11
227.699997
 21
-56.0
 31
0.0
  0
LINE
  5
2FB
100
AcDbEntity
  8
LY_3
390
0
  6
CONTINUOUS
 62
   110
100
AcDbLine
 10
227.699997
 20
-56.0
 30
0.0
 11
230.469997
 21
-55.257781
 31
0.0
  0
LINE
  5
2FC
100
AcDbEntity
  8
LY_3
390
0
  6
CONTINUOUS
 62
   110
100
AcDbLine
 10
227.699997
 20
-56.0
 30
0.0
 11
230.469997
 21
-56.0
 31
0.0
  0
LINE
  5
2FD
100
AcDbEntity
  8
LY_3
390
0
  6
CENTER
 62
   110
100
AcDbLine
 10
50.0
 20
0.0
 30
0.0
 11
-50.0
 21
0.0
 31
0.0
  0
LINE
  5
2FE
100
AcDbEntity
  8
LY_3
390
0
  6
CONTINUOUS
 62
   110
100
AcDbLine
 10
97.442426
 20
2.5
 30
0.0
 11
95.958768
 21
4.839158
 31
0.0
  0
LINE
  5
2FF
100
AcDbEntity
  8
LY_3
390
0
  6
CONTINUOUS
 62
   110
100
AcDbLine
 10
97.442426
 20
2.5
 30
0.0
 11
95.331993
 21
4.441613
 31
0.0
  0
LINE
  5
300
100
AcDbEntity
  8
LY_3
390
0
  6
CONTINUOUS
 62
   110
100
AcDbLine
 10
96.585543
 20
5.236703
 30
0.0
 11
97.442426
 21
2.5
 31
0.0
  0
LINE
  5
301
100
AcDbEntity
  8
LY_3
390
0
  6
CONTINUOUS
 62
   110
100
AcDbLine
 10
102.345305
 20
-3.327404
 30
0.0
 11
103.501071
 21
-5.844764
 31
0.0
  0
LINE
  5
302
100
AcDbEntity
  8
LY_3
390
0
  6
CONTINUOUS
 62
   110
100
AcDbLine
 10
102.345305
 20
-3.327404
 30
0.0
 11
104.175596
 21
-5.535078
 31
0.0
  0
LINE
  5
303
100
AcDbEntity
  8
LY_3
390
0
  6
CONTINUOUS
 62
   110
100
AcDbLine
 10
102.826547
 20
-6.154451
 30
0.0
 11
102.345305
 21
-3.327404
 31
0.0
  0
LINE
  5
304
100
AcDbEntity
  8
LY_3
390
0
  6
CONTINUOUS
 62
   110
100
AcDbLine
 10
261.125023
 20
39.999985
 30
0.0
 11
259.778506
 21
42.420686
 31
0.0
  0
LINE
  5
305
100
AcDbEntity
  8
LY_3
390
0
  6
CONTINUOUS
 62
   110
100
AcDbLine
 10
261.125023
 20
39.999985
 30
0.0
 11
259.129882
 21
42.059888
 31
0.0
  0
LINE
  5
306
100
AcDbEntity
  8
LY_3
390
0
  6
CONTINUOUS
 62
   110
100
AcDbLine
 10
260.427131
 20
42.781483
 30
0.0
 11
261.125023
 21
39.999985
 31
0.0
  0
LINE
  5
307
100
AcDbEntity
  8
LY_3
390
0
  6
CONTINUOUS
 62
   110
100
AcDbLine
 10
221.349998
 20
34.649994
 30
0.0
 11
219.703128
 21
36.877261
 31
0.0
  0
LINE
  5
308
100
AcDbEntity
  8
LY_3
390
0
  6
CONTINUOUS
 62
   110
100
AcDbLine
 10
221.349998
 20
34.649994
 30
0.0
 11
219.106334
 21
36.435983
 31
0.0
  0
LINE
  5
309
100
AcDbEntity
  8
LY_3
390
0
  6
CONTINUOUS
 62
   110
100
AcDbLine
 10
220.299922
 20
37.318538
 30
0.0
 11
221.349998
 21
34.649994
 31
0.0
  0
LINE
  5
30A
100
AcDbEntity
  8
LY_3
390
0
  6
CONTINUOUS
 62
     3
100
AcDbLine
 10
224.5
 20
-7.462814
 30
0.0
 11
224.5
 21
-7.462686
 31
0.0
  0
LINE
  5
30B
100
AcDbEntity
  8
LY_3
390
0
  6
CONTINUOUS
 62
     3
100
AcDbLine
 10
224.5
 20
-11.119402
 30
0.0
 11
224.5
 21
-11.119274
 31
0.0
  0
LINE
  5
30C
100
AcDbEntity
  8
LY_3
390
0
  6
CONTINUOUS
 62
     3
100
AcDbLine
 10
224.0
 20
-7.538679
 30
0.0
 11
224.0
 21
-7.462686
 31
0.0
  0
LINE
  5
30D
100
AcDbEntity
  8
LY_3
390
0
  6
CONTINUOUS
 62
     3
100
AcDbLine
 10
224.0
 20
-11.119402
 30
0.0
 11
224.0
 21
-11.043409
 31
0.0
  0
LINE
  5
30E
100
AcDbEntity
  8
LY_3
390
0
  6
CONTINUOUS
 62
     3
100
AcDbLine
 10
223.5
 20
-7.774751
 30
0.0
 11
223.5
 21
-7.462686
 31
0.0
  0
LINE
  5
30F
100
AcDbEntity
  8
LY_3
390
0
  6
CONTINUOUS
 62
     3
100
AcDbLine
 10
223.5
 20
-11.119402
 30
0.0
 11
223.5
 21
-10.807337
 31
0.0
  0
LINE
  5
310
100
AcDbEntity
  8
LY_3
390
0
  6
CONTINUOUS
 62
     3
100
AcDbLine
 10
223.0
 20
-8.277386
 30
0.0
 11
223.0
 21
-7.462686
 31
0.0
  0
LINE
  5
311
100
AcDbEntity
  8
LY_3
390
0
  6
CONTINUOUS
 62
     3
100
AcDbLine
 10
223.0
 20
-11.119402
 30
0.0
 11
223.0
 21
-10.304702
 31
0.0
  0
LINE
  5
312
100
AcDbEntity
  8
LY_3
390
0
  6
CONTINUOUS
 62
     3
100
AcDbLine
 10
222.5
 20
-11.119403
 30
0.0
 11
222.5
 21
-7.462686
 31
0.0
  0
LINE
  5
313
100
AcDbEntity
  8
LY_3
390
0
  6
CONTINUOUS
 62
     3
100
AcDbLine
 10
222.0
 20
-11.119403
 30
0.0
 11
222.0
 21
-7.462686
 31
0.0
  0
LINE
  5
314
100
AcDbEntity
  8
LY_3
390
0
  6
CONTINUOUS
 62
     3
100
AcDbLine
 10
221.5
 20
-11.119403
 30
0.0
 11
221.5
 21
-7.462686
 31
0.0
  0
LINE
  5
315
100
AcDbEntity
  8
LY_3
390
0
  6
CONTINUOUS
 62
     3
100
AcDbLine
 10
221.0
 20
-11.119403
 30
0.0
 11
221.0
 21
-7.462686
 31
0.0
  0
LINE
  5
316
100
AcDbEntity
  8
LY_3
390
0
  6
CONTINUOUS
 62
     3
100
AcDbLine
 10
220.5
 20
-11.119403
 30
0.0
 11
220.5
 21
-7.462686
 31
0.0
  0
LINE
  5
317
100
AcDbEntity
  8
LY_3
390
0
  6
CONTINUOUS
 62
     3
100
AcDbLine
 10
220.0
 20
-11.119403
 30
0.0
 11
220.0
 21
-7.462687
 31
0.0
  0
LINE
  5
318
100
AcDbEntity
  8
LY_3
390
0
  6
CONTINUOUS
 62
     3
100
AcDbLine
 10
219.5
 20
-11.119403
 30
0.0
 11
219.5
 21
-7.462687
 31
0.0
  0
LINE
  5
319
100
AcDbEntity
  8
LY_3
390
0
  6
CONTINUOUS
 62
     3
100
AcDbLine
 10
219.335074
 20
-7.5
 30
0.0
 11
224.154142
 21
-7.5
 31
0.0
  0
LINE
  5
31A
100
AcDbEntity
  8
LY_3
390
0
  6
CONTINUOUS
 62
     3
100
AcDbLine
 10
219.335074
 20
-8.0
 30
0.0
 11
223.226998
 21
-8.0
 31
0.0
  0
LINE
  5
31B
100
AcDbEntity
  8
LY_3
390
0
  6
CONTINUOUS
 62
     3
100
AcDbLine
 10
219.335074
 20
-8.5
 30
0.0
 11
222.873265
 21
-8.5
 31
0.0
  0
LINE
  5
31C
100
AcDbEntity
  8
LY_3
390
0
  6
CONTINUOUS
 62
     3
100
AcDbLine
 10
219.335074
 20
-9.0
 30
0.0
 11
222.716596
 21
-9.0
 31
0.0
  0
LINE
  5
31D
100
AcDbEntity
  8
LY_3
390
0
  6
CONTINUOUS
 62
     3
100
AcDbLine
 10
219.335074
 20
-9.5
 30
0.0
 11
222.705262
 21
-9.5
 31
0.0
  0
LINE
  5
31E
100
AcDbEntity
  8
LY_3
390
0
  6
CONTINUOUS
 62
     3
100
AcDbLine
 10
219.335074
 20
-10.0
 30
0.0
 11
222.836329
 21
-10.0
 31
0.0
  0
LINE
  5
31F
100
AcDbEntity
  8
LY_3
390
0
  6
CONTINUOUS
 62
     3
100
AcDbLine
 10
219.335074
 20
-10.5
 30
0.0
 11
223.150029
 21
-10.5
 31
0.0
  0
LINE
  5
320
100
AcDbEntity
  8
LY_3
390
0
  6
CONTINUOUS
 62
     3
100
AcDbLine
 10
219.335074
 20
-11.0
 30
0.0
 11
223.871746
 21
-11.0
 31
0.0
  0
LINE
  5
321
100
AcDbEntity
  8
LY_3
390
0
  6
CONTINUOUS
 62
     3
100
AcDbLine
 10
226.0
 20
-10.366845
 30
0.0
 11
226.0
 21
-8.215243
 31
0.0
  0
LINE
  5
322
100
AcDbEntity
  8
LY_3
390
0
  6
CONTINUOUS
 62
     3
100
AcDbLine
 10
225.5
 20
-10.835617
 30
0.0
 11
225.5
 21
-7.746471
 31
0.0
  0
LINE
  5
323
100
AcDbEntity
  8
LY_3
390
0
  6
CONTINUOUS
 62
     3
100
AcDbLine
 10
225.0
 20
-11.055716
 30
0.0
 11
225.0
 21
-7.526372
 31
0.0
  0
LINE
  5
324
100
AcDbEntity
  8
LY_3
390
0
  6
CONTINUOUS
 62
     3
100
AcDbLine
 10
224.52164
 20
-7.5
 30
0.0
 11
224.889139
 21
-7.5
 31
0.0
  0
LINE
  5
325
100
AcDbEntity
  8
LY_3
390
0
  6
CONTINUOUS
 62
     3
100
AcDbLine
 10
224.52164
 20
-8.0
 30
0.0
 11
225.816283
 21
-8.0
 31
0.0
  0
LINE
  5
326
100
AcDbEntity
  8
LY_3
390
0
  6
CONTINUOUS
 62
     3
100
AcDbLine
 10
224.52164
 20
-8.5
 30
0.0
 11
226.170017
 21
-8.5
 31
0.0
  0
LINE
  5
327
100
AcDbEntity
  8
LY_3
390
0
  6
CONTINUOUS
 62
     3
100
AcDbLine
 10
224.521641
 20
-9.0
 30
0.0
 11
226.326686
 21
-9.0
 31
0.0
  0
LINE
  5
328
100
AcDbEntity
  8
LY_3
390
0
  6
CONTINUOUS
 62
     3
100
AcDbLine
 10
224.521641
 20
-9.5
 30
0.0
 11
226.338019
 21
-9.5
 31
0.0
  0
LINE
  5
329
100
AcDbEntity
  8
LY_3
390
0
  6
CONTINUOUS
 62
     3
100
AcDbLine
 10
224.521641
 20
-10.0
 30
0.0
 11
226.206952
 21
-10.0
 31
0.0
  0
LINE
  5
32A
100
AcDbEntity
  8
LY_3
390
0
  6
CONTINUOUS
 62
     3
100
AcDbLine
 10
224.521641
 20
-10.5
 30
0.0
 11
225.893253
 21
-10.5
 31
0.0
  0
LINE
  5
32B
100
AcDbEntity
  8
LY_3
390
0
  6
CONTINUOUS
 62
     3
100
AcDbLine
 10
224.521641
 20
-11.0
 30
0.0
 11
225.171535
 21
-11.0
 31
0.0
  0
LINE
  5
32C
100
AcDbEntity
  8
LY_3
390
0
  6
CONTINUOUS
 62
     3
100
AcDbLine
 10
226.0
 20
-1.079561
 30
0.0
 11
226.0
 21
0.447763
 31
0.0
  0
LINE
  5
32D
100
AcDbEntity
  8
LY_3
390
0
  6
CONTINUOUS
 62
     3
100
AcDbLine
 10
225.5
 20
-1.841382
 30
0.0
 11
225.5
 21
0.447762
 31
0.0
  0
LINE
  5
32E
100
AcDbEntity
  8
LY_3
390
0
  6
CONTINUOUS
 62
     3
100
AcDbLine
 10
225.0
 20
-2.317676
 30
0.0
 11
225.0
 21
0.447762
 31
0.0
  0
LINE
  5
32F
100
AcDbEntity
  8
LY_3
390
0
  6
CONTINUOUS
 62
     3
100
AcDbLine
 10
224.5
 20
-2.643372
 30
0.0
 11
224.5
 21
-0.230953
 31
0.0
  0
LINE
  5
330
100
AcDbEntity
  8
LY_3
390
0
  6
CONTINUOUS
 62
     3
100
AcDbLine
 10
224.0
 20
-2.863216
 30
0.0
 11
224.0
 21
-0.91903
 31
0.0
  0
LINE
  5
331
100
AcDbEntity
  8
LY_3
390
0
  6
CONTINUOUS
 62
     3
100
AcDbLine
 10
223.5
 20
-2.99753
 30
0.0
 11
223.5
 21
-1.218246
 31
0.0
  0
LINE
  5
332
100
AcDbEntity
  8
LY_3
390
0
  6
CONTINUOUS
 62
     3
100
AcDbLine
 10
223.0
 20
-3.056165
 30
0.0
 11
223.0
 21
-1.336348
 31
0.0
  0
LINE
  5
333
100
AcDbEntity
  8
LY_3
390
0
  6
CONTINUOUS
 62
     3
100
AcDbLine
 10
222.5
 20
-3.042935
 30
0.0
 11
222.5
 21
-1.310223
 31
0.0
  0
LINE
  5
334
100
AcDbEntity
  8
LY_3
390
0
  6
CONTINUOUS
 62
     3
100
AcDbLine
 10
222.0
 20
-2.957004
 30
0.0
 11
222.0
 21
-1.132737
 31
0.0
  0
LINE
  5
335
100
AcDbEntity
  8
LY_3
390
0
  6
CONTINUOUS
 62
     3
100
AcDbLine
 10
221.5
 20
-2.792592
 30
0.0
 11
221.5
 21
-0.737751
 31
0.0
  0
LINE
  5
336
100
AcDbEntity
  8
LY_3
390
0
  6
CONTINUOUS
 62
     3
100
AcDbLine
 10
221.0
 20
-2.536758
 30
0.0
 11
221.0
 21
0.44776
 31
0.0
  0
LINE
  5
337
100
AcDbEntity
  8
LY_3
390
0
  6
CONTINUOUS
 62
     3
100
AcDbLine
 10
220.5
 20
-2.16276
 30
0.0
 11
220.5
 21
0.447759
 31
0.0
  0
LINE
  5
338
100
AcDbEntity
  8
LY_3
390
0
  6
CONTINUOUS
 62
     3
100
AcDbLine
 10
220.0
 20
-1.607058
 30
0.0
 11
220.0
 21
0.447759
 31
0.0
  0
LINE
  5
339
100
AcDbEntity
  8
LY_3
390
0
  6
CONTINUOUS
 62
     3
100
AcDbLine
 10
219.5
 20
-0.615135
 30
0.0
 11
219.5
 21
0.447758
 31
0.0
  0
LINE
  5
33A
100
AcDbEntity
  8
LY_3
390
0
  6
CONTINUOUS
 62
     3
100
AcDbLine
 10
224.576707
 20
0.0
 30
0.0
 11
226.3213
 21
0.0
 31
0.0
  0
LINE
  5
33B
100
AcDbEntity
  8
LY_3
390
0
  6
CONTINUOUS
 62
     3
100
AcDbLine
 10
219.363771
 20
0.0
 30
0.0
 11
221.108364
 21
0.0
 31
0.0
  0
LINE
  5
33C
100
AcDbEntity
  8
LY_3
390
0
  6
CONTINUOUS
 62
     3
100
AcDbLine
 10
224.362269
 20
-0.5
 30
0.0
 11
226.219523
 21
-0.5
 31
0.0
  0
LINE
  5
33D
100
AcDbEntity
  8
LY_3
390
0
  6
CONTINUOUS
 62
     3
100
AcDbLine
 10
219.465549
 20
-0.5
 30
0.0
 11
221.322802
 21
-0.5
 31
0.0
  0
LINE
  5
33E
100
AcDbEntity
  8
LY_3
390
0
  6
CONTINUOUS
 62
     3
100
AcDbLine
 10
223.896968
 20
-1.0
 30
0.0
 11
226.037263
 21
-1.0
 31
0.0
  0
LINE
  5
33F
100
AcDbEntity
  8
LY_3
390
0
  6
CONTINUOUS
 62
     3
100
AcDbLine
 10
219.647809
 20
-1.0
 30
0.0
 11
221.788103
 21
-1.0
 31
0.0
  0
LINE
  5
340
100
AcDbEntity
  8
LY_3
390
0
  6
CONTINUOUS
 62
     3
100
AcDbLine
 10
219.925599
 20
-1.5
 30
0.0
 11
225.759472
 21
-1.5
 31
0.0
  0
LINE
  5
341
100
AcDbEntity
  8
LY_3
390
0
  6
CONTINUOUS
 62
     3
100
AcDbLine
 10
220.330414
 20
-2.0
 30
0.0
 11
225.354658
 21
-2.0
 31
0.0
  0
LINE
  5
342
100
AcDbEntity
  8
LY_3
390
0
  6
CONTINUOUS
 62
     3
100
AcDbLine
 10
220.941747
 20
-2.5
 30
0.0
 11
224.743324
 21
-2.5
 31
0.0
  0
LINE
  5
343
100
AcDbEntity
  8
LY_3
390
0
  6
CONTINUOUS
 62
     3
100
AcDbLine
 10
222.198148
 20
-3.0
 30
0.0
 11
223.486923
 21
-3.0
 31
0.0
  0
LINE
  5
344
100
AcDbEntity
  8
LY_3
390
0
  6
CONTINUOUS
 62
     3
100
AcDbLine
 10
224.5
 20
0.447762
 30
0.0
 11
224.5
 21
1.126476
 31
0.0
  0
LINE
  5
345
100
AcDbEntity
  8
LY_3
390
0
  6
CONTINUOUS
 62
     3
100
AcDbLine
 10
224.0
 20
0.447762
 30
0.0
 11
224.0
 21
1.814552
 31
0.0
  0
LINE
  5
346
100
AcDbEntity
  8
LY_3
390
0
  6
CONTINUOUS
 62
     3
100
AcDbLine
 10
223.5
 20
0.447762
 30
0.0
 11
223.5
 21
2.113769
 31
0.0
  0
LINE
  5
347
100
AcDbEntity
  8
LY_3
390
0
  6
CONTINUOUS
 62
     3
100
AcDbLine
 10
223.0
 20
0.447762
 30
0.0
 11
223.0
 21
2.231871
 31
0.0
  0
LINE
  5
348
100
AcDbEntity
  8
LY_3
390
0
  6
CONTINUOUS
 62
     3
100
AcDbLine
 10
222.5
 20
0.447761
 30
0.0
 11
222.5
 21
2.205746
 31
0.0
  0
LINE
  5
349
100
AcDbEntity
  8
LY_3
390
0
  6
CONTINUOUS
 62
     3
100
AcDbLine
 10
222.0
 20
0.447761
 30
0.0
 11
222.0
 21
2.02826
 31
0.0
  0
LINE
  5
34A
100
AcDbEntity
  8
LY_3
390
0
  6
CONTINUOUS
 62
     3
100
AcDbLine
 10
221.5
 20
0.447761
 30
0.0
 11
221.5
 21
1.633273
 31
0.0
  0
LINE
  5
34B
100
AcDbEntity
  8
LY_3
390
0
  6
CONTINUOUS
 62
     3
100
AcDbLine
 10
221.949006
 20
2.0
 30
0.0
 11
223.736066
 21
2.0
 31
0.0
  0
LINE
  5
34C
100
AcDbEntity
  8
LY_3
390
0
  6
CONTINUOUS
 62
     3
100
AcDbLine
 10
221.393179
 20
1.5
 30
0.0
 11
224.291892
 21
1.5
 31
0.0
  0
LINE
  5
34D
100
AcDbEntity
  8
LY_3
390
0
  6
CONTINUOUS
 62
     3
100
AcDbLine
 10
221.138754
 20
1.0
 30
0.0
 11
224.546318
 21
1.0
 31
0.0
  0
LINE
  5
34E
100
AcDbEntity
  8
LY_3
390
0
  6
CONTINUOUS
 62
     3
100
AcDbLine
 10
221.052253
 20
0.5
 30
0.0
 11
224.632818
 21
0.5
 31
0.0
  0
LINE
  5
34F
100
AcDbEntity
  8
LY_3
390
0
  6
CONTINUOUS
 62
     3
100
AcDbLine
 10
226.0
 20
4.741336
 30
0.0
 11
226.0
 21
7.795978
 31
0.0
  0
LINE
  5
350
100
AcDbEntity
  8
LY_3
390
0
  6
CONTINUOUS
 62
     3
100
AcDbLine
 10
225.5
 20
3.979514
 30
0.0
 11
225.5
 21
8.5578
 31
0.0
  0
LINE
  5
351
100
AcDbEntity
  8
LY_3
390
0
  6
CONTINUOUS
 62
     3
100
AcDbLine
 10
225.0
 20
3.50322
 30
0.0
 11
225.0
 21
9.034093
 31
0.0
  0
LINE
  5
352
100
AcDbEntity
  8
LY_3
390
0
  6
CONTINUOUS
 62
     3
100
AcDbLine
 10
224.5
 20
3.177524
 30
0.0
 11
224.5
 21
8.649644
 31
0.0
  0
LINE
  5
353
100
AcDbEntity
  8
LY_3
390
0
  6
CONTINUOUS
 62
     3
100
AcDbLine
 10
224.0
 20
2.95768
 30
0.0
 11
224.0
 21
7.961566
 31
0.0
  0
LINE
  5
354
100
AcDbEntity
  8
LY_3
390
0
  6
CONTINUOUS
 62
     3
100
AcDbLine
 10
223.5
 20
2.823365
 30
0.0
 11
223.5
 21
7.662349
 31
0.0
  0
LINE
  5
355
100
AcDbEntity
  8
LY_3
390
0
  6
CONTINUOUS
 62
     3
100
AcDbLine
 10
223.0
 20
2.764731
 30
0.0
 11
223.0
 21
7.544247
 31
0.0
  0
LINE
  5
356
100
AcDbEntity
  8
LY_3
390
0
  6
CONTINUOUS
 62
     3
100
AcDbLine
 10
222.5
 20
2.77796
 30
0.0
 11
222.5
 21
7.57037
 31
0.0
  0
LINE
  5
357
100
AcDbEntity
  8
LY_3
390
0
  6
CONTINUOUS
 62
     3
100
AcDbLine
 10
222.0
 20
2.863891
 30
0.0
 11
222.0
 21
7.747856
 31
0.0
  0
LINE
  5
358
100
AcDbEntity
  8
LY_3
390
0
  6
CONTINUOUS
 62
     3
100
AcDbLine
 10
221.5
 20
3.028303
 30
0.0
 11
221.5
 21
8.14284
 31
0.0
  0
LINE
  5
359
100
AcDbEntity
  8
LY_3
390
0
  6
CONTINUOUS
 62
     3
100
AcDbLine
 10
221.0
 20
3.284137
 30
0.0
 11
221.0
 21
9.253176
 31
0.0
  0
LINE
  5
35A
100
AcDbEntity
  8
LY_3
390
0
  6
CONTINUOUS
 62
     3
100
AcDbLine
 10
220.5
 20
3.658135
 30
0.0
 11
220.5
 21
8.879178
 31
0.0
  0
LINE
  5
35B
100
AcDbEntity
  8
LY_3
390
0
  6
CONTINUOUS
 62
     3
100
AcDbLine
 10
220.0
 20
4.213837
 30
0.0
 11
220.0
 21
8.323477
 31
0.0
  0
LINE
  5
35C
100
AcDbEntity
  8
LY_3
390
0
  6
CONTINUOUS
 62
     3
100
AcDbLine
 10
219.5
 20
5.205759
 30
0.0
 11
219.5
 21
7.331554
 31
0.0
  0
LINE
  5
35D
100
AcDbEntity
  8
LY_3
390
0
  6
CONTINUOUS
 62
     3
100
AcDbLine
 10
224.603223
 20
9.0
 30
0.0
 11
225.043003
 21
9.0
 31
0.0
  0
LINE
  5
35E
100
AcDbEntity
  8
LY_3
390
0
  6
CONTINUOUS
 62
     3
100
AcDbLine
 10
220.642068
 20
9.0
 30
0.0
 11
221.081843
 21
9.0
 31
0.0
  0
LINE
  5
35F
100
AcDbEntity
  8
LY_3
390
0
  6
CONTINUOUS
 62
     3
100
AcDbLine
 10
224.43051
 20
8.5
 30
0.0
 11
225.548714
 21
8.5
 31
0.0
  0
LINE
  5
360
100
AcDbEntity
  8
LY_3
390
0
  6
CONTINUOUS
 62
     3
100
AcDbLine
 10
220.136357
 20
8.5
 30
0.0
 11
221.254556
 21
8.5
 31
0.0
  0
LINE
  5
361
100
AcDbEntity
  8
LY_3
390
0
  6
CONTINUOUS
 62
     3
100
AcDbLine
 10
224.043913
 20
8.0
 30
0.0
 11
225.892903
 21
8.0
 31
0.0
  0
LINE
  5
362
100
AcDbEntity
  8
LY_3
390
0
  6
CONTINUOUS
 62
     3
100
AcDbLine
 10
219.792167
 20
8.0
 30
0.0
 11
221.641153
 21
8.0
 31
0.0
  0
LINE
  5
363
100
AcDbEntity
  8
LY_3
390
0
  6
CONTINUOUS
 62
     3
100
AcDbLine
 10
219.558317
 20
7.5
 30
0.0
 11
226.126753
 21
7.5
 31
0.0
  0
LINE
  5
364
100
AcDbEntity
  8
LY_3
390
0
  6
CONTINUOUS
 62
     3
100
AcDbLine
 10
219.412166
 20
7.0
 30
0.0
 11
226.272904
 21
7.0
 31
0.0
  0
LINE
  5
365
100
AcDbEntity
  8
LY_3
390
0
  6
CONTINUOUS
 62
     3
100
AcDbLine
 10
219.34271
 20
6.5
 30
0.0
 11
226.34236
 21
6.5
 31
0.0
  0
LINE
  5
366
100
AcDbEntity
  8
LY_3
390
0
  6
CONTINUOUS
 62
     3
100
AcDbLine
 10
219.345377
 20
6.0
 30
0.0
 11
226.339694
 21
6.0
 31
0.0
  0
LINE
  5
367
100
AcDbEntity
  8
LY_3
390
0
  6
CONTINUOUS
 62
     3
100
AcDbLine
 10
219.420334
 20
5.5
 30
0.0
 11
226.264736
 21
5.5
 31
0.0
  0
LINE
  5
368
100
AcDbEntity
  8
LY_3
390
0
  6
CONTINUOUS
 62
     3
100
AcDbLine
 10
219.57255
 20
5.0
 30
0.0
 11
226.11252
 21
5.0
 31
0.0
  0
LINE
  5
369
100
AcDbEntity
  8
LY_3
390
0
  6
CONTINUOUS
 62
     3
100
AcDbLine
 10
219.81365
 20
4.5
 30
0.0
 11
225.871421
 21
4.5
 31
0.0
  0
LINE
  5
36A
100
AcDbEntity
  8
LY_3
390
0
  6
CONTINUOUS
 62
     3
100
AcDbLine
 10
220.167561
 20
4.0
 30
0.0
 11
225.51751
 21
4.0
 31
0.0
  0
LINE
  5
36B
100
AcDbEntity
  8
LY_3
390
0
  6
CONTINUOUS
 62
     3
100
AcDbLine
 10
220.689205
 20
3.5
 30
0.0
 11
224.995866
 21
3.5
 31
0.0
  0
LINE
  5
36C
100
AcDbEntity
  8
LY_3
390
0
  6
CONTINUOUS
 62
     3
100
AcDbLine
 10
221.57046
 20
3.0
 30
0.0
 11
224.114611
 21
3.0
 31
0.0
  0
LINE
  5
36D
100
AcDbEntity
  8
LY_3
390
0
  6
CONTINUOUS
 62
     3
100
AcDbLine
 10
224.5
 20
9.328358
 30
0.0
 11
224.5
 21
10.007071
 31
0.0
  0
LINE
  5
36E
100
AcDbEntity
  8
LY_3
390
0
  6
CONTINUOUS
 62
     3
100
AcDbLine
 10
224.0
 20
9.328358
 30
0.0
 11
224.0
 21
10.695148
 31
0.0
  0
LINE
  5
36F
100
AcDbEntity
  8
LY_3
390
0
  6
CONTINUOUS
 62
     3
100
AcDbLine
 10
223.5
 20
9.328358
 30
0.0
 11
223.5
 21
10.994365
 31
0.0
  0
LINE
  5
370
100
AcDbEntity
  8
LY_3
390
0
  6
CONTINUOUS
 62
     3
100
AcDbLine
 10
223.0
 20
9.328358
 30
0.0
 11
223.0
 21
11.112467
 31
0.0
  0
LINE
  5
371
100
AcDbEntity
  8
LY_3
390
0
  6
CONTINUOUS
 62
     3
100
AcDbLine
 10
222.5
 20
9.328358
 30
0.0
 11
222.5
 21
11.086343
 31
0.0
  0
LINE
  5
372
100
AcDbEntity
  8
LY_3
390
0
  6
CONTINUOUS
 62
     3
100
AcDbLine
 10
222.0
 20
9.328358
 30
0.0
 11
222.0
 21
10.908856
 31
0.0
  0
LINE
  5
373
100
AcDbEntity
  8
LY_3
390
0
  6
CONTINUOUS
 62
     3
100
AcDbLine
 10
221.5
 20
9.328358
 30
0.0
 11
221.5
 21
10.513871
 31
0.0
  0
LINE
  5
374
100
AcDbEntity
  8
LY_3
390
0
  6
CONTINUOUS
 62
     3
100
AcDbLine
 10
222.199531
 20
11.0
 30
0.0
 11
223.485539
 21
11.0
 31
0.0
  0
LINE
  5
375
100
AcDbEntity
  8
LY_3
390
0
  6
CONTINUOUS
 62
     3
100
AcDbLine
 10
221.487878
 20
10.5
 30
0.0
 11
224.197192
 21
10.5
 31
0.0
  0
LINE
  5
376
100
AcDbEntity
  8
LY_3
390
0
  6
CONTINUOUS
 62
     3
100
AcDbLine
 10
221.182192
 20
10.0
 30
0.0
 11
224.502878
 21
10.0
 31
0.0
  0
LINE
  5
377
100
AcDbEntity
  8
LY_3
390
0
  6
CONTINUOUS
 62
     3
100
AcDbLine
 10
221.059734
 20
9.5
 30
0.0
 11
224.625336
 21
9.5
 31
0.0
  0
LINE
  5
378
100
AcDbEntity
  8
LY_3
390
0
  6
CONTINUOUS
 62
     3
100
AcDbLine
 10
217.0
 20
-10.522388
 30
0.0
 11
217.0
 21
-9.266324
 31
0.0
  0
LINE
  5
379
100
AcDbEntity
  8
LY_3
390
0
  6
CONTINUOUS
 62
     3
100
AcDbLine
 10
216.5
 20
-9.499294
 30
0.0
 11
216.5
 21
-9.134885
 31
0.0
  0
LINE
  5
37A
100
AcDbEntity
  8
LY_3
390
0
  6
CONTINUOUS
 62
     3
100
AcDbLine
 10
216.5
 20
-10.522388
 30
0.0
 11
216.5
 21
-10.22388
 31
0.0
  0
LINE
  5
37B
100
AcDbEntity
  8
LY_3
390
0
  6
CONTINUOUS
 62
     3
100
AcDbLine
 10
216.501008
 20
-9.5
 30
0.0
 11
217.245522
 21
-9.5
 31
0.0
  0
LINE
  5
37C
100
AcDbEntity
  8
LY_3
390
0
  6
CONTINUOUS
 62
     3
100
AcDbLine
 10
216.947014
 20
-10.0
 30
0.0
 11
217.245522
 21
-10.0
 31
0.0
  0
LINE
  5
37D
100
AcDbEntity
  8
LY_3
390
0
  6
CONTINUOUS
 62
     3
100
AcDbLine
 10
216.349999
 20
-10.5
 30
0.0
 11
217.394775
 21
-10.5
 31
0.0
  0
LINE
  5
37E
100
AcDbEntity
  8
LY_3
390
0
  6
CONTINUOUS
 62
     3
100
AcDbLine
 10
217.5
 20
-9.371761
 30
0.0
 11
217.5
 21
-9.04239
 31
0.0
  0
LINE
  5
37F
100
AcDbEntity
  8
LY_3
390
0
  6
CONTINUOUS
 62
     3
100
AcDbLine
 10
217.5
 20
-10.522388
 30
0.0
 11
217.5
 21
-10.22388
 31
0.0
  0
LINE
  5
380
100
AcDbEntity
  8
LY_3
390
0
  6
CONTINUOUS
 62
     3
100
AcDbLine
 10
217.544029
 20
-9.5
 30
0.0
 11
217.842537
 21
-9.5
 31
0.0
  0
LINE
  5
381
100
AcDbEntity
  8
LY_3
390
0
  6
CONTINUOUS
 62
     3
100
AcDbLine
 10
217.544029
 20
-10.0
 30
0.0
 11
217.842537
 21
-10.0
 31
0.0
  0
LINE
  5
382
100
AcDbEntity
  8
LY_3
390
0
  6
CONTINUOUS
 62
     3
100
AcDbLine
 10
217.394775
 20
-10.5
 30
0.0
 11
217.842537
 21
-10.5
 31
0.0
  0
LINE
  5
383
100
AcDbEntity
  8
LY_3
390
0
  6
CONTINUOUS
 62
     3
100
AcDbLine
 10
217.0
 20
-3.219427
 30
0.0
 11
217.0
 21
-2.916683
 31
0.0
  0
LINE
  5
384
100
AcDbEntity
  8
LY_3
390
0
  6
CONTINUOUS
 62
     3
100
AcDbLine
 10
217.0
 20
-4.546004
 30
0.0
 11
217.0
 21
-4.24326
 31
0.0
  0
LINE
  5
385
100
AcDbEntity
  8
LY_3
390
0
  6
CONTINUOUS
 62
     3
100
AcDbLine
 10
216.5
 20
-4.254726
 30
0.0
 11
216.5
 21
-3.207961
 31
0.0
  0
LINE
  5
386
100
AcDbEntity
  8
LY_3
390
0
  6
CONTINUOUS
 62
     3
100
AcDbLine
 10
216.74181
 20
-3.0
 30
0.0
 11
217.096267
 21
-3.0
 31
0.0
  0
LINE
  5
387
100
AcDbEntity
  8
LY_3
390
0
  6
CONTINUOUS
 62
     3
100
AcDbLine
 10
216.36664
 20
-3.5
 30
0.0
 11
216.676827
 21
-3.5
 31
0.0
  0
LINE
  5
388
100
AcDbEntity
  8
LY_3
390
0
  6
CONTINUOUS
 62
     3
100
AcDbLine
 10
216.375664
 20
-4.0
 30
0.0
 11
216.69273
 21
-4.0
 31
0.0
  0
LINE
  5
389
100
AcDbEntity
  8
LY_3
390
0
  6
CONTINUOUS
 62
     3
100
AcDbLine
 10
216.821969
 20
-4.5
 30
0.0
 11
217.096267
 21
-4.5
 31
0.0
  0
LINE
  5
38A
100
AcDbEntity
  8
LY_3
390
0
  6
CONTINUOUS
 62
     3
100
AcDbLine
 10
217.5
 20
-3.463093
 30
0.0
 11
217.5
 21
-3.029089
 31
0.0
  0
LINE
  5
38B
100
AcDbEntity
  8
LY_3
390
0
  6
CONTINUOUS
 62
     3
100
AcDbLine
 10
217.5
 20
-4.433598
 30
0.0
 11
217.5
 21
-3.999594
 31
0.0
  0
LINE
  5
38C
100
AcDbEntity
  8
LY_3
390
0
  6
CONTINUOUS
 62
     3
100
AcDbLine
 10
217.096267
 20
-3.0
 30
0.0
 11
217.450725
 21
-3.0
 31
0.0
  0
LINE
  5
38D
100
AcDbEntity
  8
LY_3
390
0
  6
CONTINUOUS
 62
     3
100
AcDbLine
 10
217.515708
 20
-3.5
 30
0.0
 11
217.825895
 21
-3.5
 31
0.0
  0
LINE
  5
38E
100
AcDbEntity
  8
LY_3
390
0
  6
CONTINUOUS
 62
     3
100
AcDbLine
 10
217.499805
 20
-4.0
 30
0.0
 11
217.816871
 21
-4.0
 31
0.0
  0
LINE
  5
38F
100
AcDbEntity
  8
LY_3
390
0
  6
CONTINUOUS
 62
     3
100
AcDbLine
 10
217.096268
 20
-4.5
 30
0.0
 11
217.370566
 21
-4.5
 31
0.0
  0
LINE
  5
390
100
AcDbEntity
  8
LY_3
390
0
  6
CONTINUOUS
 62
     3
100
AcDbLine
 10
217.0
 20
5.43729
 30
0.0
 11
217.0
 21
5.740033
 31
0.0
  0
LINE
  5
391
100
AcDbEntity
  8
LY_3
390
0
  6
CONTINUOUS
 62
     3
100
AcDbLine
 10
217.0
 20
4.110712
 30
0.0
 11
217.0
 21
4.413456
 31
0.0
  0
LINE
  5
392
100
AcDbEntity
  8
LY_3
390
0
  6
CONTINUOUS
 62
     3
100
AcDbLine
 10
216.5
 20
4.401989
 30
0.0
 11
216.5
 21
5.448757
 31
0.0
  0
LINE
  5
393
100
AcDbEntity
  8
LY_3
390
0
  6
CONTINUOUS
 62
     3
100
AcDbLine
 10
216.542266
 20
5.5
 30
0.0
 11
217.096267
 21
5.5
 31
0.0
  0
LINE
  5
394
100
AcDbEntity
  8
LY_3
390
0
  6
CONTINUOUS
 62
     3
100
AcDbLine
 10
216.349998
 20
5.0
 30
0.0
 11
216.648506
 21
5.0
 31
0.0
  0
LINE
  5
395
100
AcDbEntity
  8
LY_3
390
0
  6
CONTINUOUS
 62
     3
100
AcDbLine
 10
216.43756
 20
4.5
 30
0.0
 11
216.817937
 21
4.5
 31
0.0
  0
LINE
  5
396
100
AcDbEntity
  8
LY_3
390
0
  6
CONTINUOUS
 62
     3
100
AcDbLine
 10
217.5
 20
5.193622
 30
0.0
 11
217.5
 21
5.627627
 31
0.0
  0
LINE
  5
397
100
AcDbEntity
  8
LY_3
390
0
  6
CONTINUOUS
 62
     3
100
AcDbLine
 10
217.5
 20
4.223118
 30
0.0
 11
217.5
 21
4.657123
 31
0.0
  0
LINE
  5
398
100
AcDbEntity
  8
LY_3
390
0
  6
CONTINUOUS
 62
     3
100
AcDbLine
 10
217.096267
 20
5.5
 30
0.0
 11
217.650267
 21
5.5
 31
0.0
  0
LINE
  5
399
100
AcDbEntity
  8
LY_3
390
0
  6
CONTINUOUS
 62
     3
100
AcDbLine
 10
217.544028
 20
5.0
 30
0.0
 11
217.842535
 21
5.0
 31
0.0
  0
LINE
  5
39A
100
AcDbEntity
  8
LY_3
390
0
  6
CONTINUOUS
 62
     3
100
AcDbLine
 10
217.374597
 20
4.5
 30
0.0
 11
217.754973
 21
4.5
 31
0.0
  0
LINE
  5
39B
100
AcDbEntity
  8
LY_3
390
0
  6
CONTINUOUS
 62
     3
100
AcDbLine
 10
217.5
 20
-8.239568
 30
0.0
 11
217.5
 21
-7.805565
 31
0.0
  0
LINE
  5
39C
100
AcDbEntity
  8
LY_3
390
0
  6
CONTINUOUS
 62
     3
100
AcDbLine
 10
217.0
 20
-8.351974
 30
0.0
 11
217.0
 21
-6.940298
 31
0.0
  0
LINE
  5
39D
100
AcDbEntity
  8
LY_3
390
0
  6
CONTINUOUS
 62
     3
100
AcDbLine
 10
216.5
 20
-8.060696
 30
0.0
 11
216.5
 21
-6.940298
 31
0.0
  0
LINE
  5
39E
100
AcDbEntity
  8
LY_3
390
0
  6
CONTINUOUS
 62
     3
100
AcDbLine
 10
217.544029
 20
-7.0
 30
0.0
 11
217.842536
 21
-7.0
 31
0.0
  0
LINE
  5
39F
100
AcDbEntity
  8
LY_3
390
0
  6
CONTINUOUS
 62
     3
100
AcDbLine
 10
216.947014
 20
-7.0
 30
0.0
 11
217.245522
 21
-7.0
 31
0.0
  0
LINE
  5
3A0
100
AcDbEntity
  8
LY_3
390
0
  6
CONTINUOUS
 62
     3
100
AcDbLine
 10
216.349999
 20
-7.0
 30
0.0
 11
216.648507
 21
-7.0
 31
0.0
  0
LINE
  5
3A1
100
AcDbEntity
  8
LY_3
390
0
  6
CONTINUOUS
 62
     3
100
AcDbLine
 10
217.544029
 20
-7.5
 30
0.0
 11
217.842536
 21
-7.5
 31
0.0
  0
LINE
  5
3A2
100
AcDbEntity
  8
LY_3
390
0
  6
CONTINUOUS
 62
     3
100
AcDbLine
 10
216.947014
 20
-7.5
 30
0.0
 11
217.245521
 21
-7.5
 31
0.0
  0
LINE
  5
3A3
100
AcDbEntity
  8
LY_3
390
0
  6
CONTINUOUS
 62
     3
100
AcDbLine
 10
216.349999
 20
-7.5
 30
0.0
 11
216.648507
 21
-7.5
 31
0.0
  0
LINE
  5
3A4
100
AcDbEntity
  8
LY_3
390
0
  6
CONTINUOUS
 62
     3
100
AcDbLine
 10
217.31965
 20
-8.0
 30
0.0
 11
217.733705
 21
-8.0
 31
0.0
  0
LINE
  5
3A5
100
AcDbEntity
  8
LY_3
390
0
  6
CONTINUOUS
 62
     3
100
AcDbLine
 10
216.947014
 20
-8.0
 30
0.0
 11
217.245521
 21
-8.0
 31
0.0
  0
LINE
  5
3A6
100
AcDbEntity
  8
LY_3
390
0
  6
CONTINUOUS
 62
     3
100
AcDbLine
 10
216.45883
 20
-8.0
 30
0.0
 11
216.872885
 21
-8.0
 31
0.0
  0
LINE
  5
3A7
100
AcDbEntity
  8
LY_3
390
0
  6
CONTINUOUS
 62
     3
100
AcDbLine
 10
217.5
 20
-5.487236
 30
0.0
 11
217.5
 21
-4.966804
 31
0.0
  0
LINE
  5
3A8
100
AcDbEntity
  8
LY_3
390
0
  6
CONTINUOUS
 62
     3
100
AcDbLine
 10
217.5
 20
-6.044776
 30
0.0
 11
217.5
 21
-5.746269
 31
0.0
  0
LINE
  5
3A9
100
AcDbEntity
  8
LY_3
390
0
  6
CONTINUOUS
 62
     3
100
AcDbLine
 10
217.0
 20
-5.197577
 30
0.0
 11
217.0
 21
-4.85289
 31
0.0
  0
LINE
  5
3AA
100
AcDbEntity
  8
LY_3
390
0
  6
CONTINUOUS
 62
     3
100
AcDbLine
 10
217.0
 20
-6.044776
 30
0.0
 11
217.0
 21
-5.680878
 31
0.0
  0
LINE
  5
3AB
100
AcDbEntity
  8
LY_3
390
0
  6
CONTINUOUS
 62
     3
100
AcDbLine
 10
216.5
 20
-4.908901
 30
0.0
 11
216.5
 21
-4.564215
 31
0.0
  0
LINE
  5
3AC
100
AcDbEntity
  8
LY_3
390
0
  6
CONTINUOUS
 62
     3
100
AcDbLine
 10
216.5
 20
-6.044776
 30
0.0
 11
216.5
 21
-5.746269
 31
0.0
  0
LINE
  5
3AD
100
AcDbEntity
  8
LY_3
390
0
  6
CONTINUOUS
 62
     3
100
AcDbLine
 10
217.82686
 20
-4.5
 30
0.0
 11
217.842537
 21
-4.5
 31
0.0
  0
LINE
  5
3AE
100
AcDbEntity
  8
LY_3
390
0
  6
CONTINUOUS
 62
     3
100
AcDbLine
 10
216.349999
 20
-4.5
 30
0.0
 11
216.388776
 21
-4.5
 31
0.0
  0
LINE
  5
3AF
100
AcDbEntity
  8
LY_3
390
0
  6
CONTINUOUS
 62
     3
100
AcDbLine
 10
217.476756
 20
-5.0
 30
0.0
 11
217.841166
 21
-5.0
 31
0.0
  0
LINE
  5
3B0
100
AcDbEntity
  8
LY_3
390
0
  6
CONTINUOUS
 62
     3
100
AcDbLine
 10
216.657788
 20
-5.0
 30
0.0
 11
217.254802
 21
-5.0
 31
0.0
  0
LINE
  5
3B1
100
AcDbEntity
  8
LY_3
390
0
  6
CONTINUOUS
 62
     3
100
AcDbLine
 10
217.126653
 20
-5.5
 30
0.0
 11
217.491063
 21
-5.5
 31
0.0
  0
LINE
  5
3B2
100
AcDbEntity
  8
LY_3
390
0
  6
CONTINUOUS
 62
     3
100
AcDbLine
 10
216.349999
 20
-6.0
 30
0.0
 11
217.842536
 21
-6.0
 31
0.0
  0
LINE
  5
3B3
100
AcDbEntity
  8
LY_3
390
0
  6
CONTINUOUS
 62
     3
100
AcDbLine
 10
217.5
 20
-2.203653
 30
0.0
 11
217.5
 21
-1.68322
 31
0.0
  0
LINE
  5
3B4
100
AcDbEntity
  8
LY_3
390
0
  6
CONTINUOUS
 62
     3
100
AcDbLine
 10
217.5
 20
-2.761194
 30
0.0
 11
217.5
 21
-2.462687
 31
0.0
  0
LINE
  5
3B5
100
AcDbEntity
  8
LY_3
390
0
  6
CONTINUOUS
 62
     3
100
AcDbLine
 10
217.0
 20
-1.913996
 30
0.0
 11
217.0
 21
-1.569308
 31
0.0
  0
LINE
  5
3B6
100
AcDbEntity
  8
LY_3
390
0
  6
CONTINUOUS
 62
     3
100
AcDbLine
 10
217.0
 20
-2.761194
 30
0.0
 11
217.0
 21
-2.397294
 31
0.0
  0
LINE
  5
3B7
100
AcDbEntity
  8
LY_3
390
0
  6
CONTINUOUS
 62
     3
100
AcDbLine
 10
216.5
 20
-1.62532
 30
0.0
 11
216.5
 21
-1.280633
 31
0.0
  0
LINE
  5
3B8
100
AcDbEntity
  8
LY_3
390
0
  6
CONTINUOUS
 62
     3
100
AcDbLine
 10
216.5
 20
-2.761194
 30
0.0
 11
216.5
 21
-2.462687
 31
0.0
  0
LINE
  5
3B9
100
AcDbEntity
  8
LY_3
390
0
  6
CONTINUOUS
 62
     3
100
AcDbLine
 10
217.628293
 20
-1.5
 30
0.0
 11
217.842535
 21
-1.5
 31
0.0
  0
LINE
  5
3BA
100
AcDbEntity
  8
LY_3
390
0
  6
CONTINUOUS
 62
     3
100
AcDbLine
 10
216.349999
 20
-1.5
 30
0.0
 11
216.879954
 21
-1.5
 31
0.0
  0
LINE
  5
3BB
100
AcDbEntity
  8
LY_3
390
0
  6
CONTINUOUS
 62
     3
100
AcDbLine
 10
217.148964
 20
-2.0
 30
0.0
 11
217.642599
 21
-2.0
 31
0.0
  0
LINE
  5
3BC
100
AcDbEntity
  8
LY_3
390
0
  6
CONTINUOUS
 62
     3
100
AcDbLine
 10
216.349999
 20
-2.5
 30
0.0
 11
217.842536
 21
-2.5
 31
0.0
  0
LINE
  5
3BD
100
AcDbEntity
  8
LY_3
390
0
  6
CONTINUOUS
 62
     3
100
AcDbLine
 10
217.5
 20
-1.150016
 30
0.0
 11
217.5
 21
-0.716012
 31
0.0
  0
LINE
  5
3BE
100
AcDbEntity
  8
LY_3
390
0
  6
CONTINUOUS
 62
     3
100
AcDbLine
 10
217.0
 20
-1.262422
 30
0.0
 11
217.0
 21
0.149253
 31
0.0
  0
LINE
  5
3BF
100
AcDbEntity
  8
LY_3
390
0
  6
CONTINUOUS
 62
     3
100
AcDbLine
 10
216.5
 20
-0.971145
 30
0.0
 11
216.5
 21
0.149253
 31
0.0
  0
LINE
  5
3C0
100
AcDbEntity
  8
LY_3
390
0
  6
CONTINUOUS
 62
     3
100
AcDbLine
 10
217.544028
 20
0.0
 30
0.0
 11
217.842536
 21
0.0
 31
0.0
  0
LINE
  5
3C1
100
AcDbEntity
  8
LY_3
390
0
  6
CONTINUOUS
 62
     3
100
AcDbLine
 10
216.947013
 20
0.0
 30
0.0
 11
217.245521
 21
0.0
 31
0.0
  0
LINE
  5
3C2
100
AcDbEntity
  8
LY_3
390
0
  6
CONTINUOUS
 62
     3
100
AcDbLine
 10
216.349999
 20
0.0
 30
0.0
 11
216.648506
 21
0.0
 31
0.0
  0
LINE
  5
3C3
100
AcDbEntity
  8
LY_3
390
0
  6
CONTINUOUS
 62
     3
100
AcDbLine
 10
217.544028
 20
-0.5
 30
0.0
 11
217.842536
 21
-0.5
 31
0.0
  0
LINE
  5
3C4
100
AcDbEntity
  8
LY_3
390
0
  6
CONTINUOUS
 62
     3
100
AcDbLine
 10
216.947014
 20
-0.5
 30
0.0
 11
217.245521
 21
-0.5
 31
0.0
  0
LINE
  5
3C5
100
AcDbEntity
  8
LY_3
390
0
  6
CONTINUOUS
 62
     3
100
AcDbLine
 10
216.349999
 20
-0.5
 30
0.0
 11
216.648506
 21
-0.5
 31
0.0
  0
LINE
  5
3C6
100
AcDbEntity
  8
LY_3
390
0
  6
CONTINUOUS
 62
     3
100
AcDbLine
 10
216.522853
 20
-1.0
 30
0.0
 11
217.669682
 21
-1.0
 31
0.0
  0
LINE
  5
3C7
100
AcDbEntity
  8
LY_3
390
0
  6
CONTINUOUS
 62
     3
100
AcDbLine
 10
217.5
 20
1.369866
 30
0.0
 11
217.5
 21
1.779514
 31
0.0
  0
LINE
  5
3C8
100
AcDbEntity
  8
LY_3
390
0
  6
CONTINUOUS
 62
     3
100
AcDbLine
 10
217.5
 20
0.459291
 30
0.0
 11
217.5
 21
0.868939
 31
0.0
  0
LINE
  5
3C9
100
AcDbEntity
  8
LY_3
390
0
  6
CONTINUOUS
 62
     3
100
AcDbLine
 10
217.0
 20
1.567164
 30
0.0
 11
217.0
 21
1.865671
 31
0.0
  0
LINE
  5
3CA
100
AcDbEntity
  8
LY_3
390
0
  6
CONTINUOUS
 62
     3
100
AcDbLine
 10
217.0
 20
0.373516
 30
0.0
 11
217.0
 21
0.671641
 31
0.0
  0
LINE
  5
3CB
100
AcDbEntity
  8
LY_3
390
0
  6
CONTINUOUS
 62
     3
100
AcDbLine
 10
216.5
 20
1.567164
 30
0.0
 11
216.5
 21
1.865671
 31
0.0
  0
LINE
  5
3CC
100
AcDbEntity
  8
LY_3
390
0
  6
CONTINUOUS
 62
     3
100
AcDbLine
 10
216.5
 20
0.374633
 30
0.0
 11
216.5
 21
0.671641
 31
0.0
  0
LINE
  5
3CD
100
AcDbEntity
  8
LY_3
390
0
  6
CONTINUOUS
 62
     3
100
AcDbLine
 10
217.384462
 20
1.5
 30
0.0
 11
217.768794
 21
1.5
 31
0.0
  0
LINE
  5
3CE
100
AcDbEntity
  8
LY_3
390
0
  6
CONTINUOUS
 62
     3
100
AcDbLine
 10
217.541332
 20
1.0
 30
0.0
 11
217.841042
 21
1.0
 31
0.0
  0
LINE
  5
3CF
100
AcDbEntity
  8
LY_3
390
0
  6
CONTINUOUS
 62
     3
100
AcDbLine
 10
216.349998
 20
0.5
 30
0.0
 11
217.563732
 21
0.5
 31
0.0
  0
LINE
  5
3D0
100
AcDbEntity
  8
LY_3
390
0
  6
CONTINUOUS
 62
     3
100
AcDbLine
 10
217.5
 20
2.655953
 30
0.0
 11
217.5
 21
3.089957
 31
0.0
  0
LINE
  5
3D1
100
AcDbEntity
  8
LY_3
390
0
  6
CONTINUOUS
 62
     3
100
AcDbLine
 10
217.0
 20
2.543547
 30
0.0
 11
217.0
 21
2.84629
 31
0.0
  0
LINE
  5
3D2
100
AcDbEntity
  8
LY_3
390
0
  6
CONTINUOUS
 62
     3
100
AcDbLine
 10
216.5
 20
2.834824
 30
0.0
 11
216.5
 21
4.029849
 31
0.0
  0
LINE
  5
3D3
100
AcDbEntity
  8
LY_3
390
0
  6
CONTINUOUS
 62
     3
100
AcDbLine
 10
217.544028
 20
4.0
 30
0.0
 11
217.842536
 21
4.0
 31
0.0
  0
LINE
  5
3D4
100
AcDbEntity
  8
LY_3
390
0
  6
CONTINUOUS
 62
     3
100
AcDbLine
 10
216.35176
 20
4.0
 30
0.0
 11
216.648506
 21
4.0
 31
0.0
  0
LINE
  5
3D5
100
AcDbEntity
  8
LY_3
390
0
  6
CONTINUOUS
 62
     3
100
AcDbLine
 10
217.544028
 20
3.5
 30
0.0
 11
217.842536
 21
3.5
 31
0.0
  0
LINE
  5
3D6
100
AcDbEntity
  8
LY_3
390
0
  6
CONTINUOUS
 62
     3
100
AcDbLine
 10
216.35053
 20
3.5
 30
0.0
 11
216.648506
 21
3.5
 31
0.0
  0
LINE
  5
3D7
100
AcDbEntity
  8
LY_3
390
0
  6
CONTINUOUS
 62
     3
100
AcDbLine
 10
217.442782
 20
3.0
 30
0.0
 11
217.786556
 21
3.0
 31
0.0
  0
LINE
  5
3D8
100
AcDbEntity
  8
LY_3
390
0
  6
CONTINUOUS
 62
     3
100
AcDbLine
 10
216.405978
 20
3.0
 30
0.0
 11
216.749752
 21
3.0
 31
0.0
  0
LINE
  5
3D9
100
AcDbEntity
  8
LY_3
390
0
  6
CONTINUOUS
 62
     3
100
AcDbLine
 10
216.5
 20
5.712573
 30
0.0
 11
216.5
 21
6.078471
 31
0.0
  0
LINE
  5
3DA
100
AcDbEntity
  8
LY_3
390
0
  6
CONTINUOUS
 62
     3
100
AcDbLine
 10
216.381996
 20
6.0
 30
0.0
 11
216.691134
 21
6.0
 31
0.0
  0
LINE
  5
3DB
100
AcDbEntity
  8
LY_3
390
0
  6
CONTINUOUS
 62
     3
100
AcDbLine
 10
216.5
 20
6.190184
 30
0.0
 11
216.5
 21
6.556082
 31
0.0
  0
LINE
  5
3DC
100
AcDbEntity
  8
LY_3
390
0
  6
CONTINUOUS
 62
     3
100
AcDbLine
 10
216.397513
 20
6.5
 30
0.0
 11
216.673358
 21
6.5
 31
0.0
  0
LINE
  5
3DD
100
AcDbEntity
  8
LY_3
390
0
  6
CONTINUOUS
 62
     3
100
AcDbLine
 10
217.5
 20
6.716417
 30
0.0
 11
217.5
 21
7.014925
 31
0.0
  0
LINE
  5
3DE
100
AcDbEntity
  8
LY_3
390
0
  6
CONTINUOUS
 62
     3
100
AcDbLine
 10
217.0
 20
6.716417
 30
0.0
 11
217.0
 21
7.014925
 31
0.0
  0
LINE
  5
3DF
100
AcDbEntity
  8
LY_3
390
0
  6
CONTINUOUS
 62
     3
100
AcDbLine
 10
216.5
 20
6.917697
 30
0.0
 11
216.5
 21
8.059701
 31
0.0
  0
LINE
  5
3E0
100
AcDbEntity
  8
LY_3
390
0
  6
CONTINUOUS
 62
     3
100
AcDbLine
 10
216.349998
 20
8.0
 30
0.0
 11
216.648506
 21
8.0
 31
0.0
  0
LINE
  5
3E1
100
AcDbEntity
  8
LY_3
390
0
  6
CONTINUOUS
 62
     3
100
AcDbLine
 10
216.349998
 20
7.5
 30
0.0
 11
216.648505
 21
7.5
 31
0.0
  0
LINE
  5
3E2
100
AcDbEntity
  8
LY_3
390
0
  6
CONTINUOUS
 62
     3
100
AcDbLine
 10
216.438892
 20
7.0
 30
0.0
 11
217.842535
 21
7.0
 31
0.0
  0
LINE
  5
3E3
100
AcDbEntity
  8
LY_3
390
0
  6
CONTINUOUS
 62
     3
100
AcDbLine
 10
217.5
 20
8.507462
 30
0.0
 11
217.5
 21
8.80597
 31
0.0
  0
LINE
  5
3E4
100
AcDbEntity
  8
LY_3
390
0
  6
CONTINUOUS
 62
     3
100
AcDbLine
 10
217.0
 20
8.507462
 30
0.0
 11
217.0
 21
8.80597
 31
0.0
  0
LINE
  5
3E5
100
AcDbEntity
  8
LY_3
390
0
  6
CONTINUOUS
 62
     3
100
AcDbLine
 10
216.5
 20
8.507462
 30
0.0
 11
216.5
 21
8.80597
 31
0.0
  0
LINE
  5
3E6
100
AcDbEntity
  8
LY_3
390
0
  6
CONTINUOUS
 62
     3
100
AcDbLine
 10
217.544028
 20
9.0
 30
0.0
 11
217.842535
 21
9.0
 31
0.0
  0
LINE
  5
3E7
100
AcDbEntity
  8
LY_3
390
0
  6
CONTINUOUS
 62
     3
100
AcDbLine
 10
217.544028
 20
8.5
 30
0.0
 11
217.842535
 21
8.5
 31
0.0
  0
LINE
  5
3E8
100
AcDbEntity
  8
LY_3
390
0
  6
CONTINUOUS
 62
     3
100
AcDbLine
 10
217.544028
 20
8.0
 30
0.0
 11
217.842535
 21
8.0
 31
0.0
  0
LINE
  5
3E9
100
AcDbEntity
  8
LY_3
390
0
  6
CONTINUOUS
 62
     3
100
AcDbLine
 10
217.0
 20
10.810424
 30
0.0
 11
217.0
 21
11.113167
 31
0.0
  0
LINE
  5
3EA
100
AcDbEntity
  8
LY_3
390
0
  6
CONTINUOUS
 62
     3
100
AcDbLine
 10
217.0
 20
9.552238
 30
0.0
 11
217.0
 21
9.850746
 31
0.0
  0
LINE
  5
3EB
100
AcDbEntity
  8
LY_3
390
0
  6
CONTINUOUS
 62
     3
100
AcDbLine
 10
216.5
 20
9.552238
 30
0.0
 11
216.5
 21
10.821891
 31
0.0
  0
LINE
  5
3EC
100
AcDbEntity
  8
LY_3
390
0
  6
CONTINUOUS
 62
     3
100
AcDbLine
 10
216.691353
 20
11.0
 30
0.0
 11
217.096266
 21
11.0
 31
0.0
  0
LINE
  5
3ED
100
AcDbEntity
  8
LY_3
390
0
  6
CONTINUOUS
 62
     3
100
AcDbLine
 10
216.360861
 20
10.5
 30
0.0
 11
216.666854
 21
10.5
 31
0.0
  0
LINE
  5
3EE
100
AcDbEntity
  8
LY_3
390
0
  6
CONTINUOUS
 62
     3
100
AcDbLine
 10
216.349998
 20
10.0
 30
0.0
 11
216.648505
 21
10.0
 31
0.0
  0
LINE
  5
3EF
100
AcDbEntity
  8
LY_3
390
0
  6
CONTINUOUS
 62
     3
100
AcDbLine
 10
217.5
 20
10.566755
 30
0.0
 11
217.5
 21
11.000761
 31
0.0
  0
LINE
  5
3F0
100
AcDbEntity
  8
LY_3
390
0
  6
CONTINUOUS
 62
     3
100
AcDbLine
 10
217.5
 20
9.552238
 30
0.0
 11
217.5
 21
9.850746
 31
0.0
  0
LINE
  5
3F1
100
AcDbEntity
  8
LY_3
390
0
  6
CONTINUOUS
 62
     3
100
AcDbLine
 10
217.096266
 20
11.0
 30
0.0
 11
217.50118
 21
11.0
 31
0.0
  0
LINE
  5
3F2
100
AcDbEntity
  8
LY_3
390
0
  6
CONTINUOUS
 62
     3
100
AcDbLine
 10
217.525679
 20
10.5
 30
0.0
 11
217.831672
 21
10.5
 31
0.0
  0
LINE
  5
3F3
100
AcDbEntity
  8
LY_3
390
0
  6
CONTINUOUS
 62
     3
100
AcDbLine
 10
217.544028
 20
10.0
 30
0.0
 11
217.842535
 21
10.0
 31
0.0
  0
ENDSEC
  0
SECTION
  2
OBJECTS
  0
DICTIONARY
  5
19
100
AcDbDictionary
280
     0
281
     1
  3
ACAD_GROUP
350
1A
  3
ACAD_MLINESTYLE
350
1B
  3
ACAD_LAYOUT
350
1E
  3
ACAD_PLOTSETTINGS
350
22
  3
ACAD_PLOTSTYLENAME
350
1F
  0
DICTIONARY
  5
1A
102
{ACAD_REACTORS
330
19
102
}
100
AcDbDictionary
280
     0
281
     1
  0
DICTIONARY
  5
1B
102
{ACAD_REACTORS
330
19
102
}
100
AcDbDictionary
280
     0
281
     1
  3
Standard
350
1C
  0
MLINESTYLE
  5
1C
102
{ACAD_REACTORS
330
1B
102
}
100
AcDbMlineStyle
  2
Standard
 70
     0
  3

 62
     0
 51
90.0
 52
90.0
 71
     2
 49
0.5
 62
   256
  6
ByLayer
 49
-0.5
 62
   256
  6
ByLayer
  0
ACDBDICTIONARYWDFLT
  5
1F
102
{ACAD_REACTORS
330
19
102
}
100
AcDbDictionary
281
     1
  3
Normal
350
1D
100
AcDbDictionaryWithDefault
340
1D
  0
ACDBPLACEHOLDER
  5
1D
102
{ACAD_REACTORS
330
1F
102
}
  0
LAYOUT
  5
20
102
{ACAD_REACTORS
330
1E
102
}
100
AcDbPlotSettings
  1

  2

  4

  6

 40
0.0
 41
0.0
 42
0.0
 43
0.0
 44
0.0
 45
0.0
 46
0.0
 47
0.0
 48
0.0
 49
0.0
140
0.0
141
0.0
142
1.0
143
1.0
 70
  1024
 72
     0
 73
     0
 74
     0
  7

 75
     0
147
1.0
148
0.0
149
0.0
100
AcDbLayout
  1
Model
 70
     0
 71
     0
 10
0.0
 20
0.0
 11
0.0
 21
0.0
 12
0.0
 22
0.0
 32
0.0
 14
0.0
 24
0.0
 34
0.0
 15
0.0
 25
0.0
 35
0.0
146
0.0
 13
0.0
 23
0.0
 33
0.0
 16
0.0
 26
0.0
 36
0.0
 17
0.0
 27
0.0
 37
0.0
 76
     0
330
A
331
0
345
0
346
0
  0
LAYOUT
  5
21
102
{ACAD_REACTORS
330
1E
102
}
100
AcDbPlotSettings
  1

  2

  4

  6

 40
0.0
 41
0.0
 42
0.0
 43
0.0
 44
0.0
 45
0.0
 46
0.0
 47
0.0
 48
0.0
 49
0.0
140
0.0
141
0.0
142
1.0
143
1.0
 70
     0
 72
     0
 73
     0
 74
     0
  7

 75
     0
147
1.0
148
0.0
149
0.0
100
AcDbLayout
  1
Layout1
 70
     0
 71
     0
 10
0.0
 20
0.0
 11
0.0
 21
0.0
 12
0.0
 22
0.0
 32
0.0
 14
0.0
 24
0.0
 34
0.0
 15
0.0
 25
0.0
 35
0.0
146
0.0
 13
0.0
 23
0.0
 33
0.0
 16
0.0
 26
0.0
 36
0.0
 17
0.0
 27
0.0
 37
0.0
 76
     0
330
B
331
0
345
0
346
0
  0
DICTIONARY
  5
1E
102
{ACAD_REACTORS
330
19
102
}
100
AcDbDictionary
280
     0
281
     1
  3
Layout1
350
21
  3
Model
350
20
  0
DICTIONARY
  5
22
102
{ACAD_REACTORS
330
19
102
}
100
AcDbDictionary
280
     0
281
     1
  0
ENDSEC
  0
EOF
