  0
SECTION
  2
HEADER
  9
$ACADVER
  1
AC1015
  9
$ACADMAINTVER
 70
     6
  9
$DWGCODEPAGE
  3
ANSI_932
  9
$INSBASE
 10
0.0
 20
0.0
 30
0.0
  9
$EXTMIN
 10
-5.0
 20
-52.5
 30
0.0
  9
$EXTMAX
 10
205.0
 20
52.5
 30
0.0
  9
$LIMMIN
 10
-5.0
 20
-52.5
  9
$LIMMAX
 10
205.0
 20
52.5
  9
$ORTHOMODE
 70
     0
  9
$REGENMODE
 70
     1
  9
$FILLMODE
 70
     1
  9
$QTEXTMODE
 70
     0
  9
$MIRRTEXT
 70
     1
  9
$LTSCALE
 40
1.0
  9
$ATTMODE
 70
     1
  9
$TEXTSIZE
 40
3.2
  9
$TRACEWID
 40
0.05
  9
$TEXTSTYLE
  7
MX_NOTE_STANDARD
  9
$CLAYER
  8
0
  9
$CELTYPE
  6
CONTINUOUS
  9
$CECOLOR
 62
   256
  9
$CELTSCALE
 40
1.0
  9
$DISPSILH
 70
     0
  9
$DIMSCALE
 40
1.0
  9
$DIMASZ
 40
2.5
  9
$DIMEXO
 40
2.0
  9
$DIMDLI
 40
3.75
  9
$DIMRND
 40
0.0
  9
$DIMDLE
 40
0.0
  9
$DIMEXE
 40
1.0
  9
$DIMTP
 40
0.0
  9
$DIMTM
 40
0.0
  9
$DIMTXT
 40
4.1656
  9
$DIMCEN
 40
2.5
  9
$DIMTSZ
 40
0.0
  9
$DIMTOL
 70
     0
  9
$DIMLIM
 70
     0
  9
$DIMTIH
 70
     0
  9
$DIMTOH
 70
     0
  9
$DIMSE1
 70
     0
  9
$DIMSE2
 70
     0
  9
$DIMTAD
 70
     1
  9
$DIMZIN
 70
     8
  9
$DIMBLK
  1

  9
$DIMASO
 70
     1
  9
$DIMSHO
 70
     1
  9
$DIMPOST
  1

  9
$DIMAPOST
  1

  9
$DIMALT
 70
     0
  9
$DIMALTD
 70
     4
  9
$DIMALTF
 40
0.03937
  9
$DIMLFAC
 40
1.0
  9
$DIMTOFL
 70
     1
  9
$DIMTVP
 40
0.0
  9
$DIMTIX
 70
     0
  9
$DIMSOXD
 70
     0
  9
$DIMSAH
 70
     1
  9
$DIMBLK1
  1
_OPEN30
  9
$DIMBLK2
  1
_OPEN30
  9
$DIMSTYLE
  2
MXDIMSTYLE
  9
$DIMCLRD
 70
     0
  9
$DIMCLRE
 70
     0
  9
$DIMCLRT
 70
     0
  9
$DIMTFAC
 40
1.0
  9
$DIMGAP
 40
1.0
  9
$DIMJUST
 70
     0
  9
$DIMSD1
 70
     0
  9
$DIMSD2
 70
     0
  9
$DIMTOLJ
 70
     0
  9
$DIMTZIN
 70
     0
  9
$DIMALTZ
 70
     0
  9
$DIMALTTZ
 70
     0
  9
$DIMUPT
 70
     0
  9
$DIMDEC
 70
     2
  9
$DIMTDEC
 70
     2
  9
$DIMALTU
 70
     2
  9
$DIMALTTD
 70
     4
  9
$DIMTXSTY
  7
MX_NOTE_STANDARD
  9
$DIMAUNIT
 70
     0
  9
$DIMADEC
 70
     0
  9
$DIMALTRND
 40
0.0
  9
$DIMAZIN
 70
     0
  9
$DIMDSEP
 70
    46
  9
$DIMATFIT
 70
     3
  9
$DIMFRAC
 70
     0
  9
$DIMLDRBLK
  1
_OPEN30
  9
$DIMLUNIT
 70
     2
  9
$DIMLWD
 70
    -2
  9
$DIMLWE
 70
    -2
  9
$DIMTMOVE
 70
     0
  9
$LUNITS
 70
     2
  9
$LUPREC
 70
     4
  9
$SKETCHINC
 40
0.1
  9
$FILLETRAD
 40
0.0
  9
$AUNITS
 70
     0
  9
$AUPREC
 70
     0
  9
$MENU
  1
acad
  9
$ELEVATION
 40
0.0
  9
$PELEVATION
 40
0.0
  9
$THICKNESS
 40
0.0
  9
$LIMCHECK
 70
     0
  9
$CHAMFERA
 40
0.0
  9
$CHAMFERB
 40
0.0
  9
$CHAMFERC
 40
0.0
  9
$CHAMFERD
 40
0.0
  9
$SKPOLY
 70
     0
  9
$TDCREATE
 40
2456958.559733796
  9
$TDUCREATE
 40
0.000000000
  9
$TDUPDATE
 40
2456958.559733796
  9
$TDUUPDATE
 40
0.000000000
  9
$TDINDWG
 40
0.0000000000
  9
$TDUSRTIMER
 40
0.0000000000
  9
$USRTIMER
 70
     1
  9
$ANGBASE
 50
0.0
  9
$ANGDIR
 70
     0
  9
$PDMODE
 70
     0
  9
$PDSIZE
 40
0.0
  9
$PLINEWID
 40
0.0
  9
$SPLFRAME
 70
     0
  9
$SPLINETYPE
 70
     6
  9
$SPLINESEGS
 70
     8
  9
$HANDSEED
  5
AE
  9
$SURFTAB1
 70
     6
  9
$SURFTAB2
 70
     6
  9
$SURFTYPE
 70
     6
  9
$SURFU
 70
     6
  9
$SURFV
 70
     6
  9
$UCSBASE
  2

  9
$UCSNAME
  2

  9
$UCSORG
 10
0.0
 20
0.0
 30
0.0
  9
$UCSXDIR
 10
1.0
 20
0.0
 30
0.0
  9
$UCSYDIR
 10
0.0
 20
1.0
 30
0.0
  9
$UCSORTHOREF
  2

  9
$UCSORTHOVIEW
 70
     0
  9
$UCSORGTOP
 10
0.0
 20
0.0
 30
0.0
  9
$UCSORGBOTTOM
 10
0.0
 20
0.0
 30
0.0
  9
$UCSORGLEFT
 10
0.0
 20
0.0
 30
0.0
  9
$UCSORGRIGHT
 10
0.0
 20
0.0
 30
0.0
  9
$UCSORGFRONT
 10
0.0
 20
0.0
 30
0.0
  9
$UCSORGBACK
 10
0.0
 20
0.0
 30
0.0
  9
$PUCSBASE
  2

  9
$PUCSNAME
  2

  9
$PUCSORG
 10
0.0
 20
0.0
 30
0.0
  9
$PUCSXDIR
 10
1.0
 20
0.0
 30
0.0
  9
$PUCSYDIR
 10
0.0
 20
1.0
 30
0.0
  9
$PUCSORTHOREF
  2

  9
$PUCSORTHOVIEW
 70
     0
  9
$PUCSORGTOP
 10
0.0
 20
0.0
 30
0.0
  9
$PUCSORGBOTTOM
 10
0.0
 20
0.0
 30
0.0
  9
$PUCSORGLEFT
 10
0.0
 20
0.0
 30
0.0
  9
$PUCSORGRIGHT
 10
0.0
 20
0.0
 30
0.0
  9
$PUCSORGFRONT
 10
0.0
 20
0.0
 30
0.0
  9
$PUCSORGBACK
 10
0.0
 20
0.0
 30
0.0
  9
$USERI1
 70
     0
  9
$USERI2
 70
     0
  9
$USERI3
 70
     0
  9
$USERI4
 70
     0
  9
$USERI5
 70
     0
  9
$USERR1
 40
0.0
  9
$USERR2
 40
0.0
  9
$USERR3
 40
0.0
  9
$USERR4
 40
0.0
  9
$USERR5
 40
0.0
  9
$WORLDVIEW
 70
     1
  9
$SHADEDGE
 70
     3
  9
$SHADEDIF
 70
    70
  9
$TILEMODE
 70
     1
  9
$MAXACTVP
 70
    16
  9
$PINSBASE
 10
0.0
 20
0.0
 30
0.0
  9
$PLIMCHECK
 70
     0
  9
$PEXTMIN
 10
1.000000E+20
 20
1.000000E+20
 30
1.000000E+20
  9
$PEXTMAX
 10
-1.000000E+20
 20
-1.000000E+20
 30
-1.000000E+20
  9
$PLIMMIN
 10
0.0
 20
0.0
  9
$PLIMMAX
 10
12.0
 20
9.0
  9
$UNITMODE
 70
     0
  9
$VISRETAIN
 70
     0
  9
$PLINEGEN
 70
     1
  9
$PSLTSCALE
 70
     0
  9
$TREEDEPTH
 70
  3020
  9
$CMLSTYLE
  2
Standard
  9
$CMLJUST
 70
     0
  9
$CMLSCALE
 40
1.0
  9
$PROXYGRAPHICS
 70
     0
  9
$MEASUREMENT
 70
     1
  9
$CELWEIGHT
370
     0
  9
$ENDCAPS
280
     0
  9
$JOINSTYLE
280
     0
  9
$LWDISPLAY
290
     0
  9
$INSUNITS
 70
     0
  9
$HYPERLINKBASE
  1

  9
$STYLESHEET
  1

  9
$XEDIT
290
     1
  9
$CEPSNTYPE
380
     0
  9
$PSTYLEMODE
290
     1
  9
$FINGERPRINTGUID
  2

  9
$VERSIONGUID
  2

  9
$EXTNAMES
290
     1
  9
$PSVPSCALE
 40
0.0
  0
ENDSEC
  0
SECTION
  2
CLASSES
  0
CLASS
  1
LWPOLYLINE
  2
AcDbPolyline
  3
AutoCAD 2000
 90
        0
280
     0
281
     1
  0
CLASS
  1
IMAGE
  2
AcDbRasterImage
  3
ISM
 90
      127
280
     0
281
     1
  0
CLASS
  1
OLE2FRAME
  2
AcDbOle2Frame
  3
AutoCAD 2000
 90
        0
280
     0
281
     1
  0
CLASS
  1
HATCH
  2
AcDbHatch
  3
AutoCAD 2000
 90
        0
280
     0
281
     1
  0
CLASS
  1
DICTIONARYVAR
  2
AcDbDictionaryVar
  3
AutoCAD 2000
 90
        0
280
     0
281
     0
  0
CLASS
  1
RASTERVARIABLES
  2
AcDbRasterVariables
  3
ISM
 90
        0
280
     0
281
     0
  0
CLASS
  1
IMAGEDEF
  2
AcDbRasterImageDef
  3
ISM
 90
        0
280
     0
281
     0
  0
CLASS
  1
IMAGEDEF_REACTOR
  2
AcDbRasterImageDefReactor
  3
ISM
 90
        1
280
     0
281
     0
  0
CLASS
  1
IDBUFFER
  2
AcDbIdBuffer
  3
AutoCAD 2000
 90
        0
280
     0
281
     0
  0
CLASS
  1
SPATIAL_FILTER
  2
AcDbSpatialFilter
  3
AutoCAD 2000
 90
        0
280
     0
281
     0
  0
CLASS
  1
XRECORD
  2
AcDbXrecord
  3
AutoCAD 2000
 90
        0
280
     0
281
     0
  0
CLASS
  1
SORTENTSTABLE
  2
AcDbSortentsTable
  3
AutoCAD 2000
 90
        0
280
     0
281
     0
  0
CLASS
  1
LAYER_INDEX
  2
AcDbLayerIndex
  3
AutoCAD 2000
 90
        0
280
     0
281
     0
  0
CLASS
  1
SPATIAL_INDEX
  2
AcDbSpatialIndex
  3
AutoCAD 2000
 90
        0
280
     0
281
     0
  0
CLASS
  1
OBJECT_PTR
  2
CAseDLPNTableRecord
  3
"ASE-LPNTableRecord"
 90
        1
280
     0
281
     0
  0
CLASS
  1
LAYOUT
  2
AcDbLayout
  3
AutoCAD 2000
 90
        0
280
     0
281
     0
  0
CLASS
  1
PLOTSETTINGS
  2
AcDbPlotSettings
  3
AutoCAD 2000
 90
        0
280
     0
281
     0
  0
CLASS
  1
ACDBDICTIONARYWDFLT
  2
AcDbDictionaryWithDefault
  3
AutoCAD 2000
 90
        0
280
     0
281
     0
  0
CLASS
  1
ACDBPLACEHOLDER
  2
AcDbPlaceHolder
  3
AutoCAD 2000
 90
        0
280
     0
281
     0
  0
ENDSEC
  0
SECTION
  2
TABLES
  0
TABLE
  2
VPORT
  5
7
100
AcDbSymbolTable
 70
     1
  0
VPORT
  5
15
100
AcDbSymbolTableRecord
100
AcDbViewportTableRecord
  2
*ACTIVE
 70
     0
 10
0.0
 20
0.0
 11
1.0
 21
1.0
 12
100.0
 22
0.0
 13
0.0
 23
0.0
 14
1.0
 24
1.0
 15
0.0
 25
0.0
 16
0.0
 26
0.0
 36
1.0
 17
0.0
 27
0.0
 37
0.0
 40
106.05
 41
1.732051
 42
50.0
 43
0.0
 44
0.0
 50
0.0
 51
0.0
 71
     0
 72
   100
 73
     1
 74
     1
 75
     0
 76
     0
 77
     0
 78
     0
281
     0
 65
     0
110
0.0
120
0.0
130
0.0
111
1.0
121
0.0
131
0.0
112
0.0
122
1.0
132
0.0
345
0
346
0
 79
     0
146
0.0
  0
ENDTAB
  0
TABLE
  2
LTYPE
  5
4
100
AcDbSymbolTable
 70
     5
  0
LTYPE
  5
11
100
AcDbSymbolTableRecord
100
AcDbLinetypeTableRecord
  2
BYBLOCK
 70
    64
  3

 72
    65
 73
     0
 40
0.0
  0
LTYPE
  5
12
100
AcDbSymbolTableRecord
100
AcDbLinetypeTableRecord
  2
BYLAYER
 70
    64
  3

 72
    65
 73
     0
 40
0.0
  0
LTYPE
  5
13
100
AcDbSymbolTableRecord
100
AcDbLinetypeTableRecord
  2
CONTINUOUS
 70
    64
  3
Solid line
 72
    65
 73
     0
 40
0.0
  0
LTYPE
  5
4D
100
AcDbSymbolTableRecord
100
AcDbLinetypeTableRecord
  2
PHANTOM
 70
    64
  3
Phantom ______  __  __  ______  __  __  ______
 72
    65
 73
     6
 40
63.5
 49
31.75
 74
     0
 49
-6.35
 74
     0
 49
6.35
 74
     0
 49
-6.35
 74
     0
 49
6.35
 74
     0
 49
-6.35
 74
     0
  0
LTYPE
  5
52
100
AcDbSymbolTableRecord
100
AcDbLinetypeTableRecord
  2
CENTER
 70
    64
  3
Center ____ _ ____ _ ____ _ ____ _ ____ _ ____
 72
    65
 73
     4
 40
50.8
 49
31.75
 74
     0
 49
-6.35
 74
     0
 49
6.35
 74
     0
 49
-6.35
 74
     0
  0
ENDTAB
  0
TABLE
  2
LAYER
  5
2
100
AcDbSymbolTable
 70
     3
  0
LAYER
  5
14
100
AcDbSymbolTableRecord
100
AcDbLayerTableRecord
  2
0
 70
     0
 62
     7
  6
CONTINUOUS
290
     1
370
    -3
390
1D
  0
LAYER
  5
23
100
AcDbSymbolTableRecord
100
AcDbLayerTableRecord
  2
DEFPOINTS
 70
     0
 62
     7
  6
CONTINUOUS
290
     0
370
    -3
390
1D
  0
LAYER
  5
24
100
AcDbSymbolTableRecord
100
AcDbLayerTableRecord
  2
LY_3
 70
     0
 62
     7
  6
CONTINUOUS
290
     1
370
    -3
390
1D
  0
ENDTAB
  0
TABLE
  2
STYLE
  5
3
100
AcDbSymbolTable
 70
     1
  0
STYLE
  5
17
100
AcDbSymbolTableRecord
100
AcDbTextStyleTableRecord
  2
MX_NOTE_STANDARD
 70
     0
 40
0.0
 41
1.0
 50
0.0
 71
     0
 42
3.2
  3
txt.shx
  4
extfont.shx
  0
ENDTAB
  0
TABLE
  2
VIEW
  5
5
100
AcDbSymbolTable
 70
     0
  0
ENDTAB
  0
TABLE
  2
UCS
  5
6
100
AcDbSymbolTable
 70
     0
  0
ENDTAB
  0
TABLE
  2
APPID
  5
8
100
AcDbSymbolTable
 70
     1
  0
APPID
  5
16
100
AcDbSymbolTableRecord
100
AcDbRegAppTableRecord
  2
ACAD
 70
     0
  0
ENDTAB
  0
TABLE
  2
DIMSTYLE
  5
9
100
AcDbSymbolTable
 70
     1
100
AcDbDimStyleTable
 71
     0
  0
DIMSTYLE
105
18
100
AcDbSymbolTableRecord
100
AcDbDimStyleTableRecord
  2
MXDIMSTYLE
 70
     0
  3

  4

 40
1.0
 41
2.5
 42
2.0
 43
3.75
 44
1.0
 45
0.0
 46
0.0
 47
0.0
 48
0.0
 71
     0
 72
     0
 73
     0
 74
     0
 75
     0
 76
     0
 77
     1
 78
     8
 79
     0
140
4.1656
141
2.5
142
0.0
143
0.03937
144
1.0
145
0.0
146
1.0
147
1.0
148
0.0
170
     0
171
     4
172
     1
173
     1
174
     0
175
     0
176
     0
177
     0
178
     0
179
     0
271
     2
272
     2
273
     2
274
     4
275
     0
276
     0
277
     2
278
    46
279
     0
280
     0
281
     0
282
     0
283
     0
284
     0
285
     0
286
     0
288
     0
289
     3
340
17
341
25
342
0
343
25
344
25
371
    -2
372
    -2
  0
ENDTAB
  0
TABLE
  2
BLOCK_RECORD
  5
1
100
AcDbSymbolTable
 70
     1
  0
BLOCK_RECORD
  5
A
100
AcDbSymbolTableRecord
100
AcDbBlockTableRecord
  2
*MODEL_SPACE
340
20
  0
BLOCK_RECORD
  5
B
100
AcDbSymbolTableRecord
100
AcDbBlockTableRecord
  2
*PAPER_SPACE
340
21
  0
BLOCK_RECORD
  5
25
100
AcDbSymbolTableRecord
100
AcDbBlockTableRecord
  2
_OPEN30
340
0
  0
ENDTAB
  0
ENDSEC
  0
SECTION
  2
BLOCKS
  0
BLOCK
  5
D
100
AcDbEntity
  8
0
390
0
100
AcDbBlockBegin
  2
*MODEL_SPACE
 70
     0
 10
0.0
 20
0.0
 30
0.0
  3
*MODEL_SPACE
  1

  0
ENDBLK
  5
E
100
AcDbEntity
  8
0
390
0
100
AcDbBlockEnd
  0
BLOCK
  5
F
100
AcDbEntity
 67
     1
  8
0
390
0
100
AcDbBlockBegin
  2
*PAPER_SPACE
 70
     0
 10
0.0
 20
0.0
 30
0.0
  3
*PAPER_SPACE
  1

  0
ENDBLK
  5
10
100
AcDbEntity
 67
     1
  8
0
390
0
100
AcDbBlockEnd
  0
BLOCK
  5
26
100
AcDbEntity
  8
0
370
    -2
390
0
  6
ByBlock
 62
     0
100
AcDbBlockBegin
  2
_OPEN30
 70
     2
 10
0.0
 20
0.0
 30
0.0
  3
_OPEN30
  1

  0
LINE
  5
27
100
AcDbEntity
  8
0
370
    -2
390
0
  6
ByBlock
 62
     0
100
AcDbLine
 10
-1.0
 20
0.267949
 30
0.0
 11
0.0
 21
0.0
 31
0.0
  0
LINE
  5
28
100
AcDbEntity
  8
0
370
    -2
390
0
  6
ByBlock
 62
     0
100
AcDbLine
 10
0.0
 20
0.0
 30
0.0
 11
-1.0
 21
-0.267949
 31
0.0
  0
LINE
  5
29
100
AcDbEntity
  8
0
370
    -2
390
0
  6
ByBlock
 62
     0
100
AcDbLine
 10
0.0
 20
0.0
 30
0.0
 11
-1.0
 21
0.0
 31
0.0
  0
ENDBLK
  5
2A
100
AcDbEntity
  8
0
370
    -2
390
0
  6
ByBlock
 62
     0
100
AcDbBlockEnd
  0
ENDSEC
  0
SECTION
  2
ENTITIES
  0
LINE
  5
2B
100
AcDbEntity
  8
0
390
0
  6
CONTINUOUS
 62
     3
100
AcDbLine
 10
151.725833
 20
-24.3
 30
0.0
 11
151.725833
 21
0.0
 31
0.0
  0
LINE
  5
2C
100
AcDbEntity
  8
0
390
0
  6
CONTINUOUS
 62
     3
100
AcDbLine
 10
48.274167
 20
-24.3
 30
0.0
 11
48.274167
 21
0.0
 31
0.0
  0
LINE
  5
2D
100
AcDbEntity
  8
0
390
0
  6
CONTINUOUS
 62
     3
100
AcDbLine
 10
49.4
 20
-26.25
 30
0.0
 11
48.274167
 21
-24.3
 31
0.0
  0
LINE
  5
2E
100
AcDbEntity
  8
0
390
0
  6
CONTINUOUS
 62
     3
100
AcDbLine
 10
150.6
 20
26.25
 30
0.0
 11
151.725833
 21
24.3
 31
0.0
  0
LINE
  5
2F
100
AcDbEntity
  8
0
390
0
  6
CONTINUOUS
 62
     3
100
AcDbLine
 10
150.6
 20
-26.25
 30
0.0
 11
151.725833
 21
-24.3
 31
0.0
  0
LINE
  5
30
100
AcDbEntity
  8
0
390
0
  6
CONTINUOUS
 62
     3
100
AcDbLine
 10
49.4
 20
26.25
 30
0.0
 11
48.274167
 21
24.3
 31
0.0
  0
LINE
  5
31
100
AcDbEntity
  8
0
390
0
  6
CONTINUOUS
 62
     3
100
AcDbLine
 10
49.4
 20
-26.25
 30
0.0
 11
49.4
 21
0.0
 31
0.0
  0
LINE
  5
32
100
AcDbEntity
  8
0
390
0
  6
CONTINUOUS
 62
     3
100
AcDbLine
 10
150.6
 20
-26.25
 30
0.0
 11
150.6
 21
0.0
 31
0.0
  0
ARC
  5
33
100
AcDbEntity
  8
LY_3
390
0
  6
CONTINUOUS
 62
     3
100
AcDbCircle
 10
193.5
 20
28.3
 30
0.0
 40
4.0
100
AcDbArc
 50
270.0
 51
0.0
  0
ARC
  5
34
100
AcDbEntity
  8
LY_3
390
0
  6
CONTINUOUS
 62
     3
100
AcDbCircle
 10
136.95
 20
-20.55
 30
0.0
 40
1.45
100
AcDbArc
 50
0.0
 51
180.0
  0
ARC
  5
35
100
AcDbEntity
  8
LY_3
390
0
  6
CONTINUOUS
 62
     3
100
AcDbCircle
 10
139.85
 20
-23.55
 30
0.0
 40
1.45
100
AcDbArc
 50
180.0
 51
0.0
  0
ARC
  5
36
100
AcDbEntity
  8
LY_3
390
0
  6
CONTINUOUS
 62
     3
100
AcDbCircle
 10
142.75
 20
-20.55
 30
0.0
 40
1.45
100
AcDbArc
 50
0.0
 51
180.0
  0
ARC
  5
37
100
AcDbEntity
  8
LY_3
390
0
  6
CONTINUOUS
 62
     3
100
AcDbCircle
 10
145.65
 20
-23.55
 30
0.0
 40
1.45
100
AcDbArc
 50
180.0
 51
0.0
  0
ARC
  5
38
100
AcDbEntity
  8
LY_3
390
0
  6
CONTINUOUS
 62
     3
100
AcDbCircle
 10
148.55
 20
-20.55
 30
0.0
 40
1.45
100
AcDbArc
 50
0.0
 51
180.0
  0
ARC
  5
39
100
AcDbEntity
  8
LY_3
390
0
  6
CONTINUOUS
 62
     3
100
AcDbCircle
 10
65.95
 20
-23.55
 30
0.0
 40
1.45
100
AcDbArc
 50
180.0
 51
0.0
  0
ARC
  5
3A
100
AcDbEntity
  8
LY_3
390
0
  6
CONTINUOUS
 62
     3
100
AcDbCircle
 10
63.05
 20
-20.55
 30
0.0
 40
1.45
100
AcDbArc
 50
0.0
 51
180.0
  0
ARC
  5
3B
100
AcDbEntity
  8
LY_3
390
0
  6
CONTINUOUS
 62
     3
100
AcDbCircle
 10
60.15
 20
-23.55
 30
0.0
 40
1.45
100
AcDbArc
 50
180.0
 51
0.0
  0
ARC
  5
3C
100
AcDbEntity
  8
LY_3
390
0
  6
CONTINUOUS
 62
     3
100
AcDbCircle
 10
57.25
 20
-20.55
 30
0.0
 40
1.45
100
AcDbArc
 50
0.0
 51
180.0
  0
ARC
  5
3D
100
AcDbEntity
  8
LY_3
390
0
  6
CONTINUOUS
 62
     3
100
AcDbCircle
 10
54.35
 20
-23.55
 30
0.0
 40
1.45
100
AcDbArc
 50
180.0
 51
0.0
  0
ARC
  5
3E
100
AcDbEntity
  8
LY_3
390
0
  6
CONTINUOUS
 62
     3
100
AcDbCircle
 10
51.45
 20
-20.55
 30
0.0
 40
1.45
100
AcDbArc
 50
0.0
 51
180.0
  0
ARC
  5
3F
100
AcDbEntity
  8
LY_3
390
0
  6
CONTINUOUS
 62
     3
100
AcDbCircle
 10
134.05
 20
-23.55
 30
0.0
 40
1.45
100
AcDbArc
 50
180.0
 51
0.0
  0
ARC
  5
40
100
AcDbEntity
  8
LY_3
390
0
  6
CONTINUOUS
 62
     3
100
AcDbCircle
 10
134.05
 20
23.55
 30
0.0
 40
1.45
100
AcDbArc
 50
0.0
 51
180.0
  0
ARC
  5
41
100
AcDbEntity
  8
LY_3
390
0
  6
CONTINUOUS
 62
     3
100
AcDbCircle
 10
136.95
 20
20.55
 30
0.0
 40
1.45
100
AcDbArc
 50
180.0
 51
0.0
  0
ARC
  5
42
100
AcDbEntity
  8
LY_3
390
0
  6
CONTINUOUS
 62
     3
100
AcDbCircle
 10
139.85
 20
23.55
 30
0.0
 40
1.45
100
AcDbArc
 50
0.0
 51
180.0
  0
ARC
  5
43
100
AcDbEntity
  8
LY_3
390
0
  6
CONTINUOUS
 62
     3
100
AcDbCircle
 10
142.75
 20
20.55
 30
0.0
 40
1.45
100
AcDbArc
 50
180.0
 51
0.0
  0
ARC
  5
44
100
AcDbEntity
  8
LY_3
390
0
  6
CONTINUOUS
 62
     3
100
AcDbCircle
 10
145.65
 20
23.55
 30
0.0
 40
1.45
100
AcDbArc
 50
0.0
 51
180.0
  0
ARC
  5
45
100
AcDbEntity
  8
LY_3
390
0
  6
CONTINUOUS
 62
     3
100
AcDbCircle
 10
148.55
 20
20.55
 30
0.0
 40
1.45
100
AcDbArc
 50
180.0
 51
0.0
  0
ARC
  5
46
100
AcDbEntity
  8
LY_3
390
0
  6
CONTINUOUS
 62
     3
100
AcDbCircle
 10
65.95
 20
23.55
 30
0.0
 40
1.45
100
AcDbArc
 50
0.0
 51
180.0
  0
ARC
  5
47
100
AcDbEntity
  8
LY_3
390
0
  6
CONTINUOUS
 62
     3
100
AcDbCircle
 10
63.05
 20
20.55
 30
0.0
 40
1.45
100
AcDbArc
 50
180.0
 51
0.0
  0
ARC
  5
48
100
AcDbEntity
  8
LY_3
390
0
  6
CONTINUOUS
 62
     3
100
AcDbCircle
 10
60.15
 20
23.55
 30
0.0
 40
1.45
100
AcDbArc
 50
0.0
 51
180.0
  0
ARC
  5
49
100
AcDbEntity
  8
LY_3
390
0
  6
CONTINUOUS
 62
     3
100
AcDbCircle
 10
57.25
 20
20.55
 30
0.0
 40
1.45
100
AcDbArc
 50
180.0
 51
0.0
  0
ARC
  5
4A
100
AcDbEntity
  8
LY_3
390
0
  6
CONTINUOUS
 62
     3
100
AcDbCircle
 10
54.35
 20
23.55
 30
0.0
 40
1.45
100
AcDbArc
 50
0.0
 51
180.0
  0
ARC
  5
4B
100
AcDbEntity
  8
LY_3
390
0
  6
CONTINUOUS
 62
     3
100
AcDbCircle
 10
51.45
 20
20.55
 30
0.0
 40
1.45
100
AcDbArc
 50
180.0
 51
0.0
  0
ARC
  5
4C
100
AcDbEntity
  8
LY_3
390
0
  6
CONTINUOUS
 62
     3
100
AcDbCircle
 10
4.5
 20
24.5
 30
0.0
 40
0.5
100
AcDbArc
 50
0.0
 51
90.0
  0
LINE
  5
4E
100
AcDbEntity
  8
LY_3
390
0
  6
PHANTOM
 62
   110
100
AcDbLine
 10
97.114965
 20
-25.0
 30
0.0
 11
134.05
 21
-25.0
 31
0.0
  0
LINE
  5
4F
100
AcDbEntity
  8
LY_3
390
0
  6
PHANTOM
 62
   110
100
AcDbLine
 10
98.155294
 20
-19.1
 30
0.0
 11
136.95
 21
-19.1
 31
0.0
  0
LINE
  5
50
100
AcDbEntity
  8
LY_3
390
0
  6
PHANTOM
 62
   110
100
AcDbLine
 10
104.890985
 20
19.1
 30
0.0
 11
136.95
 21
19.1
 31
0.0
  0
LINE
  5
51
100
AcDbEntity
  8
LY_3
390
0
  6
PHANTOM
 62
   110
100
AcDbLine
 10
105.931314
 20
25.0
 30
0.0
 11
134.05
 21
25.0
 31
0.0
  0
LINE
  5
53
100
AcDbEntity
  8
LY_3
390
0
  6
CENTER
 62
   110
100
AcDbLine
 10
93.539704
 20
-28.0
 30
0.0
 11
103.414015
 21
28.0
 31
0.0
  0
LINE
  5
54
100
AcDbEntity
  8
LY_3
390
0
  6
CENTER
 62
   110
100
AcDbLine
 10
96.585984
 20
-28.0
 30
0.0
 11
106.460295
 21
28.0
 31
0.0
  0
LINE
  5
55
100
AcDbEntity
  8
LY_3
390
0
  6
CONTINUOUS
 62
     3
100
AcDbLine
 10
132.6
 20
0.0
 30
0.0
 11
132.6
 21
-23.55
 31
0.0
  0
LINE
  5
56
100
AcDbEntity
  8
LY_3
390
0
  6
CONTINUOUS
 62
     3
100
AcDbLine
 10
135.5
 20
0.0
 30
0.0
 11
135.5
 21
-23.55
 31
0.0
  0
LINE
  5
57
100
AcDbEntity
  8
LY_3
390
0
  6
CONTINUOUS
 62
     3
100
AcDbLine
 10
138.4
 20
0.0
 30
0.0
 11
138.4
 21
-23.55
 31
0.0
  0
LINE
  5
58
100
AcDbEntity
  8
LY_3
390
0
  6
CONTINUOUS
 62
     3
100
AcDbLine
 10
141.3
 20
0.0
 30
0.0
 11
141.3
 21
-23.55
 31
0.0
  0
LINE
  5
59
100
AcDbEntity
  8
LY_3
390
0
  6
CONTINUOUS
 62
     3
100
AcDbLine
 10
144.2
 20
0.0
 30
0.0
 11
144.2
 21
-23.55
 31
0.0
  0
LINE
  5
5A
100
AcDbEntity
  8
LY_3
390
0
  6
CONTINUOUS
 62
     3
100
AcDbLine
 10
147.1
 20
0.0
 30
0.0
 11
147.1
 21
-23.55
 31
0.0
  0
LINE
  5
5B
100
AcDbEntity
  8
LY_3
390
0
  6
PHANTOM
 62
   110
100
AcDbLine
 10
65.95
 20
-25.0
 30
0.0
 11
94.068685
 21
-25.0
 31
0.0
  0
LINE
  5
5C
100
AcDbEntity
  8
LY_3
390
0
  6
PHANTOM
 62
   110
100
AcDbLine
 10
63.05
 20
-19.1
 30
0.0
 11
95.109014
 21
-19.1
 31
0.0
  0
LINE
  5
5D
100
AcDbEntity
  8
LY_3
390
0
  6
CONTINUOUS
 62
     3
100
AcDbLine
 10
67.4
 20
0.0
 30
0.0
 11
67.4
 21
-23.55
 31
0.0
  0
LINE
  5
5E
100
AcDbEntity
  8
LY_3
390
0
  6
CONTINUOUS
 62
     3
100
AcDbLine
 10
64.5
 20
0.0
 30
0.0
 11
64.5
 21
-23.55
 31
0.0
  0
LINE
  5
5F
100
AcDbEntity
  8
LY_3
390
0
  6
CONTINUOUS
 62
     3
100
AcDbLine
 10
61.6
 20
0.0
 30
0.0
 11
61.6
 21
-23.55
 31
0.0
  0
LINE
  5
60
100
AcDbEntity
  8
LY_3
390
0
  6
CONTINUOUS
 62
     3
100
AcDbLine
 10
58.7
 20
0.0
 30
0.0
 11
58.7
 21
-23.55
 31
0.0
  0
LINE
  5
61
100
AcDbEntity
  8
LY_3
390
0
  6
CONTINUOUS
 62
     3
100
AcDbLine
 10
55.8
 20
0.0
 30
0.0
 11
55.8
 21
-23.55
 31
0.0
  0
LINE
  5
62
100
AcDbEntity
  8
LY_3
390
0
  6
CONTINUOUS
 62
     3
100
AcDbLine
 10
52.9
 20
0.0
 30
0.0
 11
52.9
 21
-23.55
 31
0.0
  0
LINE
  5
63
100
AcDbEntity
  8
LY_3
390
0
  6
CONTINUOUS
 62
     3
100
AcDbLine
 10
132.6
 20
20.45
 30
0.0
 11
132.6
 21
23.55
 31
0.0
  0
LINE
  5
64
100
AcDbEntity
  8
LY_3
390
0
  6
CONTINUOUS
 62
     3
100
AcDbLine
 10
135.5
 20
20.55
 30
0.0
 11
135.5
 21
23.55
 31
0.0
  0
LINE
  5
65
100
AcDbEntity
  8
LY_3
390
0
  6
CONTINUOUS
 62
     3
100
AcDbLine
 10
138.4
 20
20.55
 30
0.0
 11
138.4
 21
23.55
 31
0.0
  0
LINE
  5
66
100
AcDbEntity
  8
LY_3
390
0
  6
CONTINUOUS
 62
     3
100
AcDbLine
 10
141.3
 20
20.55
 30
0.0
 11
141.3
 21
23.55
 31
0.0
  0
LINE
  5
67
100
AcDbEntity
  8
LY_3
390
0
  6
CONTINUOUS
 62
     3
100
AcDbLine
 10
144.2
 20
20.55
 30
0.0
 11
144.2
 21
23.55
 31
0.0
  0
LINE
  5
68
100
AcDbEntity
  8
LY_3
390
0
  6
CONTINUOUS
 62
     3
100
AcDbLine
 10
147.1
 20
20.55
 30
0.0
 11
147.1
 21
23.55
 31
0.0
  0
LINE
  5
69
100
AcDbEntity
  8
LY_3
390
0
  6
PHANTOM
 62
   110
100
AcDbLine
 10
65.95
 20
25.0
 30
0.0
 11
102.885034
 21
25.0
 31
0.0
  0
LINE
  5
6A
100
AcDbEntity
  8
LY_3
390
0
  6
PHANTOM
 62
   110
100
AcDbLine
 10
63.05
 20
19.1
 30
0.0
 11
101.844705
 21
19.1
 31
0.0
  0
LINE
  5
6B
100
AcDbEntity
  8
LY_3
390
0
  6
CONTINUOUS
 62
     3
100
AcDbLine
 10
67.4
 20
20.45
 30
0.0
 11
67.4
 21
23.55
 31
0.0
  0
LINE
  5
6C
100
AcDbEntity
  8
LY_3
390
0
  6
CONTINUOUS
 62
     3
100
AcDbLine
 10
64.5
 20
20.55
 30
0.0
 11
64.5
 21
23.55
 31
0.0
  0
LINE
  5
6D
100
AcDbEntity
  8
LY_3
390
0
  6
CONTINUOUS
 62
     3
100
AcDbLine
 10
61.6
 20
20.55
 30
0.0
 11
61.6
 21
23.55
 31
0.0
  0
LINE
  5
6E
100
AcDbEntity
  8
LY_3
390
0
  6
CONTINUOUS
 62
     3
100
AcDbLine
 10
58.7
 20
20.55
 30
0.0
 11
58.7
 21
23.55
 31
0.0
  0
LINE
  5
6F
100
AcDbEntity
  8
LY_3
390
0
  6
CONTINUOUS
 62
     3
100
AcDbLine
 10
55.8
 20
20.55
 30
0.0
 11
55.8
 21
23.55
 31
0.0
  0
LINE
  5
70
100
AcDbEntity
  8
LY_3
390
0
  6
CONTINUOUS
 62
     3
100
AcDbLine
 10
52.9
 20
20.55
 30
0.0
 11
52.9
 21
23.55
 31
0.0
  0
LINE
  5
71
100
AcDbEntity
  8
LY_3
390
0
  6
CONTINUOUS
 62
     3
100
AcDbLine
 10
170.0
 20
-24.3
 30
0.0
 11
151.725833
 21
-24.3
 31
0.0
  0
LINE
  5
72
100
AcDbEntity
  8
LY_3
390
0
  6
CONTINUOUS
 62
     3
100
AcDbLine
 10
150.6
 20
-26.25
 30
0.0
 11
150.0
 21
-26.25
 31
0.0
  0
LINE
  5
73
100
AcDbEntity
  8
LY_3
390
0
  6
CONTINUOUS
 62
     3
100
AcDbLine
 10
150.0
 20
-26.25
 30
0.0
 11
150.0
 21
26.25
 31
0.0
  0
LINE
  5
74
100
AcDbEntity
  8
LY_3
390
0
  6
CENTER
 62
   110
100
AcDbLine
 10
184.5
 20
-42.5
 30
0.0
 11
200.5
 21
-42.5
 31
0.0
  0
LINE
  5
75
100
AcDbEntity
  8
LY_3
390
0
  6
CONTINUOUS
 62
     3
100
AcDbLine
 10
196.5
 20
-52.5
 30
0.0
 11
197.5
 21
-51.5
 31
0.0
  0
LINE
  5
76
100
AcDbEntity
  8
LY_3
390
0
  6
CONTINUOUS
 62
     3
100
AcDbLine
 10
188.0
 20
-52.5
 30
0.0
 11
196.5
 21
-52.5
 31
0.0
  0
LINE
  5
77
100
AcDbEntity
  8
LY_3
390
0
  6
CONTINUOUS
 62
     3
100
AcDbLine
 10
187.5
 20
-52.0
 30
0.0
 11
187.5
 21
0.0
 31
0.0
  0
LINE
  5
78
100
AcDbEntity
  8
LY_3
390
0
  6
CONTINUOUS
 62
     3
100
AcDbLine
 10
170.0
 20
-24.3
 30
0.0
 11
170.0
 21
24.3
 31
0.0
  0
LINE
  5
79
100
AcDbEntity
  8
LY_3
390
0
  6
CONTINUOUS
 62
     3
100
AcDbLine
 10
170.0
 20
-24.3
 30
0.0
 11
187.5
 21
-24.3
 31
0.0
  0
LINE
  5
7A
100
AcDbEntity
  8
LY_3
390
0
  6
CONTINUOUS
 62
     3
100
AcDbLine
 10
197.5
 20
-36.5
 30
0.0
 11
200.0
 21
-36.5
 31
0.0
  0
LINE
  5
7B
100
AcDbEntity
  8
LY_3
390
0
  6
CONTINUOUS
 62
     3
100
AcDbLine
 10
197.5
 20
-51.5
 30
0.0
 11
197.5
 21
0.0
 31
0.0
  0
LINE
  5
7C
100
AcDbEntity
  8
LY_3
390
0
  6
CONTINUOUS
 62
     3
100
AcDbLine
 10
200.0
 20
-36.5
 30
0.0
 11
200.0
 21
36.5
 31
0.0
  0
LINE
  5
7D
100
AcDbEntity
  8
LY_3
390
0
  6
CONTINUOUS
 62
     3
100
AcDbLine
 10
170.0
 20
22.65
 30
0.0
 11
150.0
 21
22.65
 31
0.0
  0
LINE
  5
7E
100
AcDbEntity
  8
LY_3
390
0
  6
CONTINUOUS
 62
     3
100
AcDbLine
 10
170.0
 20
24.3
 30
0.0
 11
151.725833
 21
24.3
 31
0.0
  0
LINE
  5
7F
100
AcDbEntity
  8
LY_3
390
0
  6
CONTINUOUS
 62
     3
100
AcDbLine
 10
150.6
 20
26.25
 30
0.0
 11
150.0
 21
26.25
 31
0.0
  0
LINE
  5
80
100
AcDbEntity
  8
LY_3
390
0
  6
CONTINUOUS
 62
     3
100
AcDbLine
 10
197.5
 20
29.5
 30
0.0
 11
192.499999
 21
24.5
 31
0.0
  0
LINE
  5
81
100
AcDbEntity
  8
LY_3
390
0
  6
CONTINUOUS
 62
     3
100
AcDbLine
 10
187.5
 20
24.5
 30
0.0
 11
192.499999
 21
24.5
 31
0.0
  0
LINE
  5
82
100
AcDbEntity
  8
LY_3
390
0
  6
CONTINUOUS
 62
     3
100
AcDbLine
 10
187.5
 20
37.5
 30
0.0
 11
197.5
 21
37.5
 31
0.0
  0
LINE
  5
83
100
AcDbEntity
  8
LY_3
390
0
  6
CONTINUOUS
 62
     3
100
AcDbLine
 10
187.5
 20
47.5
 30
0.0
 11
197.5
 21
47.5
 31
0.0
  0
LINE
  5
84
100
AcDbEntity
  8
LY_3
390
0
  6
CENTER
 62
   110
100
AcDbLine
 10
184.5
 20
42.5
 30
0.0
 11
200.5
 21
42.5
 31
0.0
  0
LINE
  5
85
100
AcDbEntity
  8
LY_3
390
0
  6
CONTINUOUS
 62
     3
100
AcDbLine
 10
196.5
 20
52.5
 30
0.0
 11
197.5
 21
51.5
 31
0.0
  0
LINE
  5
86
100
AcDbEntity
  8
LY_3
390
0
  6
CONTINUOUS
 62
     3
100
AcDbLine
 10
188.0
 20
52.5
 30
0.0
 11
196.5
 21
52.5
 31
0.0
  0
LINE
  5
87
100
AcDbEntity
  8
LY_3
390
0
  6
CONTINUOUS
 62
     3
100
AcDbLine
 10
187.5
 20
52.0
 30
0.0
 11
187.5
 21
24.3
 31
0.0
  0
LINE
  5
88
100
AcDbEntity
  8
LY_3
390
0
  6
CONTINUOUS
 62
     3
100
AcDbLine
 10
170.0
 20
21.5
 30
0.0
 11
200.0
 21
21.5
 31
0.0
  0
LINE
  5
89
100
AcDbEntity
  8
LY_3
390
0
  6
CONTINUOUS
 62
     3
100
AcDbLine
 10
170.0
 20
24.3
 30
0.0
 11
193.5
 21
24.3
 31
0.0
  0
LINE
  5
8A
100
AcDbEntity
  8
LY_3
390
0
  6
CONTINUOUS
 62
     3
100
AcDbLine
 10
197.5
 20
36.5
 30
0.0
 11
200.0
 21
36.5
 31
0.0
  0
LINE
  5
8B
100
AcDbEntity
  8
LY_3
390
0
  6
CONTINUOUS
 62
     3
100
AcDbLine
 10
197.5
 20
51.5
 30
0.0
 11
197.5
 21
28.3
 31
0.0
  0
LINE
  5
8C
100
AcDbEntity
  8
LY_3
390
0
  6
CONTINUOUS
 62
     3
100
AcDbLine
 10
10.0
 20
-24.3
 30
0.0
 11
48.274167
 21
-24.3
 31
0.0
  0
LINE
  5
8D
100
AcDbEntity
  8
LY_3
390
0
  6
CONTINUOUS
 62
     3
100
AcDbLine
 10
49.4
 20
-26.25
 30
0.0
 11
50.0
 21
-26.25
 31
0.0
  0
LINE
  5
8E
100
AcDbEntity
  8
LY_3
390
0
  6
CONTINUOUS
 62
     3
100
AcDbLine
 10
50.0
 20
-26.25
 30
0.0
 11
50.0
 21
26.25
 31
0.0
  0
LINE
  5
8F
100
AcDbEntity
  8
LY_3
390
0
  6
CONTINUOUS
 62
     3
100
AcDbLine
 10
5.0
 20
0.0
 30
0.0
 11
5.0
 21
24.5
 31
0.0
  0
LINE
  5
90
100
AcDbEntity
  8
LY_3
390
0
  6
CONTINUOUS
 62
     3
100
AcDbLine
 10
7.0
 20
0.0
 30
0.0
 11
7.0
 21
24.45
 31
0.0
  0
LINE
  5
91
100
AcDbEntity
  8
LY_3
390
0
  6
CENTER
 62
   110
100
AcDbLine
 10
-3.0
 20
-42.5
 30
0.0
 11
13.0
 21
-42.5
 31
0.0
  0
LINE
  5
92
100
AcDbEntity
  8
LY_3
390
0
  6
CONTINUOUS
 62
     3
100
AcDbLine
 10
9.0
 20
-52.5
 30
0.0
 11
10.0
 21
-51.5
 31
0.0
  0
LINE
  5
93
100
AcDbEntity
  8
LY_3
390
0
  6
CONTINUOUS
 62
     3
100
AcDbLine
 10
0.5
 20
-52.5
 30
0.0
 11
9.0
 21
-52.5
 31
0.0
  0
LINE
  5
94
100
AcDbEntity
  8
LY_3
390
0
  6
CONTINUOUS
 62
     3
100
AcDbLine
 10
10.0
 20
-51.5
 30
0.0
 11
10.0
 21
0.0
 31
0.0
  0
LINE
  5
95
100
AcDbEntity
  8
LY_3
390
0
  6
CONTINUOUS
 62
     3
100
AcDbLine
 10
0.0
 20
-52.0
 30
0.0
 11
0.0
 21
52.0
 31
0.0
  0
LINE
  5
96
100
AcDbEntity
  8
LY_3
390
0
  6
CONTINUOUS
 62
     3
100
AcDbLine
 10
7.0
 20
22.65
 30
0.0
 11
50.0
 21
22.65
 31
0.0
  0
LINE
  5
97
100
AcDbEntity
  8
LY_3
390
0
  6
CONTINUOUS
 62
     3
100
AcDbLine
 10
7.0
 20
24.3
 30
0.0
 11
48.274167
 21
24.3
 31
0.0
  0
LINE
  5
98
100
AcDbEntity
  8
LY_3
390
0
  6
CONTINUOUS
 62
     3
100
AcDbLine
 10
49.4
 20
26.25
 30
0.0
 11
50.0
 21
26.25
 31
0.0
  0
LINE
  5
99
100
AcDbEntity
  8
LY_3
390
0
  6
CONTINUOUS
 62
     3
100
AcDbLine
 10
5.0
 20
23.95
 30
0.0
 11
7.0
 21
23.95
 31
0.0
  0
LINE
  5
9A
100
AcDbEntity
  8
LY_3
390
0
  6
CONTINUOUS
 62
     3
100
AcDbLine
 10
7.0
 20
24.45
 30
0.0
 11
10.0
 21
24.45
 31
0.0
  0
LINE
  5
9B
100
AcDbEntity
  8
LY_3
390
0
  6
CONTINUOUS
 62
     3
100
AcDbLine
 10
0.0
 20
25.0
 30
0.0
 11
4.5
 21
25.0
 31
0.0
  0
LINE
  5
9C
100
AcDbEntity
  8
LY_3
390
0
  6
CONTINUOUS
 62
     3
100
AcDbLine
 10
3.0
 20
32.5
 30
0.0
 11
3.0
 21
27.5
 31
0.0
  0
LINE
  5
9D
100
AcDbEntity
  8
LY_3
390
0
  6
CONTINUOUS
 62
     3
100
AcDbLine
 10
0.0
 20
32.5
 30
0.0
 11
3.0
 21
32.5
 31
0.0
  0
LINE
  5
9E
100
AcDbEntity
  8
LY_3
390
0
  6
CONTINUOUS
 62
     3
100
AcDbLine
 10
0.0
 20
27.5
 30
0.0
 11
3.0
 21
27.5
 31
0.0
  0
LINE
  5
9F
100
AcDbEntity
  8
LY_3
390
0
  6
CONTINUOUS
 62
     3
100
AcDbLine
 10
0.0
 20
47.5
 30
0.0
 11
10.0
 21
47.5
 31
0.0
  0
LINE
  5
A0
100
AcDbEntity
  8
LY_3
390
0
  6
CONTINUOUS
 62
     3
100
AcDbLine
 10
0.0
 20
37.5
 30
0.0
 11
10.0
 21
37.5
 31
0.0
  0
LINE
  5
A1
100
AcDbEntity
  8
LY_3
390
0
  6
CENTER
 62
   110
100
AcDbLine
 10
-3.0
 20
42.5
 30
0.0
 11
13.0
 21
42.5
 31
0.0
  0
LINE
  5
A2
100
AcDbEntity
  8
LY_3
390
0
  6
CONTINUOUS
 62
     3
100
AcDbLine
 10
9.0
 20
52.5
 30
0.0
 11
10.0
 21
51.5
 31
0.0
  0
LINE
  5
A3
100
AcDbEntity
  8
LY_3
390
0
  6
CONTINUOUS
 62
     3
100
AcDbLine
 10
0.5
 20
52.5
 30
0.0
 11
9.0
 21
52.5
 31
0.0
  0
LINE
  5
A4
100
AcDbEntity
  8
LY_3
390
0
  6
CONTINUOUS
 62
     3
100
AcDbLine
 10
10.0
 20
51.5
 30
0.0
 11
10.0
 21
24.3
 31
0.0
  0
LINE
  5
A5
100
AcDbEntity
  8
LY_3
390
0
  6
CENTER
 62
   110
100
AcDbLine
 10
-5.0
 20
0.0
 30
0.0
 11
205.0
 21
0.0
 31
0.0
  0
LINE
  5
A6
100
AcDbEntity
  8
LY_3
390
0
  6
CONTINUOUS
 62
     3
100
AcDbLine
 10
9.0
 20
-52.5
 30
0.0
 11
9.0
 21
0.0
 31
0.0
  0
LINE
  5
A7
100
AcDbEntity
  8
LY_3
390
0
  6
CONTINUOUS
 62
     3
100
AcDbLine
 10
196.5
 20
-52.5
 30
0.0
 11
196.5
 21
0.0
 31
0.0
  0
LINE
  5
A8
100
AcDbEntity
  8
LY_3
390
0
  6
CONTINUOUS
 62
     3
100
AcDbLine
 10
0.0
 20
-52.0
 30
0.0
 11
0.5
 21
-52.5
 31
0.0
  0
LINE
  5
A9
100
AcDbEntity
  8
LY_3
390
0
  6
CONTINUOUS
 62
     3
100
AcDbLine
 10
0.0
 20
52.0
 30
0.0
 11
0.5
 21
52.5
 31
0.0
  0
LINE
  5
AA
100
AcDbEntity
  8
LY_3
390
0
  6
CONTINUOUS
 62
     3
100
AcDbLine
 10
187.5
 20
52.0
 30
0.0
 11
188.0
 21
52.5
 31
0.0
  0
LINE
  5
AB
100
AcDbEntity
  8
LY_3
390
0
  6
CONTINUOUS
 62
     3
100
AcDbLine
 10
187.5
 20
-52.0
 30
0.0
 11
188.0
 21
-52.5
 31
0.0
  0
LINE
  5
AC
100
AcDbEntity
  8
LY_3
390
0
  6
CONTINUOUS
 62
     3
100
AcDbLine
 10
0.5
 20
-52.5
 30
0.0
 11
0.5
 21
0.0
 31
0.0
  0
LINE
  5
AD
100
AcDbEntity
  8
LY_3
390
0
  6
CONTINUOUS
 62
     3
100
AcDbLine
 10
188.0
 20
-52.5
 30
0.0
 11
188.0
 21
0.0
 31
0.0
  0
ENDSEC
  0
SECTION
  2
OBJECTS
  0
DICTIONARY
  5
19
100
AcDbDictionary
280
     0
281
     1
  3
ACAD_GROUP
350
1A
  3
ACAD_MLINESTYLE
350
1B
  3
ACAD_LAYOUT
350
1E
  3
ACAD_PLOTSETTINGS
350
22
  3
ACAD_PLOTSTYLENAME
350
1F
  0
DICTIONARY
  5
1A
102
{ACAD_REACTORS
330
19
102
}
100
AcDbDictionary
280
     0
281
     1
  0
DICTIONARY
  5
1B
102
{ACAD_REACTORS
330
19
102
}
100
AcDbDictionary
280
     0
281
     1
  3
Standard
350
1C
  0
MLINESTYLE
  5
1C
102
{ACAD_REACTORS
330
1B
102
}
100
AcDbMlineStyle
  2
Standard
 70
     0
  3

 62
     0
 51
90.0
 52
90.0
 71
     2
 49
0.5
 62
   256
  6
ByLayer
 49
-0.5
 62
   256
  6
ByLayer
  0
ACDBDICTIONARYWDFLT
  5
1F
102
{ACAD_REACTORS
330
19
102
}
100
AcDbDictionary
281
     1
  3
Normal
350
1D
100
AcDbDictionaryWithDefault
340
1D
  0
ACDBPLACEHOLDER
  5
1D
102
{ACAD_REACTORS
330
1F
102
}
  0
LAYOUT
  5
20
102
{ACAD_REACTORS
330
1E
102
}
100
AcDbPlotSettings
  1

  2

  4

  6

 40
0.0
 41
0.0
 42
0.0
 43
0.0
 44
0.0
 45
0.0
 46
0.0
 47
0.0
 48
0.0
 49
0.0
140
0.0
141
0.0
142
1.0
143
1.0
 70
  1024
 72
     0
 73
     0
 74
     0
  7

 75
     0
147
1.0
148
0.0
149
0.0
100
AcDbLayout
  1
Model
 70
     0
 71
     0
 10
0.0
 20
0.0
 11
0.0
 21
0.0
 12
0.0
 22
0.0
 32
0.0
 14
0.0
 24
0.0
 34
0.0
 15
0.0
 25
0.0
 35
0.0
146
0.0
 13
0.0
 23
0.0
 33
0.0
 16
0.0
 26
0.0
 36
0.0
 17
0.0
 27
0.0
 37
0.0
 76
     0
330
A
331
0
345
0
346
0
  0
LAYOUT
  5
21
102
{ACAD_REACTORS
330
1E
102
}
100
AcDbPlotSettings
  1

  2

  4

  6

 40
0.0
 41
0.0
 42
0.0
 43
0.0
 44
0.0
 45
0.0
 46
0.0
 47
0.0
 48
0.0
 49
0.0
140
0.0
141
0.0
142
1.0
143
1.0
 70
     0
 72
     0
 73
     0
 74
     0
  7

 75
     0
147
1.0
148
0.0
149
0.0
100
AcDbLayout
  1
Layout1
 70
     0
 71
     0
 10
0.0
 20
0.0
 11
0.0
 21
0.0
 12
0.0
 22
0.0
 32
0.0
 14
0.0
 24
0.0
 34
0.0
 15
0.0
 25
0.0
 35
0.0
146
0.0
 13
0.0
 23
0.0
 33
0.0
 16
0.0
 26
0.0
 36
0.0
 17
0.0
 27
0.0
 37
0.0
 76
     0
330
B
331
0
345
0
346
0
  0
DICTIONARY
  5
1E
102
{ACAD_REACTORS
330
19
102
}
100
AcDbDictionary
280
     0
281
     1
  3
Layout1
350
21
  3
Model
350
20
  0
DICTIONARY
  5
22
102
{ACAD_REACTORS
330
19
102
}
100
AcDbDictionary
280
     0
281
     1
  0
ENDSEC
  0
EOF
